ISO-10303-21;
HEADER;
/* Generated by software containing ST-Developer
 * from STEP Tools, Inc. (www.steptools.com) 
 */
/* OPTION: strings as raw bytes, not using required /X/ escapes */

FILE_DESCRIPTION(
/* description */ ('Unknown'),
/* implementation_level */ '2;1');

FILE_NAME(
/* name */ '391100600',
/* time_stamp */ '2019-10-21T15:09:07+02:00',
/* author */ ('Unknown'),
/* organization */ ('Unknown'),
/* preprocessor_version */ 'ST-DEVELOPER v16.7',
/* originating_system */ 'DEX',
/* authorisation */ $);

FILE_SCHEMA (('AUTOMOTIVE_DESIGN {1 0 10303 214 3 1 1}'));
ENDSEC;

DATA;
#10=PROPERTY_DEFINITION_REPRESENTATION(#14,#12);
#11=PROPERTY_DEFINITION_REPRESENTATION(#15,#13);
#12=REPRESENTATION('',(#16),#337);
#13=REPRESENTATION('',(#17),#337);
#14=PROPERTY_DEFINITION('pmi validation property','',#342);
#15=PROPERTY_DEFINITION('pmi validation property','',#342);
#16=VALUE_REPRESENTATION_ITEM('number of annotations',COUNT_MEASURE(0.));
#17=VALUE_REPRESENTATION_ITEM('number of views',COUNT_MEASURE(0.));
#18=VERTEX_LOOP('',#88);
#19=DRAUGHTING_PRE_DEFINED_COLOUR('white');
#20=SHAPE_REPRESENTATION_RELATIONSHIP('','',#200,#21);
#21=ADVANCED_BREP_SHAPE_REPRESENTATION('',(#197,#198),#337);
#22=CYLINDRICAL_SURFACE('',#213,3.75);
#23=CYLINDRICAL_SURFACE('',#220,4.);
#24=CYLINDRICAL_SURFACE('',#226,3.);
#25=CYLINDRICAL_SURFACE('',#227,3.);
#26=TOROIDAL_SURFACE('',#209,3.95434574946537,0.5);
#27=TOROIDAL_SURFACE('',#217,3.6,0.4);
#28=TOROIDAL_SURFACE('',#222,3.6,0.4);
#29=TOROIDAL_SURFACE('',#230,3.5,0.5);
#30=CONICAL_SURFACE('',#205,4.32367301929154,0.174532925199433);
#31=CONICAL_SURFACE('',#207,4.5,0.0872664625997168);
#32=ORIENTED_EDGE('',*,*,#60,.F.);
#33=ORIENTED_EDGE('',*,*,#61,.T.);
#34=ORIENTED_EDGE('',*,*,#62,.T.);
#35=ORIENTED_EDGE('',*,*,#61,.F.);
#36=ORIENTED_EDGE('',*,*,#63,.T.);
#37=ORIENTED_EDGE('',*,*,#62,.F.);
#38=ORIENTED_EDGE('',*,*,#64,.T.);
#39=ORIENTED_EDGE('',*,*,#63,.F.);
#40=ORIENTED_EDGE('',*,*,#65,.T.);
#41=ORIENTED_EDGE('',*,*,#64,.F.);
#42=ORIENTED_EDGE('',*,*,#66,.T.);
#43=ORIENTED_EDGE('',*,*,#65,.F.);
#44=ORIENTED_EDGE('',*,*,#67,.T.);
#45=ORIENTED_EDGE('',*,*,#66,.F.);
#46=ORIENTED_EDGE('',*,*,#68,.F.);
#47=ORIENTED_EDGE('',*,*,#69,.T.);
#48=ORIENTED_EDGE('',*,*,#70,.F.);
#49=ORIENTED_EDGE('',*,*,#68,.T.);
#50=ORIENTED_EDGE('',*,*,#71,.F.);
#51=ORIENTED_EDGE('',*,*,#70,.T.);
#52=ORIENTED_EDGE('',*,*,#72,.F.);
#53=ORIENTED_EDGE('',*,*,#71,.T.);
#54=ORIENTED_EDGE('',*,*,#67,.F.);
#55=ORIENTED_EDGE('',*,*,#72,.T.);
#56=ORIENTED_EDGE('',*,*,#73,.F.);
#57=ORIENTED_EDGE('',*,*,#60,.T.);
#58=ORIENTED_EDGE('',*,*,#69,.F.);
#59=ORIENTED_EDGE('',*,*,#73,.T.);
#60=EDGE_CURVE('',#74,#74,#89,.T.);
#61=EDGE_CURVE('',#75,#75,#90,.T.);
#62=EDGE_CURVE('',#76,#76,#91,.T.);
#63=EDGE_CURVE('',#77,#77,#92,.T.);
#64=EDGE_CURVE('',#78,#78,#93,.T.);
#65=EDGE_CURVE('',#79,#79,#94,.T.);
#66=EDGE_CURVE('',#80,#80,#95,.T.);
#67=EDGE_CURVE('',#81,#81,#96,.T.);
#68=EDGE_CURVE('',#82,#82,#97,.T.);
#69=EDGE_CURVE('',#83,#83,#98,.T.);
#70=EDGE_CURVE('',#84,#84,#99,.T.);
#71=EDGE_CURVE('',#85,#85,#100,.T.);
#72=EDGE_CURVE('',#86,#86,#101,.T.);
#73=EDGE_CURVE('',#87,#87,#102,.T.);
#74=VERTEX_POINT('',#294);
#75=VERTEX_POINT('',#296);
#76=VERTEX_POINT('',#299);
#77=VERTEX_POINT('',#302);
#78=VERTEX_POINT('',#305);
#79=VERTEX_POINT('',#308);
#80=VERTEX_POINT('',#311);
#81=VERTEX_POINT('',#314);
#82=VERTEX_POINT('',#317);
#83=VERTEX_POINT('',#319);
#84=VERTEX_POINT('',#322);
#85=VERTEX_POINT('',#325);
#86=VERTEX_POINT('',#328);
#87=VERTEX_POINT('',#332);
#88=VERTEX_POINT('',#335);
#89=CIRCLE('',#203,3.);
#90=CIRCLE('',#204,4.32367301929154);
#91=CIRCLE('',#206,4.5);
#92=CIRCLE('',#208,4.45244309851124);
#93=CIRCLE('',#210,3.95434574946537);
#94=CIRCLE('',#212,3.75);
#95=CIRCLE('',#214,3.75);
#96=CIRCLE('',#216,3.);
#97=CIRCLE('',#218,4.);
#98=CIRCLE('',#219,3.6);
#99=CIRCLE('',#221,4.);
#100=CIRCLE('',#223,3.6);
#101=CIRCLE('',#225,3.);
#102=CIRCLE('',#228,3.);
#103=EDGE_LOOP('',(#32));
#104=EDGE_LOOP('',(#33));
#105=EDGE_LOOP('',(#34));
#106=EDGE_LOOP('',(#35));
#107=EDGE_LOOP('',(#36));
#108=EDGE_LOOP('',(#37));
#109=EDGE_LOOP('',(#38));
#110=EDGE_LOOP('',(#39));
#111=EDGE_LOOP('',(#40));
#112=EDGE_LOOP('',(#41));
#113=EDGE_LOOP('',(#42));
#114=EDGE_LOOP('',(#43));
#115=EDGE_LOOP('',(#44));
#116=EDGE_LOOP('',(#45));
#117=EDGE_LOOP('',(#46));
#118=EDGE_LOOP('',(#47));
#119=EDGE_LOOP('',(#48));
#120=EDGE_LOOP('',(#49));
#121=EDGE_LOOP('',(#50));
#122=EDGE_LOOP('',(#51));
#123=EDGE_LOOP('',(#52));
#124=EDGE_LOOP('',(#53));
#125=EDGE_LOOP('',(#54));
#126=EDGE_LOOP('',(#55));
#127=EDGE_LOOP('',(#56));
#128=EDGE_LOOP('',(#57));
#129=EDGE_LOOP('',(#58));
#130=EDGE_LOOP('',(#59));
#131=FACE_BOUND('',#103,.T.);
#132=FACE_BOUND('',#104,.T.);
#133=FACE_BOUND('',#105,.T.);
#134=FACE_BOUND('',#106,.T.);
#135=FACE_BOUND('',#107,.T.);
#136=FACE_BOUND('',#108,.T.);
#137=FACE_BOUND('',#109,.T.);
#138=FACE_BOUND('',#110,.T.);
#139=FACE_BOUND('',#111,.T.);
#140=FACE_BOUND('',#112,.T.);
#141=FACE_BOUND('',#113,.T.);
#142=FACE_BOUND('',#114,.T.);
#143=FACE_BOUND('',#115,.T.);
#144=FACE_BOUND('',#116,.T.);
#145=FACE_BOUND('',#117,.T.);
#146=FACE_BOUND('',#118,.T.);
#147=FACE_BOUND('',#119,.T.);
#148=FACE_BOUND('',#120,.T.);
#149=FACE_BOUND('',#121,.T.);
#150=FACE_BOUND('',#122,.T.);
#151=FACE_BOUND('',#123,.T.);
#152=FACE_BOUND('',#124,.T.);
#153=FACE_BOUND('',#125,.T.);
#154=FACE_BOUND('',#126,.T.);
#155=FACE_BOUND('',#127,.T.);
#156=FACE_BOUND('',#128,.T.);
#157=FACE_BOUND('',#129,.T.);
#158=FACE_BOUND('',#130,.T.);
#159=FACE_BOUND('',#18,.T.);
#160=PLANE('',#202);
#161=PLANE('',#211);
#162=PLANE('',#215);
#163=PLANE('',#224);
#164=PLANE('',#229);
#165=ADVANCED_FACE('',(#131,#132),#160,.T.);
#166=ADVANCED_FACE('',(#133,#134),#30,.T.);
#167=ADVANCED_FACE('',(#135,#136),#31,.T.);
#168=ADVANCED_FACE('',(#137,#138),#26,.T.);
#169=ADVANCED_FACE('',(#139,#140),#161,.T.);
#170=ADVANCED_FACE('',(#141,#142),#22,.T.);
#171=ADVANCED_FACE('',(#143,#144),#162,.T.);
#172=ADVANCED_FACE('',(#145,#146),#27,.F.);
#173=ADVANCED_FACE('',(#147,#148),#23,.F.);
#174=ADVANCED_FACE('',(#149,#150),#28,.F.);
#175=ADVANCED_FACE('',(#151,#152),#163,.F.);
#176=ADVANCED_FACE('',(#153,#154),#24,.F.);
#177=ADVANCED_FACE('',(#155,#156),#25,.F.);
#178=ADVANCED_FACE('',(#157,#158),#164,.F.);
#179=ADVANCED_FACE('',(#159),#29,.T.);
#180=CLOSED_SHELL('',(#165,#166,#167,#168,#169,#170,#171,#172,#173,#174,
#175,#176,#177,#178));
#181=CLOSED_SHELL('',(#179));
#182=STYLED_ITEM('',(#184),#197);
#183=STYLED_ITEM('',(#185),#198);
#184=PRESENTATION_STYLE_ASSIGNMENT((#186));
#185=PRESENTATION_STYLE_ASSIGNMENT((#187));
#186=SURFACE_STYLE_USAGE(.BOTH.,#188);
#187=SURFACE_STYLE_USAGE(.BOTH.,#189);
#188=SURFACE_SIDE_STYLE('',(#190));
#189=SURFACE_SIDE_STYLE('',(#191));
#190=SURFACE_STYLE_FILL_AREA(#192);
#191=SURFACE_STYLE_FILL_AREA(#193);
#192=FILL_AREA_STYLE('',(#194));
#193=FILL_AREA_STYLE('',(#195));
#194=FILL_AREA_STYLE_COLOUR('',#196);
#195=FILL_AREA_STYLE_COLOUR('',#19);
#196=COLOUR_RGB('',0.645180702209473,0.678915679454803,0.699999988079071);
#197=MANIFOLD_SOLID_BREP('',#180);
#198=MANIFOLD_SOLID_BREP('',#181);
#199=SHAPE_DEFINITION_REPRESENTATION(#342,#200);
#200=SHAPE_REPRESENTATION('0019592',(#201),#337);
#201=AXIS2_PLACEMENT_3D('',#291,#231,#232);
#202=AXIS2_PLACEMENT_3D('',#292,#233,#234);
#203=AXIS2_PLACEMENT_3D('',#293,#235,#236);
#204=AXIS2_PLACEMENT_3D('',#295,#237,#238);
#205=AXIS2_PLACEMENT_3D('',#297,#239,#240);
#206=AXIS2_PLACEMENT_3D('',#298,#241,#242);
#207=AXIS2_PLACEMENT_3D('',#300,#243,#244);
#208=AXIS2_PLACEMENT_3D('',#301,#245,#246);
#209=AXIS2_PLACEMENT_3D('',#303,#247,#248);
#210=AXIS2_PLACEMENT_3D('',#304,#249,#250);
#211=AXIS2_PLACEMENT_3D('',#306,#251,#252);
#212=AXIS2_PLACEMENT_3D('',#307,#253,#254);
#213=AXIS2_PLACEMENT_3D('',#309,#255,#256);
#214=AXIS2_PLACEMENT_3D('',#310,#257,#258);
#215=AXIS2_PLACEMENT_3D('',#312,#259,#260);
#216=AXIS2_PLACEMENT_3D('',#313,#261,#262);
#217=AXIS2_PLACEMENT_3D('',#315,#263,#264);
#218=AXIS2_PLACEMENT_3D('',#316,#265,#266);
#219=AXIS2_PLACEMENT_3D('',#318,#267,#268);
#220=AXIS2_PLACEMENT_3D('',#320,#269,#270);
#221=AXIS2_PLACEMENT_3D('',#321,#271,#272);
#222=AXIS2_PLACEMENT_3D('',#323,#273,#274);
#223=AXIS2_PLACEMENT_3D('',#324,#275,#276);
#224=AXIS2_PLACEMENT_3D('',#326,#277,#278);
#225=AXIS2_PLACEMENT_3D('',#327,#279,#280);
#226=AXIS2_PLACEMENT_3D('',#329,#281,#282);
#227=AXIS2_PLACEMENT_3D('',#330,#283,#284);
#228=AXIS2_PLACEMENT_3D('',#331,#285,#286);
#229=AXIS2_PLACEMENT_3D('',#333,#287,#288);
#230=AXIS2_PLACEMENT_3D('',#334,#289,#290);
#231=DIRECTION('',(0.,0.,1.));
#232=DIRECTION('',(1.,0.,0.));
#233=DIRECTION('',(-1.,0.,-1.74921689300221E-17));
#234=DIRECTION('',(-1.74921689300221E-17,0.,1.));
#235=DIRECTION('',(-1.,0.,0.));
#236=DIRECTION('',(0.,0.,1.));
#237=DIRECTION('',(-1.,0.,-1.74921689300221E-17));
#238=DIRECTION('',(-1.74921689300221E-17,0.,1.));
#239=DIRECTION('',(1.,0.,1.74921689300221E-17));
#240=DIRECTION('',(1.74921689300221E-17,0.,-1.));
#241=DIRECTION('',(-1.,0.,-1.74921689300221E-17));
#242=DIRECTION('',(-1.74921689300221E-17,0.,1.));
#243=DIRECTION('',(-1.,0.,-1.74921689300221E-17));
#244=DIRECTION('',(-1.74921689300221E-17,0.,1.));
#245=DIRECTION('',(-1.,0.,-1.74921689300221E-17));
#246=DIRECTION('',(-1.74921689300221E-17,0.,1.));
#247=DIRECTION('',(-1.,0.,-1.74921689300221E-17));
#248=DIRECTION('',(-1.74921689300221E-17,0.,1.));
#249=DIRECTION('',(-1.,0.,-1.74921689300221E-17));
#250=DIRECTION('',(-1.74921689300221E-17,0.,1.));
#251=DIRECTION('',(1.,0.,1.74921689300221E-17));
#252=DIRECTION('',(1.74921689300221E-17,0.,-1.));
#253=DIRECTION('',(-1.,0.,-1.74921689300221E-17));
#254=DIRECTION('',(-1.74921689300221E-17,0.,1.));
#255=DIRECTION('',(-1.,0.,-1.74921689300221E-17));
#256=DIRECTION('',(-1.74921689300221E-17,0.,1.));
#257=DIRECTION('',(-1.,0.,-1.74921689300221E-17));
#258=DIRECTION('',(-1.74921689300221E-17,0.,1.));
#259=DIRECTION('',(1.,0.,1.74921689300221E-17));
#260=DIRECTION('',(1.74921689300221E-17,0.,-1.));
#261=DIRECTION('',(-1.,0.,0.));
#262=DIRECTION('',(0.,0.,1.));
#263=DIRECTION('',(-1.,0.,0.));
#264=DIRECTION('',(0.,0.,1.));
#265=DIRECTION('',(-1.,0.,0.));
#266=DIRECTION('',(0.,0.,1.));
#267=DIRECTION('',(-1.,0.,0.));
#268=DIRECTION('',(0.,0.,1.));
#269=DIRECTION('',(-1.,0.,0.));
#270=DIRECTION('',(0.,0.,1.));
#271=DIRECTION('',(-1.,0.,0.));
#272=DIRECTION('',(0.,0.,1.));
#273=DIRECTION('',(-1.,0.,0.));
#274=DIRECTION('',(0.,0.,1.));
#275=DIRECTION('',(-1.,0.,0.));
#276=DIRECTION('',(0.,0.,1.));
#277=DIRECTION('',(1.,0.,0.));
#278=DIRECTION('',(0.,0.,-1.));
#279=DIRECTION('',(-1.,0.,0.));
#280=DIRECTION('',(0.,0.,1.));
#281=DIRECTION('',(-1.,0.,0.));
#282=DIRECTION('',(0.,0.,1.));
#283=DIRECTION('',(-1.,0.,0.));
#284=DIRECTION('',(0.,0.,1.));
#285=DIRECTION('',(-1.,0.,0.));
#286=DIRECTION('',(0.,0.,1.));
#287=DIRECTION('',(-1.,0.,0.));
#288=DIRECTION('',(0.,0.,1.));
#289=DIRECTION('',(1.,-6.12323399573677E-17,0.));
#290=DIRECTION('',(0.,0.,-1.));
#291=CARTESIAN_POINT('',(0.,0.,0.));
#292=CARTESIAN_POINT('',(3.7815209425813E-17,0.,9.51605487885937E-16));
#293=CARTESIAN_POINT('',(-1.1262236316808E-16,0.,0.));
#294=CARTESIAN_POINT('',(-1.1262236316808E-16,0.,3.));
#295=CARTESIAN_POINT('',(0.,0.,-2.18652111625276E-17));
#296=CARTESIAN_POINT('',(-7.56304188516261E-17,0.,4.32367301929154));
#297=CARTESIAN_POINT('',(0.,0.,-2.18652111625276E-17));
#298=CARTESIAN_POINT('',(1.,0.,-4.37304223250553E-18));
#299=CARTESIAN_POINT('',(1.,0.,4.5));
#300=CARTESIAN_POINT('',(1.,0.,-4.37304223250553E-18));
#301=CARTESIAN_POINT('',(1.54357787137383,0.,5.13531372018723E-18));
#302=CARTESIAN_POINT('',(1.54357787137383,0.,4.45244309851124));
#303=CARTESIAN_POINT('',(1.5,0.,0.));
#304=CARTESIAN_POINT('',(2.,0.,1.31191266975165E-17));
#305=CARTESIAN_POINT('',(2.,0.,3.95434574946537));
#306=CARTESIAN_POINT('',(2.,0.,4.41251133647408));
#307=CARTESIAN_POINT('',(2.,0.,1.31191266975165E-17));
#308=CARTESIAN_POINT('',(2.,0.,3.75));
#309=CARTESIAN_POINT('',(2.5,0.,2.18652111625276E-17));
#310=CARTESIAN_POINT('',(2.5,0.,2.18652111625276E-17));
#311=CARTESIAN_POINT('',(2.5,0.,3.75));
#312=CARTESIAN_POINT('',(2.5,0.,3.75));
#313=CARTESIAN_POINT('',(2.5,0.,0.));
#314=CARTESIAN_POINT('',(2.5,0.,3.));
#315=CARTESIAN_POINT('',(0.8,0.,0.));
#316=CARTESIAN_POINT('',(0.8,0.,0.));
#317=CARTESIAN_POINT('',(0.8,0.,4.));
#318=CARTESIAN_POINT('',(0.4,0.,0.));
#319=CARTESIAN_POINT('',(0.4,0.,3.6));
#320=CARTESIAN_POINT('',(2.48084078164143E-16,0.,0.));
#321=CARTESIAN_POINT('',(1.2,0.,0.));
#322=CARTESIAN_POINT('',(1.2,0.,4.));
#323=CARTESIAN_POINT('',(1.2,0.,0.));
#324=CARTESIAN_POINT('',(1.6,0.,0.));
#325=CARTESIAN_POINT('',(1.6,0.,3.6));
#326=CARTESIAN_POINT('',(1.6,0.,3.6));
#327=CARTESIAN_POINT('',(1.6,0.,0.));
#328=CARTESIAN_POINT('',(1.6,0.,3.));
#329=CARTESIAN_POINT('',(2.48084078164143E-16,0.,0.));
#330=CARTESIAN_POINT('',(2.48084078164143E-16,0.,0.));
#331=CARTESIAN_POINT('',(0.4,0.,0.));
#332=CARTESIAN_POINT('',(0.4,0.,3.));
#333=CARTESIAN_POINT('',(0.4,0.,3.));
#334=CARTESIAN_POINT('',(1.,0.,-4.37304223250553E-18));
#335=CARTESIAN_POINT('',(1.,3.74939945665464E-33,-3.));
#336=MECHANICAL_DESIGN_GEOMETRIC_PRESENTATION_REPRESENTATION('',(#182,#183),
#337);
#337=(
GEOMETRIC_REPRESENTATION_CONTEXT(3)
GLOBAL_UNCERTAINTY_ASSIGNED_CONTEXT((#338))
GLOBAL_UNIT_ASSIGNED_CONTEXT((#341,#340,#339))
REPRESENTATION_CONTEXT('0019592','TOP_LEVEL_ASSEMBLY_PART')
);
#338=UNCERTAINTY_MEASURE_WITH_UNIT(LENGTH_MEASURE(0.005),#341,
'DISTANCE_ACCURACY_VALUE','Maximum Tolerance applied to model');
#339=(
NAMED_UNIT(*)
SI_UNIT($,.STERADIAN.)
SOLID_ANGLE_UNIT()
);
#340=(
NAMED_UNIT(*)
PLANE_ANGLE_UNIT()
SI_UNIT($,.RADIAN.)
);
#341=(
LENGTH_UNIT()
NAMED_UNIT(*)
SI_UNIT(.MILLI.,.METRE.)
);
#342=PRODUCT_DEFINITION_SHAPE('','',#343);
#343=PRODUCT_DEFINITION('','',#345,#344);
#344=PRODUCT_DEFINITION_CONTEXT('',#351,'design');
#345=PRODUCT_DEFINITION_FORMATION_WITH_SPECIFIED_SOURCE('','',#347,
 .NOT_KNOWN.);
#346=PRODUCT_RELATED_PRODUCT_CATEGORY('','',(#347));
#347=PRODUCT('0019592','0019592','0019592',(#349));
#348=PRODUCT_CATEGORY('','');
#349=PRODUCT_CONTEXT('',#351,'mechanical');
#350=APPLICATION_PROTOCOL_DEFINITION('international standard',
'automotive_design',2010,#351);
#351=APPLICATION_CONTEXT(
'core data for automotive mechanical design processes');
ENDSEC;
END-ISO-10303-21;
