ISO-10303-21;
HEADER;
FILE_DESCRIPTION( ( 'Unknown' ), '1' );
FILE_NAME( 'C:/Users/bkuehnle/Desktop/749040500-A.stp', 'Unknown', ( 'Unknown' ), ( 'Unknown' ), 'PSStep 15.0.49', 'Unknown', '  ' );
FILE_SCHEMA( ( 'AUTOMOTIVE_DESIGN { 1 0 10303 214 1 1 1 1 }' ) );
ENDSEC;
DATA;
#1 = MECHANICAL_DESIGN_GEOMETRIC_PRESENTATION_REPRESENTATION( ' ', ( #10, #11, #12, #13, #14, #15 ), #6 );
#2 = PRODUCT_DEFINITION_CONTEXT( '', #16, 'design' );
#3 = APPLICATION_PROTOCOL_DEFINITION( 'international standard', 'automotive_design', 2001, #16 );
#4 = PRODUCT_CATEGORY_RELATIONSHIP( 'NONE', 'NONE', #17, #18 );
#5 = SHAPE_DEFINITION_REPRESENTATION( #19, #20 );
#6 =  ( GEOMETRIC_REPRESENTATION_CONTEXT( 3 )GLOBAL_UNCERTAINTY_ASSIGNED_CONTEXT( ( #23 ) )GLOBAL_UNIT_ASSIGNED_CONTEXT( ( #25, #26, #27 ) )REPRESENTATION_CONTEXT( 'NONE', 'WORKSPACE' ) );
#10 = STYLED_ITEM( '', ( #29 ), #30 );
#11 = STYLED_ITEM( '', ( #31 ), #32 );
#12 = STYLED_ITEM( '', ( #33 ), #34 );
#13 = STYLED_ITEM( '', ( #35 ), #36 );
#14 = STYLED_ITEM( '', ( #37 ), #38 );
#15 = STYLED_ITEM( '', ( #39 ), #40 );
#16 = APPLICATION_CONTEXT( 'core data for automotive mechanical design processes' );
#17 = PRODUCT_CATEGORY( 'part', 'NONE' );
#18 = PRODUCT_RELATED_PRODUCT_CATEGORY( 'detail', ' ', ( #41 ) );
#19 = PRODUCT_DEFINITION_SHAPE( 'NONE', 'NONE', #42 );
#20 = ADVANCED_BREP_SHAPE_REPRESENTATION( '1', ( #43, #44 ), #6 );
#23 = UNCERTAINTY_MEASURE_WITH_UNIT( LENGTH_MEASURE( 0.00100000000000000 ), #25, '', '' );
#25 =  ( CONVERSION_BASED_UNIT( 'MILLIMETRE', #47 )LENGTH_UNIT(  )NAMED_UNIT( #50 ) );
#26 =  ( NAMED_UNIT( #52 )PLANE_ANGLE_UNIT(  )SI_UNIT( $, .RADIAN. ) );
#27 =  ( NAMED_UNIT( #52 )SI_UNIT( $, .STERADIAN. )SOLID_ANGLE_UNIT(  ) );
#29 = PRESENTATION_STYLE_ASSIGNMENT( ( #58 ) );
#30 = ADVANCED_FACE( '', ( #59, #60 ), #61, .F. );
#31 = PRESENTATION_STYLE_ASSIGNMENT( ( #62 ) );
#32 = ADVANCED_FACE( '', ( #63, #64, #65 ), #66, .T. );
#33 = PRESENTATION_STYLE_ASSIGNMENT( ( #67 ) );
#34 = ADVANCED_FACE( '', ( #68, #69 ), #70, .T. );
#35 = PRESENTATION_STYLE_ASSIGNMENT( ( #71 ) );
#36 = ADVANCED_FACE( '', ( #72, #73 ), #74, .F. );
#37 = PRESENTATION_STYLE_ASSIGNMENT( ( #75 ) );
#38 = ADVANCED_FACE( '', ( #76, #77, #78 ), #79, .F. );
#39 = PRESENTATION_STYLE_ASSIGNMENT( ( #80 ) );
#40 = ADVANCED_FACE( '', ( #81, #82 ), #83, .F. );
#41 = PRODUCT( '1', '1', 'PART-1-DESC', ( #84 ) );
#42 = PRODUCT_DEFINITION( 'NONE', 'NONE', #85, #2 );
#43 = MANIFOLD_SOLID_BREP( '1', #86 );
#44 = AXIS2_PLACEMENT_3D( '', #87, #88, #89 );
#47 = LENGTH_MEASURE_WITH_UNIT( LENGTH_MEASURE( 1.00000000000000 ), #90 );
#50 = DIMENSIONAL_EXPONENTS( 1.00000000000000, 0.000000000000000, 0.000000000000000, 0.000000000000000, 0.000000000000000, 0.000000000000000, 0.000000000000000 );
#52 = DIMENSIONAL_EXPONENTS( 0.000000000000000, 0.000000000000000, 0.000000000000000, 0.000000000000000, 0.000000000000000, 0.000000000000000, 0.000000000000000 );
#58 = SURFACE_STYLE_USAGE( .BOTH., #91 );
#59 = FACE_OUTER_BOUND( '', #92, .T. );
#60 = FACE_BOUND( '', #93, .T. );
#61 = CONICAL_SURFACE( '', #94, 2.20000000000000, 0.785398163397448 );
#62 = SURFACE_STYLE_USAGE( .BOTH., #95 );
#63 = FACE_BOUND( '', #96, .T. );
#64 = FACE_OUTER_BOUND( '', #97, .T. );
#65 = FACE_OUTER_BOUND( '', #98, .T. );
#66 = CYLINDRICAL_SURFACE( '', #99, 23.7500000000000 );
#67 = SURFACE_STYLE_USAGE( .BOTH., #100 );
#68 = FACE_BOUND( '', #101, .T. );
#69 = FACE_OUTER_BOUND( '', #102, .T. );
#70 = PLANE( '', #103 );
#71 = SURFACE_STYLE_USAGE( .BOTH., #104 );
#72 = FACE_OUTER_BOUND( '', #105, .T. );
#73 = FACE_OUTER_BOUND( '', #106, .T. );
#74 = CYLINDRICAL_SURFACE( '', #107, 1.62100000000000 );
#75 = SURFACE_STYLE_USAGE( .BOTH., #108 );
#76 = FACE_OUTER_BOUND( '', #109, .T. );
#77 = FACE_OUTER_BOUND( '', #110, .T. );
#78 = FACE_BOUND( '', #111, .T. );
#79 = CYLINDRICAL_SURFACE( '', #112, 20.2500000000000 );
#80 = SURFACE_STYLE_USAGE( .BOTH., #113 );
#81 = FACE_BOUND( '', #114, .T. );
#82 = FACE_OUTER_BOUND( '', #115, .T. );
#83 = PLANE( '', #116 );
#84 = PRODUCT_CONTEXT( '', #16, 'mechanical' );
#85 = PRODUCT_DEFINITION_FORMATION_WITH_SPECIFIED_SOURCE( ' ', 'NONE', #41, .NOT_KNOWN. );
#86 = CLOSED_SHELL( '', ( #34, #32, #40, #38, #30, #36 ) );
#87 = CARTESIAN_POINT( '', ( 0.000000000000000, 0.000000000000000, 0.000000000000000 ) );
#88 = DIRECTION( '', ( 0.000000000000000, 0.000000000000000, 1.00000000000000 ) );
#89 = DIRECTION( '', ( 1.00000000000000, 0.000000000000000, 0.000000000000000 ) );
#90 =  ( LENGTH_UNIT(  )NAMED_UNIT( #50 )SI_UNIT( .MILLI., .METRE. ) );
#91 = SURFACE_SIDE_STYLE( '', ( #118 ) );
#92 = EDGE_LOOP( '', ( #119 ) );
#93 = EDGE_LOOP( '', ( #120 ) );
#94 = AXIS2_PLACEMENT_3D( '', #121, #122, #123 );
#95 = SURFACE_SIDE_STYLE( '', ( #124 ) );
#96 = EDGE_LOOP( '', ( #125 ) );
#97 = EDGE_LOOP( '', ( #126 ) );
#98 = EDGE_LOOP( '', ( #127 ) );
#99 = AXIS2_PLACEMENT_3D( '', #128, #129, #130 );
#100 = SURFACE_SIDE_STYLE( '', ( #131 ) );
#101 = EDGE_LOOP( '', ( #132 ) );
#102 = EDGE_LOOP( '', ( #133 ) );
#103 = AXIS2_PLACEMENT_3D( '', #134, #135, #136 );
#104 = SURFACE_SIDE_STYLE( '', ( #137 ) );
#105 = EDGE_LOOP( '', ( #138 ) );
#106 = EDGE_LOOP( '', ( #139 ) );
#107 = AXIS2_PLACEMENT_3D( '', #140, #141, #142 );
#108 = SURFACE_SIDE_STYLE( '', ( #143 ) );
#109 = EDGE_LOOP( '', ( #144 ) );
#110 = EDGE_LOOP( '', ( #145 ) );
#111 = EDGE_LOOP( '', ( #146 ) );
#112 = AXIS2_PLACEMENT_3D( '', #147, #148, #149 );
#113 = SURFACE_SIDE_STYLE( '', ( #150 ) );
#114 = EDGE_LOOP( '', ( #151 ) );
#115 = EDGE_LOOP( '', ( #152 ) );
#116 = AXIS2_PLACEMENT_3D( '', #153, #154, #155 );
#118 = SURFACE_STYLE_FILL_AREA( #156 );
#119 = ORIENTED_EDGE( '', *, *, #157, .T. );
#120 = ORIENTED_EDGE( '', *, *, #158, .T. );
#121 = CARTESIAN_POINT( '', ( 3.00000000000000, 1.68518870133883E-031, 23.6478857405900 ) );
#122 = DIRECTION( '', ( -0.000000000000000, -0.000000000000000, 1.00000000000000 ) );
#123 = DIRECTION( '', ( 1.00000000000000, 0.000000000000000, 0.000000000000000 ) );
#124 = SURFACE_STYLE_FILL_AREA( #159 );
#125 = ORIENTED_EDGE( '', *, *, #157, .F. );
#126 = ORIENTED_EDGE( '', *, *, #160, .F. );
#127 = ORIENTED_EDGE( '', *, *, #161, .T. );
#128 = CARTESIAN_POINT( '', ( 6.00000000000000, 0.000000000000000, 0.000000000000000 ) );
#129 = DIRECTION( '', ( 1.00000000000000, -0.000000000000000, -0.000000000000000 ) );
#130 = DIRECTION( '', ( 0.000000000000000, 0.000000000000000, 1.00000000000000 ) );
#131 = SURFACE_STYLE_FILL_AREA( #162 );
#132 = ORIENTED_EDGE( '', *, *, #163, .F. );
#133 = ORIENTED_EDGE( '', *, *, #160, .T. );
#134 = CARTESIAN_POINT( '', ( 0.000000000000000, 0.000000000000000, 0.000000000000000 ) );
#135 = DIRECTION( '', ( -1.00000000000000, 6.12303176911189E-017, 0.000000000000000 ) );
#136 = DIRECTION( '', ( -6.12303176911189E-017, -1.00000000000000, 0.000000000000000 ) );
#137 = SURFACE_STYLE_FILL_AREA( #164 );
#138 = ORIENTED_EDGE( '', *, *, #158, .F. );
#139 = ORIENTED_EDGE( '', *, *, #165, .T. );
#140 = CARTESIAN_POINT( '', ( 3.00000000000000, 0.000000000000000, 67.4425681598796 ) );
#141 = DIRECTION( '', ( -0.000000000000000, -0.000000000000000, 1.00000000000000 ) );
#142 = DIRECTION( '', ( -1.00000000000000, 0.000000000000000, 0.000000000000000 ) );
#143 = SURFACE_STYLE_FILL_AREA( #166 );
#144 = ORIENTED_EDGE( '', *, *, #163, .T. );
#145 = ORIENTED_EDGE( '', *, *, #167, .F. );
#146 = ORIENTED_EDGE( '', *, *, #165, .F. );
#147 = CARTESIAN_POINT( '', ( 6.00000000000000, 0.000000000000000, -0.500000000000000 ) );
#148 = DIRECTION( '', ( 1.00000000000000, -0.000000000000000, -0.000000000000000 ) );
#149 = DIRECTION( '', ( 0.000000000000000, 0.000000000000000, 1.00000000000000 ) );
#150 = SURFACE_STYLE_FILL_AREA( #168 );
#151 = ORIENTED_EDGE( '', *, *, #167, .T. );
#152 = ORIENTED_EDGE( '', *, *, #161, .F. );
#153 = CARTESIAN_POINT( '', ( 6.00000000000000, 0.000000000000000, 0.000000000000000 ) );
#154 = DIRECTION( '', ( -1.00000000000000, 6.12303176911189E-017, 0.000000000000000 ) );
#155 = DIRECTION( '', ( -6.12303176911189E-017, -1.00000000000000, 0.000000000000000 ) );
#156 = FILL_AREA_STYLE( '', ( #169 ) );
#157 = EDGE_CURVE( '', #170, #170, #171, .T. );
#158 = EDGE_CURVE( '', #172, #172, #173, .T. );
#159 = FILL_AREA_STYLE( '', ( #174 ) );
#160 = EDGE_CURVE( '', #175, #175, #176, .T. );
#161 = EDGE_CURVE( '', #177, #177, #178, .T. );
#162 = FILL_AREA_STYLE( '', ( #179 ) );
#163 = EDGE_CURVE( '', #180, #180, #181, .T. );
#164 = FILL_AREA_STYLE( '', ( #182 ) );
#165 = EDGE_CURVE( '', #183, #183, #184, .T. );
#166 = FILL_AREA_STYLE( '', ( #185 ) );
#167 = EDGE_CURVE( '', #186, #186, #187, .T. );
#168 = FILL_AREA_STYLE( '', ( #188 ) );
#169 = FILL_AREA_STYLE_COLOUR( '', #189 );
#170 = VERTEX_POINT( '', #190 );
#171 = B_SPLINE_CURVE_WITH_KNOTS( '', 3, ( #191, #192, #193, #194, #195, #196, #197, #198, #199, #200, #201, #202, #203, #204, #205, #206, #207, #208, #209, #210, #211, #212, #213, #214, #215, #216, #217, #218, #219, #220, #221, #222, #223, #224, #225, #226, #227, #228, #229, #230, #231, #232, #233, #234, #235, #236, #237, #238, #239, #240, #241, #242, #243, #244, #245, #246 ), .UNSPECIFIED., .T., .F., ( 2, 2, 2, 2, 2, 2, 2, 2, 2, 2, 2, 2, 2, 2, 2, 2, 2, 2, 2, 2, 2, 2, 2, 2, 2, 2, 2, 2, 2, 2 ), ( -0.000882472303247470, 0.000000000000000, 0.000441236151623734, 0.000882472303247468, 0.00132370845487120, 0.00176494460649494, 0.00264741690974241, 0.00308865306136614, 0.00352988921298987, 0.00397112536461361, 0.00441236151623735, 0.00485359766786108, 0.00529483381948482, 0.00617730612273229, 0.00661854227435602, 0.00705977842597976, 0.00794225072922723, 0.00838348688085096, 0.00882472303247470, 0.00926595918409843, 0.00970719533572217, 0.0101484314873459, 0.0105896676389696, 0.0114721399422171, 0.0119133760938408, 0.0123546122454646, 0.0127958483970883, 0.0132370845487120, 0.0141195568519595, 0.0145607930035833 ), .UNSPECIFIED. );
#172 = VERTEX_POINT( '', #247 );
#173 = CIRCLE( '', #248, 1.62100000000000 );
#174 = FILL_AREA_STYLE_COLOUR( '', #249 );
#175 = VERTEX_POINT( '', #250 );
#176 = CIRCLE( '', #251, 23.7500000000000 );
#177 = VERTEX_POINT( '', #252 );
#178 = CIRCLE( '', #253, 23.7500000000000 );
#179 = FILL_AREA_STYLE_COLOUR( '', #254 );
#180 = VERTEX_POINT( '', #255 );
#181 = CIRCLE( '', #256, 20.2500000000000 );
#182 = FILL_AREA_STYLE_COLOUR( '', #257 );
#183 = VERTEX_POINT( '', #258 );
#184 = B_SPLINE_CURVE_WITH_KNOTS( '', 3, ( #259, #260, #261, #262, #263, #264, #265, #266, #267, #268, #269, #270, #271, #272, #273, #274, #275, #276, #277, #278, #279, #280, #281, #282, #283, #284, #285, #286, #287, #288, #289, #290, #291, #292, #293, #294, #295, #296, #297, #298, #299, #300, #301, #302, #303, #304, #305, #306, #307, #308, #309, #310 ), .UNSPECIFIED., .T., .F., ( 2, 2, 2, 2, 2, 2, 2, 2, 2, 2, 2, 2, 2, 2, 2, 2, 2, 2, 2, 2, 2, 2, 2, 2, 2, 2, 2, 2 ), ( -0.000633678207301343, 0.000000000000000, 0.000316839103650672, 0.000633678207301343, 0.000950517310952015, 0.00126735641460269, 0.00190103462190403, 0.00253471282920537, 0.00285155193285604, 0.00316839103650672, 0.00348523014015739, 0.00380206924380806, 0.00411890834745873, 0.00443574745110940, 0.00475258655476008, 0.00506942565841075, 0.00570310386571209, 0.00633678207301343, 0.00665362117666411, 0.00697046028031478, 0.00728729938396545, 0.00760413848761612, 0.00823781669491746, 0.00855465579856813, 0.00887149490221881, 0.00950517310952015, 0.0101388513168215, 0.0104556904204722 ), .UNSPECIFIED. );
#185 = FILL_AREA_STYLE_COLOUR( '', #311 );
#186 = VERTEX_POINT( '', #312 );
#187 = CIRCLE( '', #313, 20.2500000000000 );
#188 = FILL_AREA_STYLE_COLOUR( '', #314 );
#189 = COLOUR_RGB( '', 0.600000023841858, 0.666666686534882, 0.666666686534882 );
#190 = CARTESIAN_POINT( '', ( 1.03675996438958, -1.14818467612790, 23.7222294894368 ) );
#191 = CARTESIAN_POINT( '', ( 0.876304979842586, -0.897830830634572, 23.7343469191722 ) );
#192 = CARTESIAN_POINT( '', ( 1.11698745666308, -1.27336159887457, 23.7161707745691 ) );
#193 = CARTESIAN_POINT( '', ( 1.20859421178110, -1.38847928474523, 23.7096147341773 ) );
#194 = CARTESIAN_POINT( '', ( 1.41328433802627, -1.59977262176114, 23.6962957680298 ) );
#195 = CARTESIAN_POINT( '', ( 1.52753501853678, -1.69651503208860, 23.6894786783382 ) );
#196 = CARTESIAN_POINT( '', ( 1.76914256023659, -1.86412906291281, 23.6768787246618 ) );
#197 = CARTESIAN_POINT( '', ( 1.89708555165945, -1.93592530262238, 23.6710435768751 ) );
#198 = CARTESIAN_POINT( '', ( 2.16717067577566, -2.05568000805119, 23.6609444126847 ) );
#199 = CARTESIAN_POINT( '', ( 2.30843366059859, -2.10292271611454, 23.6567400743177 ) );
#200 = CARTESIAN_POINT( '', ( 2.73685590765417, -2.20357752050480, 23.6476486291184 ) );
#201 = CARTESIAN_POINT( '', ( 3.03834272953688, -2.21753024733564, 23.6462826512384 ) );
#202 = CARTESIAN_POINT( '', ( 3.47402820623472, -2.15734354137099, 23.6518239201447 ) );
#203 = CARTESIAN_POINT( '', ( 3.61882507824844, -2.12364462638528, 23.6549117065200 ) );
#204 = CARTESIAN_POINT( '', ( 3.89930240556205, -2.02989152515704, 23.6631412694622 ) );
#205 = CARTESIAN_POINT( '', ( 4.03337500260136, -1.97064406933461, 23.6682109772006 ) );
#206 = CARTESIAN_POINT( '', ( 4.28930251775039, -1.82759181520706, 23.6796865913861 ) );
#207 = CARTESIAN_POINT( '', ( 4.41239393866333, -1.74261153162293, 23.6861747684713 ) );
#208 = CARTESIAN_POINT( '', ( 4.63716942166037, -1.55259614247401, 23.6993885012058 ) );
#209 = CARTESIAN_POINT( '', ( 4.73928070421904, -1.44776853510162, 23.7061111308190 ) );
#210 = CARTESIAN_POINT( '', ( 4.92251719114452, -1.21801230924187, 23.7190257956036 ) );
#211 = CARTESIAN_POINT( '', ( 5.00382665124308, -1.09202793586977, 23.7252417967504 ) );
#212 = CARTESIAN_POINT( '', ( 5.13691956491665, -0.830530132836921, 23.7358345761307 ) );
#213 = CARTESIAN_POINT( '', ( 5.18988733812419, -0.693853350220983, 23.7402927084082 ) );
#214 = CARTESIAN_POINT( '', ( 5.30611386265887, -0.265164395209922, 23.7502401935972 ) );
#215 = CARTESIAN_POINT( '', ( 5.32255034068231, 0.0344109216129339, 23.7517737478614 ) );
#216 = CARTESIAN_POINT( '', ( 5.25354550333727, 0.472821984161071, 23.7457427645794 ) );
#217 = CARTESIAN_POINT( '', ( 5.21560286561123, 0.614635175255562, 23.7424446906418 ) );
#218 = CARTESIAN_POINT( '', ( 5.11065660921272, 0.889860679774394, 23.7337229329374 ) );
#219 = CARTESIAN_POINT( '', ( 5.04301172270629, 1.02358378252805, 23.7282555457756 ) );
#220 = CARTESIAN_POINT( '', ( 4.80544707746873, 1.39465384586661, 23.7103095861727 ) );
#221 = CARTESIAN_POINT( '', ( 4.59500392430288, 1.61105738040183, 23.6958910336444 ) );
#222 = CARTESIAN_POINT( '', ( 4.23352313296017, 1.86249992766764, 23.6770069573788 ) );
#223 = CARTESIAN_POINT( '', ( 4.10328405543850, 1.93571409637184, 23.6710606755953 ) );
#224 = CARTESIAN_POINT( '', ( 3.83371941542146, 2.05533244830388, 23.6609744325451 ) );
#225 = CARTESIAN_POINT( '', ( 3.69464799420671, 2.10202774417294, 23.6568200182743 ) );
#226 = CARTESIAN_POINT( '', ( 3.40807875598139, 2.16969401673209, 23.6507099658351 ) );
#227 = CARTESIAN_POINT( '', ( 3.25975417969895, 2.19043971656902, 23.6487742162131 ) );
#228 = CARTESIAN_POINT( '', ( 2.96621681951172, 2.20424837742117, 23.6474911390614 ) );
#229 = CARTESIAN_POINT( '', ( 2.81964005284983, 2.19778151921782, 23.6481006323225 ) );
#230 = CARTESIAN_POINT( '', ( 2.52687755513779, 2.15759695505588, 23.6518008300044 ) );
#231 = CARTESIAN_POINT( '', ( 2.38173727610826, 2.12371184832813, 23.6549046461467 ) );
#232 = CARTESIAN_POINT( '', ( 2.10363177368453, 2.03099155497942, 23.6630458550167 ) );
#233 = CARTESIAN_POINT( '', ( 1.96922106785364, 1.97200795704446, 23.6680997730148 ) );
#234 = CARTESIAN_POINT( '', ( 1.58066226260013, 1.75508118880844, 23.6855069401691 ) );
#235 = CARTESIAN_POINT( '', ( 1.35378704870640, 1.56444716695322, 23.6995519836582 ) );
#236 = CARTESIAN_POINT( '', ( 1.07683220246902, 1.21720501935897, 23.7190714770187 ) );
#237 = CARTESIAN_POINT( '', ( 0.997372340733476, 1.09402158646889, 23.7251491502115 ) );
#238 = CARTESIAN_POINT( '', ( 0.864061669105389, 0.832814258214714, 23.7357537449889 ) );
#239 = CARTESIAN_POINT( '', ( 0.809864824054096, 0.692970725521539, 23.7403138748719 ) );
#240 = CARTESIAN_POINT( '', ( 0.732814054718274, 0.408714281100400, 23.7469085133263 ) );
#241 = CARTESIAN_POINT( '', ( 0.709323511426737, 0.263969680439069, 23.7489904946846 ) );
#242 = CARTESIAN_POINT( '', ( 0.692926417243415, -0.0308454169142617, 23.7504374290047 ) );
#243 = CARTESIAN_POINT( '', ( 0.700509278768255, -0.180303177022012, 23.7497585327237 ) );
#244 = CARTESIAN_POINT( '', ( 0.768706301495333, -0.615413338142219, 23.7437976073025 ) );
#245 = CARTESIAN_POINT( '', ( 0.876304979842586, -0.897830830634572, 23.7343469191722 ) );
#246 = CARTESIAN_POINT( '', ( 1.11698745666308, -1.27336159887457, 23.7161707745691 ) );
#247 = CARTESIAN_POINT( '', ( 1.37900000000000, 1.68518870133883E-031, 23.0688857405900 ) );
#248 = AXIS2_PLACEMENT_3D( '', #315, #316, #317 );
#249 = COLOUR_RGB( '', 0.600000023841858, 0.666666686534882, 0.666666686534882 );
#250 = CARTESIAN_POINT( '', ( 1.45422004516407E-015, 23.7500000000000, 0.000000000000000 ) );
#251 = AXIS2_PLACEMENT_3D( '', #318, #319, #320 );
#252 = CARTESIAN_POINT( '', ( 6.00000000000000, 23.7500000000000, 0.000000000000000 ) );
#253 = AXIS2_PLACEMENT_3D( '', #321, #322, #323 );
#254 = COLOUR_RGB( '', 0.600000023841858, 0.666666686534882, 0.666666686534882 );
#255 = CARTESIAN_POINT( '', ( 1.23991393324516E-015, 20.2500000000000, -0.500000000000000 ) );
#256 = AXIS2_PLACEMENT_3D( '', #324, #325, #326 );
#257 = COLOUR_RGB( '', 0.184313729405403, 0.749019622802734, 0.580392181873322 );
#258 = CARTESIAN_POINT( '', ( 4.62100000000000, 0.000000000000000, 19.7500000000000 ) );
#259 = CARTESIAN_POINT( '', ( 4.62100000000000, 0.214273919594043, 19.7500000000000 ) );
#260 = CARTESIAN_POINT( '', ( 4.62100000000000, -0.107136959797021, 19.7500000000000 ) );
#261 = CARTESIAN_POINT( '', ( 4.61048302860648, -0.212475047354320, 19.7491504229150 ) );
#262 = CARTESIAN_POINT( '', ( 4.56928341489611, -0.419703222419993, 19.7459153337328 ) );
#263 = CARTESIAN_POINT( '', ( 4.53809772221596, -0.522670058677026, 19.7434917210454 ) );
#264 = CARTESIAN_POINT( '', ( 4.45671948293849, -0.718955451575949, 19.7374712874144 ) );
#265 = CARTESIAN_POINT( '', ( 4.40692702622331, -0.812044320699407, 19.7339036949654 ) );
#266 = CARTESIAN_POINT( '', ( 4.28929570496332, -0.988218711146913, 19.7260648296908 ) );
#267 = CARTESIAN_POINT( '', ( 4.22085556368680, -1.07159922134450, 19.7217649593494 ) );
#268 = CARTESIAN_POINT( '', ( 3.99661301177850, -1.29579793912415, 19.7090529107724 ) );
#269 = CARTESIAN_POINT( '', ( 3.81583418667545, -1.41655603581237, 19.7005555072993 ) );
#270 = CARTESIAN_POINT( '', ( 3.42576976825881, -1.57827010590130, 19.6885645175404 ) );
#271 = CARTESIAN_POINT( '', ( 3.21239920242171, -1.62088533176629, 19.6850249133967 ) );
#272 = CARTESIAN_POINT( '', ( 2.89511581116468, -1.62105697830566, 19.6850111289635 ) );
#273 = CARTESIAN_POINT( '', ( 2.78768498507601, -1.61052778178663, 19.6858646255384 ) );
#274 = CARTESIAN_POINT( '', ( 2.57975578490809, -1.56916289822011, 19.6891222745150 ) );
#275 = CARTESIAN_POINT( '', ( 2.47868974443694, -1.53855715172028, 19.6915080783532 ) );
#276 = CARTESIAN_POINT( '', ( 2.28238417265527, -1.45737778767524, 19.6975297145790 ) );
#277 = CARTESIAN_POINT( '', ( 2.18750439893858, -1.40664228445965, 19.7011710662523 ) );
#278 = CARTESIAN_POINT( '', ( 2.01188021442020, -1.28934514677791, 19.7089966118286 ) );
#279 = CARTESIAN_POINT( '', ( 1.93000840631825, -1.22237831819093, 19.7132142231673 ) );
#280 = CARTESIAN_POINT( '', ( 1.77861249968841, -1.07112246611464, 19.7217935566315 ) );
#281 = CARTESIAN_POINT( '', ( 1.71150295820914, -0.989222945129662, 19.7260142345839 ) );
#282 = CARTESIAN_POINT( '', ( 1.59407899885421, -0.813740007872305, 19.7338340670361 ) );
#283 = CARTESIAN_POINT( '', ( 1.54330050353398, -0.719001134613874, 19.7374698200934 ) );
#284 = CARTESIAN_POINT( '', ( 1.46189358643791, -0.522651619283399, 19.7434923527446 ) );
#285 = CARTESIAN_POINT( '', ( 1.43120883590244, -0.421612532808135, 19.7458770179485 ) );
#286 = CARTESIAN_POINT( '', ( 1.38968063267112, -0.213855978586037, 19.7491372402416 ) );
#287 = CARTESIAN_POINT( '', ( 1.37903845794369, -0.106393411505265, 19.7499969214655 ) );
#288 = CARTESIAN_POINT( '', ( 1.37892340357419, 0.211024131012877, 19.7500061314962 ) );
#289 = CARTESIAN_POINT( '', ( 1.42134575974867, 0.424358259930966, 19.7464943084802 ) );
#290 = CARTESIAN_POINT( '', ( 1.58274086127399, 0.814619958466992, 19.7345498106422 ) );
#291 = CARTESIAN_POINT( '', ( 1.70337325178008, 0.995523809180875, 19.7260693424128 ) );
#292 = CARTESIAN_POINT( '', ( 1.92732413481339, 1.21990753049464, 19.7133603785151 ) );
#293 = CARTESIAN_POINT( '', ( 2.01061560547828, 1.28840457719800, 19.7090573756400 ) );
#294 = CARTESIAN_POINT( '', ( 2.18675080010376, 1.40623382605312, 19.7012002809962 ) );
#295 = CARTESIAN_POINT( '', ( 2.27978555959557, 1.45609209506799, 19.6976227692079 ) );
#296 = CARTESIAN_POINT( '', ( 2.47586142343189, 1.53759285314406, 19.6915818581533 ) );
#297 = CARTESIAN_POINT( '', ( 2.57889770304383, 1.56890952250910, 19.6891419780306 ) );
#298 = CARTESIAN_POINT( '', ( 2.78611730307876, 1.61029762040413, 19.6858829995771 ) );
#299 = CARTESIAN_POINT( '', ( 2.89139744661113, 1.62089451279632, 19.6850241760921 ) );
#300 = CARTESIAN_POINT( '', ( 3.21244686221922, 1.62120864653395, 19.6849989489359 ) );
#301 = CARTESIAN_POINT( '', ( 3.42291974815843, 1.57923962553520, 19.6884903171693 ) );
#302 = CARTESIAN_POINT( '', ( 3.71768084503829, 1.45735365705304, 19.6975315345366 ) );
#303 = CARTESIAN_POINT( '', ( 3.81082079947008, 1.40762866921166, 19.7011025326803 ) );
#304 = CARTESIAN_POINT( '', ( 3.98701608988364, 1.29021241567065, 19.7089414351345 ) );
#305 = CARTESIAN_POINT( '', ( 4.07048557797765, 1.22183547138904, 19.7132436125739 ) );
#306 = CARTESIAN_POINT( '', ( 4.29496496714318, 0.997711331539485, 19.7259602773398 ) );
#307 = CARTESIAN_POINT( '', ( 4.41583672315417, 0.817083453475071, 19.7344489071844 ) );
#308 = CARTESIAN_POINT( '', ( 4.57789794568510, 0.427149938051540, 19.7464340286832 ) );
#309 = CARTESIAN_POINT( '', ( 4.62100000000000, 0.214273919594043, 19.7500000000000 ) );
#310 = CARTESIAN_POINT( '', ( 4.62100000000000, -0.107136959797021, 19.7500000000000 ) );
#311 = COLOUR_RGB( '', 0.600000023841858, 0.666666686534882, 0.666666686534882 );
#312 = CARTESIAN_POINT( '', ( 6.00000000000000, 20.2500000000000, -0.500000000000000 ) );
#313 = AXIS2_PLACEMENT_3D( '', #327, #328, #329 );
#314 = COLOUR_RGB( '', 0.600000023841858, 0.666666686534882, 0.666666686534882 );
#315 = CARTESIAN_POINT( '', ( 3.00000000000000, 1.68518870133883E-031, 23.0688857405900 ) );
#316 = DIRECTION( '', ( 0.000000000000000, 0.000000000000000, -1.00000000000000 ) );
#317 = DIRECTION( '', ( -1.00000000000000, 0.000000000000000, 0.000000000000000 ) );
#318 = CARTESIAN_POINT( '', ( 0.000000000000000, 0.000000000000000, 0.000000000000000 ) );
#319 = DIRECTION( '', ( -1.00000000000000, 6.12303176911189E-017, 0.000000000000000 ) );
#320 = DIRECTION( '', ( 6.12303176911189E-017, 1.00000000000000, 0.000000000000000 ) );
#321 = CARTESIAN_POINT( '', ( 6.00000000000000, 0.000000000000000, 0.000000000000000 ) );
#322 = DIRECTION( '', ( -1.00000000000000, 6.12303176911189E-017, 0.000000000000000 ) );
#323 = DIRECTION( '', ( 6.12303176911189E-017, 1.00000000000000, 0.000000000000000 ) );
#324 = CARTESIAN_POINT( '', ( 0.000000000000000, 0.000000000000000, -0.500000000000000 ) );
#325 = DIRECTION( '', ( -1.00000000000000, 6.12303176911189E-017, 0.000000000000000 ) );
#326 = DIRECTION( '', ( 6.12303176911189E-017, 1.00000000000000, 0.000000000000000 ) );
#327 = CARTESIAN_POINT( '', ( 6.00000000000000, 0.000000000000000, -0.500000000000000 ) );
#328 = DIRECTION( '', ( -1.00000000000000, 6.12303176911189E-017, 0.000000000000000 ) );
#329 = DIRECTION( '', ( 6.12303176911189E-017, 1.00000000000000, 0.000000000000000 ) );
ENDSEC;
END-ISO-10303-21;
