ISO-10303-21;
HEADER;
FILE_DESCRIPTION( ( 'Unknown' ), '1' );
FILE_NAME( 'C:/Users/bkuehnle/Desktop/749050500-A.stp', 'Unknown', ( 'Unknown' ), ( 'Unknown' ), 'PSStep 15.0.49', 'Unknown', '  ' );
FILE_SCHEMA( ( 'AUTOMOTIVE_DESIGN { 1 0 10303 214 1 1 1 1 }' ) );
ENDSEC;
DATA;
#1 = MECHANICAL_DESIGN_GEOMETRIC_PRESENTATION_REPRESENTATION( ' ', ( #10, #11, #12, #13, #14, #15 ), #6 );
#2 = PRODUCT_DEFINITION_CONTEXT( '', #16, 'design' );
#3 = APPLICATION_PROTOCOL_DEFINITION( 'international standard', 'automotive_design', 2001, #16 );
#4 = PRODUCT_CATEGORY_RELATIONSHIP( 'NONE', 'NONE', #17, #18 );
#5 = SHAPE_DEFINITION_REPRESENTATION( #19, #20 );
#6 =  ( GEOMETRIC_REPRESENTATION_CONTEXT( 3 )GLOBAL_UNCERTAINTY_ASSIGNED_CONTEXT( ( #23 ) )GLOBAL_UNIT_ASSIGNED_CONTEXT( ( #25, #26, #27 ) )REPRESENTATION_CONTEXT( 'NONE', 'WORKSPACE' ) );
#10 = STYLED_ITEM( '', ( #29 ), #30 );
#11 = STYLED_ITEM( '', ( #31 ), #32 );
#12 = STYLED_ITEM( '', ( #33 ), #34 );
#13 = STYLED_ITEM( '', ( #35 ), #36 );
#14 = STYLED_ITEM( '', ( #37 ), #38 );
#15 = STYLED_ITEM( '', ( #39 ), #40 );
#16 = APPLICATION_CONTEXT( 'core data for automotive mechanical design processes' );
#17 = PRODUCT_CATEGORY( 'part', 'NONE' );
#18 = PRODUCT_RELATED_PRODUCT_CATEGORY( 'detail', ' ', ( #41 ) );
#19 = PRODUCT_DEFINITION_SHAPE( 'NONE', 'NONE', #42 );
#20 = ADVANCED_BREP_SHAPE_REPRESENTATION( '1', ( #43, #44 ), #6 );
#23 = UNCERTAINTY_MEASURE_WITH_UNIT( LENGTH_MEASURE( 0.00100000000000000 ), #25, '', '' );
#25 =  ( CONVERSION_BASED_UNIT( 'MILLIMETRE', #47 )LENGTH_UNIT(  )NAMED_UNIT( #50 ) );
#26 =  ( NAMED_UNIT( #52 )PLANE_ANGLE_UNIT(  )SI_UNIT( $, .RADIAN. ) );
#27 =  ( NAMED_UNIT( #52 )SI_UNIT( $, .STERADIAN. )SOLID_ANGLE_UNIT(  ) );
#29 = PRESENTATION_STYLE_ASSIGNMENT( ( #58 ) );
#30 = ADVANCED_FACE( '', ( #59, #60 ), #61, .F. );
#31 = PRESENTATION_STYLE_ASSIGNMENT( ( #62 ) );
#32 = ADVANCED_FACE( '', ( #63, #64, #65 ), #66, .T. );
#33 = PRESENTATION_STYLE_ASSIGNMENT( ( #67 ) );
#34 = ADVANCED_FACE( '', ( #68, #69 ), #70, .T. );
#35 = PRESENTATION_STYLE_ASSIGNMENT( ( #71 ) );
#36 = ADVANCED_FACE( '', ( #72, #73 ), #74, .F. );
#37 = PRESENTATION_STYLE_ASSIGNMENT( ( #75 ) );
#38 = ADVANCED_FACE( '', ( #76, #77, #78 ), #79, .F. );
#39 = PRESENTATION_STYLE_ASSIGNMENT( ( #80 ) );
#40 = ADVANCED_FACE( '', ( #81, #82 ), #83, .F. );
#41 = PRODUCT( '1', '1', 'PART-1-DESC', ( #84 ) );
#42 = PRODUCT_DEFINITION( 'NONE', 'NONE', #85, #2 );
#43 = MANIFOLD_SOLID_BREP( '1', #86 );
#44 = AXIS2_PLACEMENT_3D( '', #87, #88, #89 );
#47 = LENGTH_MEASURE_WITH_UNIT( LENGTH_MEASURE( 1.00000000000000 ), #90 );
#50 = DIMENSIONAL_EXPONENTS( 1.00000000000000, 0.000000000000000, 0.000000000000000, 0.000000000000000, 0.000000000000000, 0.000000000000000, 0.000000000000000 );
#52 = DIMENSIONAL_EXPONENTS( 0.000000000000000, 0.000000000000000, 0.000000000000000, 0.000000000000000, 0.000000000000000, 0.000000000000000, 0.000000000000000 );
#58 = SURFACE_STYLE_USAGE( .BOTH., #91 );
#59 = FACE_BOUND( '', #92, .T. );
#60 = FACE_OUTER_BOUND( '', #93, .T. );
#61 = PLANE( '', #94 );
#62 = SURFACE_STYLE_USAGE( .BOTH., #95 );
#63 = FACE_BOUND( '', #96, .T. );
#64 = FACE_OUTER_BOUND( '', #97, .T. );
#65 = FACE_OUTER_BOUND( '', #98, .T. );
#66 = CYLINDRICAL_SURFACE( '', #99, 29.6500000000000 );
#67 = SURFACE_STYLE_USAGE( .BOTH., #100 );
#68 = FACE_BOUND( '', #101, .T. );
#69 = FACE_OUTER_BOUND( '', #102, .T. );
#70 = PLANE( '', #103 );
#71 = SURFACE_STYLE_USAGE( .BOTH., #104 );
#72 = FACE_OUTER_BOUND( '', #105, .T. );
#73 = FACE_OUTER_BOUND( '', #106, .T. );
#74 = CYLINDRICAL_SURFACE( '', #107, 1.62100000000000 );
#75 = SURFACE_STYLE_USAGE( .BOTH., #108 );
#76 = FACE_OUTER_BOUND( '', #109, .T. );
#77 = FACE_OUTER_BOUND( '', #110, .T. );
#78 = FACE_BOUND( '', #111, .T. );
#79 = CYLINDRICAL_SURFACE( '', #112, 25.2500000000000 );
#80 = SURFACE_STYLE_USAGE( .BOTH., #113 );
#81 = FACE_OUTER_BOUND( '', #114, .T. );
#82 = FACE_BOUND( '', #115, .T. );
#83 = CONICAL_SURFACE( '', #116, 2.12500000000000, 0.785398163397448 );
#84 = PRODUCT_CONTEXT( '', #16, 'mechanical' );
#85 = PRODUCT_DEFINITION_FORMATION_WITH_SPECIFIED_SOURCE( ' ', 'NONE', #41, .NOT_KNOWN. );
#86 = CLOSED_SHELL( '', ( #34, #32, #30, #38, #40, #36 ) );
#87 = CARTESIAN_POINT( '', ( 0.000000000000000, 0.000000000000000, 0.000000000000000 ) );
#88 = DIRECTION( '', ( 0.000000000000000, 0.000000000000000, 1.00000000000000 ) );
#89 = DIRECTION( '', ( 1.00000000000000, 0.000000000000000, 0.000000000000000 ) );
#90 =  ( LENGTH_UNIT(  )NAMED_UNIT( #50 )SI_UNIT( .MILLI., .METRE. ) );
#91 = SURFACE_SIDE_STYLE( '', ( #118 ) );
#92 = EDGE_LOOP( '', ( #119 ) );
#93 = EDGE_LOOP( '', ( #120 ) );
#94 = AXIS2_PLACEMENT_3D( '', #121, #122, #123 );
#95 = SURFACE_SIDE_STYLE( '', ( #124 ) );
#96 = EDGE_LOOP( '', ( #125 ) );
#97 = EDGE_LOOP( '', ( #126 ) );
#98 = EDGE_LOOP( '', ( #127 ) );
#99 = AXIS2_PLACEMENT_3D( '', #128, #129, #130 );
#100 = SURFACE_SIDE_STYLE( '', ( #131 ) );
#101 = EDGE_LOOP( '', ( #132 ) );
#102 = EDGE_LOOP( '', ( #133 ) );
#103 = AXIS2_PLACEMENT_3D( '', #134, #135, #136 );
#104 = SURFACE_SIDE_STYLE( '', ( #137 ) );
#105 = EDGE_LOOP( '', ( #138 ) );
#106 = EDGE_LOOP( '', ( #139 ) );
#107 = AXIS2_PLACEMENT_3D( '', #140, #141, #142 );
#108 = SURFACE_SIDE_STYLE( '', ( #143 ) );
#109 = EDGE_LOOP( '', ( #144 ) );
#110 = EDGE_LOOP( '', ( #145 ) );
#111 = EDGE_LOOP( '', ( #146 ) );
#112 = AXIS2_PLACEMENT_3D( '', #147, #148, #149 );
#113 = SURFACE_SIDE_STYLE( '', ( #150 ) );
#114 = EDGE_LOOP( '', ( #151 ) );
#115 = EDGE_LOOP( '', ( #152 ) );
#116 = AXIS2_PLACEMENT_3D( '', #153, #154, #155 );
#118 = SURFACE_STYLE_FILL_AREA( #156 );
#119 = ORIENTED_EDGE( '', *, *, #157, .T. );
#120 = ORIENTED_EDGE( '', *, *, #158, .F. );
#121 = CARTESIAN_POINT( '', ( 7.00000000000000, 0.000000000000000, 0.000000000000000 ) );
#122 = DIRECTION( '', ( -1.00000000000000, 6.12303176911189E-017, 0.000000000000000 ) );
#123 = DIRECTION( '', ( -6.12303176911189E-017, -1.00000000000000, 0.000000000000000 ) );
#124 = SURFACE_STYLE_FILL_AREA( #159 );
#125 = ORIENTED_EDGE( '', *, *, #160, .F. );
#126 = ORIENTED_EDGE( '', *, *, #161, .F. );
#127 = ORIENTED_EDGE( '', *, *, #158, .T. );
#128 = CARTESIAN_POINT( '', ( 7.00000000000000, 0.000000000000000, 0.000000000000000 ) );
#129 = DIRECTION( '', ( 1.00000000000000, -0.000000000000000, -0.000000000000000 ) );
#130 = DIRECTION( '', ( 0.000000000000000, 0.000000000000000, 1.00000000000000 ) );
#131 = SURFACE_STYLE_FILL_AREA( #162 );
#132 = ORIENTED_EDGE( '', *, *, #163, .F. );
#133 = ORIENTED_EDGE( '', *, *, #161, .T. );
#134 = CARTESIAN_POINT( '', ( 0.000000000000000, 0.000000000000000, 0.000000000000000 ) );
#135 = DIRECTION( '', ( -1.00000000000000, 6.12303176911189E-017, 0.000000000000000 ) );
#136 = DIRECTION( '', ( -6.12303176911189E-017, -1.00000000000000, 0.000000000000000 ) );
#137 = SURFACE_STYLE_FILL_AREA( #164 );
#138 = ORIENTED_EDGE( '', *, *, #165, .F. );
#139 = ORIENTED_EDGE( '', *, *, #166, .T. );
#140 = CARTESIAN_POINT( '', ( 3.50000000000000, 0.000000000000000, 84.1545007709035 ) );
#141 = DIRECTION( '', ( -0.000000000000000, -0.000000000000000, 1.00000000000000 ) );
#142 = DIRECTION( '', ( -1.00000000000000, 0.000000000000000, 0.000000000000000 ) );
#143 = SURFACE_STYLE_FILL_AREA( #167 );
#144 = ORIENTED_EDGE( '', *, *, #163, .T. );
#145 = ORIENTED_EDGE( '', *, *, #157, .F. );
#146 = ORIENTED_EDGE( '', *, *, #166, .F. );
#147 = CARTESIAN_POINT( '', ( 7.00000000000000, 0.000000000000000, -0.600000000000000 ) );
#148 = DIRECTION( '', ( 1.00000000000000, -0.000000000000000, -0.000000000000000 ) );
#149 = DIRECTION( '', ( 0.000000000000000, 0.000000000000000, 1.00000000000000 ) );
#150 = SURFACE_STYLE_FILL_AREA( #168 );
#151 = ORIENTED_EDGE( '', *, *, #160, .T. );
#152 = ORIENTED_EDGE( '', *, *, #165, .T. );
#153 = CARTESIAN_POINT( '', ( 3.50000000000000, 1.92592994438724E-031, 29.5737531436238 ) );
#154 = DIRECTION( '', ( -0.000000000000000, -0.000000000000000, 1.00000000000000 ) );
#155 = DIRECTION( '', ( 1.00000000000000, 0.000000000000000, 0.000000000000000 ) );
#156 = FILL_AREA_STYLE( '', ( #169 ) );
#157 = EDGE_CURVE( '', #170, #170, #171, .T. );
#158 = EDGE_CURVE( '', #172, #172, #173, .T. );
#159 = FILL_AREA_STYLE( '', ( #174 ) );
#160 = EDGE_CURVE( '', #175, #175, #176, .T. );
#161 = EDGE_CURVE( '', #177, #177, #178, .T. );
#162 = FILL_AREA_STYLE( '', ( #179 ) );
#163 = EDGE_CURVE( '', #180, #180, #181, .T. );
#164 = FILL_AREA_STYLE( '', ( #182 ) );
#165 = EDGE_CURVE( '', #183, #183, #184, .T. );
#166 = EDGE_CURVE( '', #185, #185, #186, .T. );
#167 = FILL_AREA_STYLE( '', ( #187 ) );
#168 = FILL_AREA_STYLE( '', ( #188 ) );
#169 = FILL_AREA_STYLE_COLOUR( '', #189 );
#170 = VERTEX_POINT( '', #190 );
#171 = CIRCLE( '', #191, 25.2500000000000 );
#172 = VERTEX_POINT( '', #192 );
#173 = CIRCLE( '', #193, 29.6500000000000 );
#174 = FILL_AREA_STYLE_COLOUR( '', #194 );
#175 = VERTEX_POINT( '', #195 );
#176 = B_SPLINE_CURVE_WITH_KNOTS( '', 3, ( #196, #197, #198, #199, #200, #201, #202, #203, #204, #205, #206, #207, #208, #209, #210, #211, #212, #213, #214, #215, #216, #217, #218, #219, #220, #221, #222, #223, #224, #225, #226, #227, #228, #229, #230, #231, #232, #233, #234, #235, #236, #237, #238, #239, #240, #241, #242, #243, #244, #245, #246, #247, #248, #249, #250, #251, #252, #253 ), .UNSPECIFIED., .T., .F., ( 2, 2, 2, 2, 2, 2, 2, 2, 2, 2, 2, 2, 2, 2, 2, 2, 2, 2, 2, 2, 2, 2, 2, 2, 2, 2, 2, 2, 2, 2, 2 ), ( -0.000847314879928115, 0.000000000000000, 0.000423657439964054, 0.000847314879928109, 0.00127097231989216, 0.00169462975985622, 0.00254194463978433, 0.00296560207974838, 0.00338925951971243, 0.00381291695967649, 0.00423657439964054, 0.00466023183960459, 0.00508388927956865, 0.00550754671953270, 0.00593120415949676, 0.00635486159946081, 0.00677851903942486, 0.00762583391935297, 0.00804949135931702, 0.00847314879928108, 0.00889680623924513, 0.00932046367920919, 0.0101677785591373, 0.0105914359991014, 0.0110150934390654, 0.0114387508790295, 0.0118624083189935, 0.0122860657589576, 0.0127097231989216, 0.0135570380788498, 0.0139806955188138 ), .UNSPECIFIED. );
#177 = VERTEX_POINT( '', #254 );
#178 = CIRCLE( '', #255, 29.6500000000000 );
#179 = FILL_AREA_STYLE_COLOUR( '', #256 );
#180 = VERTEX_POINT( '', #257 );
#181 = CIRCLE( '', #258, 25.2500000000000 );
#182 = FILL_AREA_STYLE_COLOUR( '', #259 );
#183 = VERTEX_POINT( '', #260 );
#184 = CIRCLE( '', #261, 1.62100000000000 );
#185 = VERTEX_POINT( '', #262 );
#186 = B_SPLINE_CURVE_WITH_KNOTS( '', 3, ( #263, #264, #265, #266, #267, #268, #269, #270, #271, #272, #273, #274, #275, #276, #277, #278, #279, #280, #281, #282, #283, #284, #285, #286, #287, #288, #289, #290, #291, #292, #293, #294, #295, #296, #297, #298, #299, #300, #301, #302, #303, #304, #305, #306, #307, #308, #309, #310, #311, #312, #313, #314 ), .UNSPECIFIED., .T., .F., ( 2, 2, 2, 2, 2, 2, 2, 2, 2, 2, 2, 2, 2, 2, 2, 2, 2, 2, 2, 2, 2, 2, 2, 2, 2, 2, 2, 2 ), ( -0.000633588380751734, 0.000000000000000, 0.000316794190375867, 0.000633588380751734, 0.000950382571127601, 0.00126717676150347, 0.00190076514225520, 0.00253435352300693, 0.00285114771338280, 0.00316794190375866, 0.00348473609413453, 0.00380153028451039, 0.00411832447488626, 0.00443511866526212, 0.00475191285563799, 0.00506870704601385, 0.00570229542676558, 0.00633588380751731, 0.00665267799789318, 0.00696947218826904, 0.00728626637864491, 0.00760306056902077, 0.00823664894977251, 0.00855344314014837, 0.00887023733052424, 0.00950382571127597, 0.0101374140920277, 0.0104542082824036 ), .UNSPECIFIED. );
#187 = FILL_AREA_STYLE_COLOUR( '', #315 );
#188 = FILL_AREA_STYLE_COLOUR( '', #316 );
#189 = COLOUR_RGB( '', 0.600000023841858, 0.666666686534882, 0.666666686534882 );
#190 = CARTESIAN_POINT( '', ( 7.00000000000000, 25.2500000000000, -0.600000000000000 ) );
#191 = AXIS2_PLACEMENT_3D( '', #317, #318, #319 );
#192 = CARTESIAN_POINT( '', ( 7.00000000000000, 29.6500000000000, 0.000000000000000 ) );
#193 = AXIS2_PLACEMENT_3D( '', #320, #321, #322 );
#194 = COLOUR_RGB( '', 0.600000023841858, 0.666666686534882, 0.666666686534882 );
#195 = CARTESIAN_POINT( '', ( 1.34812579824381, -0.447304626911934, 29.6466257535447 ) );
#196 = CARTESIAN_POINT( '', ( 1.28580906883995, -0.168205164805085, 29.6508367717499 ) );
#197 = CARTESIAN_POINT( '', ( 1.37928416294573, -0.586854357965357, 29.6445202444422 ) );
#198 = CARTESIAN_POINT( '', ( 1.42430892993850, -0.720882982043926, 29.6415152031279 ) );
#199 = CARTESIAN_POINT( '', ( 1.54078532407829, -0.978426632696703, 29.6341319619032 ) );
#200 = CARTESIAN_POINT( '', ( 1.61319434028215, -1.10292750748379, 29.6297008475084 ) );
#201 = CARTESIAN_POINT( '', ( 1.77902120643180, -1.33183167717463, 29.6202944918392 ) );
#202 = CARTESIAN_POINT( '', ( 1.87263831039929, -1.43728379803485, 29.6153009965256 ) );
#203 = CARTESIAN_POINT( '', ( 2.08118883666859, -1.63028994487192, 29.6053034527017 ) );
#204 = CARTESIAN_POINT( '', ( 2.19510856688683, -1.71654506392307, 29.6003626753587 ) );
#205 = CARTESIAN_POINT( '', ( 2.55495428396400, -1.93857385468818, 29.5869299064114 ) );
#206 = CARTESIAN_POINT( '', ( 2.82609001170657, -2.04116512714889, 29.5796985941609 ) );
#207 = CARTESIAN_POINT( '', ( 3.24281293868409, -2.11483254429907, 29.5744922071199 ) );
#208 = CARTESIAN_POINT( '', ( 3.38607366324672, -2.12655150524969, 29.5736416707053 ) );
#209 = CARTESIAN_POINT( '', ( 3.66924372473719, -2.12311261350630, 29.5738887500803 ) );
#210 = CARTESIAN_POINT( '', ( 3.80933043588462, -2.10832792505732, 29.5749595432905 ) );
#211 = CARTESIAN_POINT( '', ( 4.08651156519860, -2.05265771057126, 29.5788754848807 ) );
#212 = CARTESIAN_POINT( '', ( 4.22434848398717, -2.01119792444150, 29.5817583354919 ) );
#213 = CARTESIAN_POINT( '', ( 4.48563879639179, -1.90478530413560, 29.5888008587011 ) );
#214 = CARTESIAN_POINT( '', ( 4.61050124107100, -1.83971535120987, 29.5929712563871 ) );
#215 = CARTESIAN_POINT( '', ( 4.84829366790766, -1.68506535890996, 29.6021799043758 ) );
#216 = CARTESIAN_POINT( '', ( 4.96026288862410, -1.59570603264805, 29.6071927834091 ) );
#217 = CARTESIAN_POINT( '', ( 5.16216100285828, -1.39956673330835, 29.6171125401447 ) );
#218 = CARTESIAN_POINT( '', ( 5.25338990561805, -1.29201320867350, 29.6220706575173 ) );
#219 = CARTESIAN_POINT( '', ( 5.41513805547433, -1.05667162435663, 29.6313991105485 ) );
#220 = CARTESIAN_POINT( '', ( 5.48301492549348, -0.932640597845508, 29.6356121857965 ) );
#221 = CARTESIAN_POINT( '', ( 5.59275609565669, -0.673289331343805, 29.6426383709004 ) );
#222 = CARTESIAN_POINT( '', ( 5.63501367874327, -0.536145344487858, 29.6454791148873 ) );
#223 = CARTESIAN_POINT( '', ( 5.68991039085062, -0.257718997325505, 29.6492068140119 ) );
#224 = CARTESIAN_POINT( '', ( 5.70276695274070, -0.117384254138289, 29.6501050472114 ) );
#225 = CARTESIAN_POINT( '', ( 5.69944409083547, 0.165517570578737, 29.6498754180792 ) );
#226 = CARTESIAN_POINT( '', ( 5.68276019292118, 0.308700929316174, 29.6487130382653 ) );
#227 = CARTESIAN_POINT( '', ( 5.59066930294557, 0.721969691884034, 29.6424895061237 ) );
#228 = CARTESIAN_POINT( '', ( 5.47065992568457, 0.986577113310635, 29.6344654183451 ) );
#229 = CARTESIAN_POINT( '', ( 5.22282955502772, 1.32957253455675, 29.6203955178396 ) );
#230 = CARTESIAN_POINT( '', ( 5.12749516940221, 1.43710053599806, 29.6153090012693 ) );
#231 = CARTESIAN_POINT( '', ( 4.91966191252424, 1.62956205557666, 29.6053426377445 ) );
#232 = CARTESIAN_POINT( '', ( 4.80740473515032, 1.71481449289908, 29.6004641980752 ) );
#233 = CARTESIAN_POINT( '', ( 4.56651883315686, 1.86380044420810, 29.5914568311659 ) );
#234 = CARTESIAN_POINT( '', ( 4.43760019656955, 1.92726337593287, 29.5873398303027 ) );
#235 = CARTESIAN_POINT( '', ( 4.17389342505544, 2.02748583922825, 29.5806410262820 ) );
#236 = CARTESIAN_POINT( '', ( 4.03785293624455, 2.06512344303203, 29.5780051423266 ) );
#237 = CARTESIAN_POINT( '', ( 3.61689297227819, 2.13981914880104, 29.5727267283261 ) );
#238 = CARTESIAN_POINT( '', ( 3.33160595614263, 2.13658094783763, 29.5729720197963 ) );
#239 = CARTESIAN_POINT( '', ( 2.91292674835916, 2.05257145599085, 29.5788816298999 ) );
#240 = CARTESIAN_POINT( '', ( 2.77790913973208, 2.01194499615469, 29.5817071695152 ) );
#241 = CARTESIAN_POINT( '', ( 2.51677388591946, 1.90593719673799, 29.5887263181873 ) );
#242 = CARTESIAN_POINT( '', ( 2.38935227160718, 1.83961547973863, 29.5929771173353 ) );
#243 = CARTESIAN_POINT( '', ( 2.15195373912129, 1.68523086227279, 29.6021701353341 ) );
#244 = CARTESIAN_POINT( '', ( 2.04187084118771, 1.59756118293276, 29.6070934074219 ) );
#245 = CARTESIAN_POINT( '', ( 1.83911556730375, 1.40102097632281, 29.6170444506693 ) );
#246 = CARTESIAN_POINT( '', ( 1.74600952120403, 1.29106819050013, 29.6221061520859 ) );
#247 = CARTESIAN_POINT( '', ( 1.58614833326868, 1.05861419098134, 29.6313240668151 ) );
#248 = CARTESIAN_POINT( '', ( 1.51822101481542, 0.935266374275172, 29.6355341916746 ) );
#249 = CARTESIAN_POINT( '', ( 1.40731633756430, 0.673752169076993, 29.6426326096625 ) );
#250 = CARTESIAN_POINT( '', ( 1.36524996774170, 0.536856348413699, 29.6454615043124 ) );
#251 = CARTESIAN_POINT( '', ( 1.28313643647561, 0.122257985691478, 29.6510364600453 ) );
#252 = CARTESIAN_POINT( '', ( 1.28580906883995, -0.168205164805085, 29.6508367717499 ) );
#253 = CARTESIAN_POINT( '', ( 1.37928416294573, -0.586854357965357, 29.6445202444422 ) );
#254 = CARTESIAN_POINT( '', ( 1.81547891954167E-015, 29.6500000000000, 0.000000000000000 ) );
#255 = AXIS2_PLACEMENT_3D( '', #323, #324, #325 );
#256 = COLOUR_RGB( '', 0.600000023841858, 0.666666686534882, 0.666666686534882 );
#257 = CARTESIAN_POINT( '', ( 1.54606552170075E-015, 25.2500000000000, -0.600000000000000 ) );
#258 = AXIS2_PLACEMENT_3D( '', #326, #327, #328 );
#259 = COLOUR_RGB( '', 0.184313729405403, 0.749019622802734, 0.580392181873322 );
#260 = CARTESIAN_POINT( '', ( 1.87900000000000, 1.92592994438724E-031, 29.0697531436238 ) );
#261 = AXIS2_PLACEMENT_3D( '', #329, #330, #331 );
#262 = CARTESIAN_POINT( '', ( 5.12100000000000, 0.000000000000000, 24.6500000000000 ) );
#263 = CARTESIAN_POINT( '', ( 5.12100000000000, 0.214241180118169, 24.6500000000000 ) );
#264 = CARTESIAN_POINT( '', ( 5.12100000000000, -0.107120590059084, 24.6500000000000 ) );
#265 = CARTESIAN_POINT( '', ( 5.11048618440557, -0.212445628366807, 24.6493188477543 ) );
#266 = CARTESIAN_POINT( '', ( 5.06929606313344, -0.419653144164615, 24.6467250679997 ) );
#267 = CARTESIAN_POINT( '', ( 5.03811799693975, -0.522610916679839, 24.6447819639560 ) );
#268 = CARTESIAN_POINT( '', ( 4.95674501997601, -0.718904089234431, 24.6399547441827 ) );
#269 = CARTESIAN_POINT( '', ( 4.90695351144014, -0.811999087075770, 24.6370942810241 ) );
#270 = CARTESIAN_POINT( '', ( 4.78932174843973, -0.988185270971969, 24.6308097400172 ) );
#271 = CARTESIAN_POINT( '', ( 4.72087128141635, -1.07158306959822, 24.6273622914587 ) );
#272 = CARTESIAN_POINT( '', ( 4.49659163118875, -1.29582018968350, 24.6171716073445 ) );
#273 = CARTESIAN_POINT( '', ( 4.31578875422818, -1.41658296102401, 24.6103620133897 ) );
#274 = CARTESIAN_POINT( '', ( 3.92570918598090, -1.57828713039174, 24.6007553431572 ) );
#275 = CARTESIAN_POINT( '', ( 3.71236008409353, -1.62088611279607, 24.5979211091375 ) );
#276 = CARTESIAN_POINT( '', ( 3.39512663397791, -1.62105659250134, 24.5979101420564 ) );
#277 = CARTESIAN_POINT( '', ( 3.28771592484551, -1.61053146470138, 24.5985935663045 ) );
#278 = CARTESIAN_POINT( '', ( 3.07979756775917, -1.56917368168608, 24.6012028140583 ) );
#279 = CARTESIAN_POINT( '', ( 2.97873861031409, -1.53857289760483, 24.6031138176297 ) );
#280 = CARTESIAN_POINT( '', ( 2.78245158844621, -1.45741012577039, 24.6079374085018 ) );
#281 = CARTESIAN_POINT( '', ( 2.68754820446466, -1.40666847099255, 24.6108554757500 ) );
#282 = CARTESIAN_POINT( '', ( 2.51190158270968, -1.28936248786038, 24.6171270049016 ) );
#283 = CARTESIAN_POINT( '', ( 2.43002597474863, -1.22239312415592, 24.6205072420610 ) );
#284 = CARTESIAN_POINT( '', ( 2.27863656941422, -1.07114925903165, 24.6273833316440 ) );
#285 = CARTESIAN_POINT( '', ( 2.21148280313759, -0.989197547905241, 24.6307688751113 ) );
#286 = CARTESIAN_POINT( '', ( 2.09405429023124, -0.813698357239794, 24.6370383524195 ) );
#287 = CARTESIAN_POINT( '', ( 2.04328617557030, -0.718974453439936, 24.6399529111619 ) );
#288 = CARTESIAN_POINT( '', ( 1.96187266693314, -0.522593281870813, 24.6447825002339 ) );
#289 = CARTESIAN_POINT( '', ( 1.93119410668371, -0.421553154968825, 24.6466944718129 ) );
#290 = CARTESIAN_POINT( '', ( 1.88967853154181, -0.213831152058673, 24.6493082094132 ) );
#291 = CARTESIAN_POINT( '', ( 1.87903811442515, -0.106381048143617, 24.6499975531296 ) );
#292 = CARTESIAN_POINT( '', ( 1.87892408498747, 0.211014988397503, 24.6500048735932 ) );
#293 = CARTESIAN_POINT( '', ( 1.92133379482874, 0.424311962437621, 24.6471891115153 ) );
#294 = CARTESIAN_POINT( '', ( 2.08271389162378, 0.814572105968094, 24.6376122277497 ) );
#295 = CARTESIAN_POINT( '', ( 2.20336604477881, 0.995515917960030, 24.6308119703446 ) );
#296 = CARTESIAN_POINT( '', ( 2.42732389015555, 1.21990762050045, 24.6206251221871 ) );
#297 = CARTESIAN_POINT( '', ( 2.51061391153461, 1.28840574936192, 24.6171765520319 ) );
#298 = CARTESIAN_POINT( '', ( 2.68680121748889, 1.40626524779650, 24.6108786178542 ) );
#299 = CARTESIAN_POINT( '', ( 2.77984524698530, 1.45612020238265, 24.6080122097584 ) );
#300 = CARTESIAN_POINT( '', ( 2.97588763457572, 1.53760044890924, 24.6031734206355 ) );
#301 = CARTESIAN_POINT( '', ( 3.07894483900957, 1.56892205573599, 24.6012184902213 ) );
#302 = CARTESIAN_POINT( '', ( 3.28616221472129, 1.61030347051685, 24.5986081469133 ) );
#303 = CARTESIAN_POINT( '', ( 3.39141953038639, 1.62089283484630, 24.5979206767008 ) );
#304 = CARTESIAN_POINT( '', ( 3.71232543889982, 1.62121192622874, 24.5979001493318 ) );
#305 = CARTESIAN_POINT( '', ( 3.92279947337824, 1.57927906875412, 24.6006945462343 ) );
#306 = CARTESIAN_POINT( '', ( 4.21764053059864, 1.45737547041438, 24.6079394980160 ) );
#307 = CARTESIAN_POINT( '', ( 4.31078825514136, 1.40764657323075, 24.6108009907472 ) );
#308 = CARTESIAN_POINT( '', ( 4.48696841096710, 1.29024797056865, 24.6170818225391 ) );
#309 = CARTESIAN_POINT( '', ( 4.57046026908927, 1.22186037859097, 24.6205303942185 ) );
#310 = CARTESIAN_POINT( '', ( 4.79500725833501, 0.997669830523208, 24.6307260995627 ) );
#311 = CARTESIAN_POINT( '', ( 4.91586552189753, 0.817035956662491, 24.6375314160501 ) );
#312 = CARTESIAN_POINT( '', ( 5.07791844425481, 0.427078814574145, 24.6471412919708 ) );
#313 = CARTESIAN_POINT( '', ( 5.12100000000000, 0.214241180118169, 24.6500000000000 ) );
#314 = CARTESIAN_POINT( '', ( 5.12100000000000, -0.107120590059084, 24.6500000000000 ) );
#315 = COLOUR_RGB( '', 0.600000023841858, 0.666666686534882, 0.666666686534882 );
#316 = COLOUR_RGB( '', 0.600000023841858, 0.666666686534882, 0.666666686534882 );
#317 = CARTESIAN_POINT( '', ( 7.00000000000000, 0.000000000000000, -0.600000000000000 ) );
#318 = DIRECTION( '', ( -1.00000000000000, 6.12303176911189E-017, 0.000000000000000 ) );
#319 = DIRECTION( '', ( 6.12303176911189E-017, 1.00000000000000, 0.000000000000000 ) );
#320 = CARTESIAN_POINT( '', ( 7.00000000000000, 0.000000000000000, 0.000000000000000 ) );
#321 = DIRECTION( '', ( -1.00000000000000, 6.12303176911189E-017, 0.000000000000000 ) );
#322 = DIRECTION( '', ( 6.12303176911189E-017, 1.00000000000000, 0.000000000000000 ) );
#323 = CARTESIAN_POINT( '', ( 0.000000000000000, 0.000000000000000, 0.000000000000000 ) );
#324 = DIRECTION( '', ( -1.00000000000000, 6.12303176911189E-017, 0.000000000000000 ) );
#325 = DIRECTION( '', ( 6.12303176911189E-017, 1.00000000000000, 0.000000000000000 ) );
#326 = CARTESIAN_POINT( '', ( 0.000000000000000, 0.000000000000000, -0.600000000000000 ) );
#327 = DIRECTION( '', ( -1.00000000000000, 6.12303176911189E-017, 0.000000000000000 ) );
#328 = DIRECTION( '', ( 6.12303176911189E-017, 1.00000000000000, 0.000000000000000 ) );
#329 = CARTESIAN_POINT( '', ( 3.50000000000000, 1.92592994438724E-031, 29.0697531436238 ) );
#330 = DIRECTION( '', ( 0.000000000000000, 0.000000000000000, -1.00000000000000 ) );
#331 = DIRECTION( '', ( -1.00000000000000, 0.000000000000000, 0.000000000000000 ) );
ENDSEC;
END-ISO-10303-21;
