ISO-10303-21;
HEADER;
FILE_DESCRIPTION(
/* description */ (''),
/* implementation_level */ '2;1');
FILE_NAME(
/* name */ '262512061.stp',
/* time_stamp */ '2021-09-24T12:30:31',
/* author */ ('LRA'),
/* organization */ ('REGO-FIX'),
/* preprocessor_version */ ' Unknown',
/* originating_system */ 'SIEMENS PLM Software Solid Edge ST10',
/* authorization */ 'Unknown');
FILE_SCHEMA (('AUTOMOTIVE_DESIGN { 1 0 10303 214 2 1 1}'));
ENDSEC;
DATA;
#10=PROPERTY_DEFINITION_REPRESENTATION(#14,#12);
#11=PROPERTY_DEFINITION_REPRESENTATION(#15,#13);
#12=REPRESENTATION('',(#16),#715);
#13=REPRESENTATION('',(#17),#715);
#14=PROPERTY_DEFINITION('pmi validation property','',#720);
#15=PROPERTY_DEFINITION('pmi validation property','',#720);
#16=VALUE_REPRESENTATION_ITEM('number of annotations',COUNT_MEASURE(0.));
#17=VALUE_REPRESENTATION_ITEM('number of views',COUNT_MEASURE(0.));
#18=SHAPE_REPRESENTATION_RELATIONSHIP('','',#483,#19);
#19=ADVANCED_BREP_SHAPE_REPRESENTATION('',(#481),#715);
#20=TOROIDAL_SURFACE('',#516,10.7094834737231,0.8);
#21=TOROIDAL_SURFACE('',#524,8.25,1.);
#22=CONICAL_SURFACE('',#505,12.5,0.785398163397448);
#23=CONICAL_SURFACE('',#506,12.5,0.785398163397453);
#24=CONICAL_SURFACE('',#510,0.,1.0471975511966);
#25=CONICAL_SURFACE('',#514,7.1,0.139626340159547);
#26=CONICAL_SURFACE('',#523,11.85,0.785398163397454);
#27=CONICAL_SURFACE('',#528,7.25,1.0471975511966);
#28=PLANE('',#502);
#29=PLANE('',#507);
#30=PLANE('',#517);
#31=PLANE('',#518);
#32=PLANE('',#519);
#33=PLANE('',#520);
#34=PLANE('',#521);
#35=PLANE('',#522);
#36=LINE('',#648,#44);
#37=LINE('',#652,#45);
#38=LINE('',#658,#46);
#39=LINE('',#662,#47);
#40=LINE('',#694,#48);
#41=LINE('',#696,#49);
#42=LINE('',#699,#50);
#43=LINE('',#701,#51);
#44=VECTOR('',#549,1000.);
#45=VECTOR('',#552,1000.);
#46=VECTOR('',#557,1000.);
#47=VECTOR('',#560,1000.);
#48=VECTOR('',#603,1000.);
#49=VECTOR('',#606,1000.);
#50=VECTOR('',#611,1000.);
#51=VECTOR('',#614,1000.);
#52=ELLIPSE('',#492,17.9605122421384,12.7);
#53=ELLIPSE('',#493,17.9605122421383,12.7);
#54=ELLIPSE('',#495,17.9605122421384,12.7);
#55=ELLIPSE('',#496,17.9605122421384,12.7);
#56=ORIENTED_EDGE('',*,*,#116,.T.);
#57=ORIENTED_EDGE('',*,*,#117,.T.);
#58=ORIENTED_EDGE('',*,*,#117,.F.);
#59=ORIENTED_EDGE('',*,*,#118,.F.);
#60=ORIENTED_EDGE('',*,*,#119,.T.);
#61=ORIENTED_EDGE('',*,*,#120,.F.);
#62=ORIENTED_EDGE('',*,*,#121,.T.);
#63=ORIENTED_EDGE('',*,*,#122,.F.);
#64=ORIENTED_EDGE('',*,*,#123,.F.);
#65=ORIENTED_EDGE('',*,*,#124,.T.);
#66=ORIENTED_EDGE('',*,*,#125,.F.);
#67=ORIENTED_EDGE('',*,*,#126,.T.);
#68=ORIENTED_EDGE('',*,*,#127,.F.);
#69=ORIENTED_EDGE('',*,*,#128,.F.);
#70=ORIENTED_EDGE('',*,*,#129,.F.);
#71=ORIENTED_EDGE('',*,*,#130,.F.);
#72=ORIENTED_EDGE('',*,*,#131,.T.);
#73=ORIENTED_EDGE('',*,*,#129,.T.);
#74=ORIENTED_EDGE('',*,*,#132,.T.);
#75=ORIENTED_EDGE('',*,*,#133,.T.);
#76=ORIENTED_EDGE('',*,*,#133,.F.);
#77=ORIENTED_EDGE('',*,*,#131,.F.);
#78=ORIENTED_EDGE('',*,*,#124,.F.);
#79=ORIENTED_EDGE('',*,*,#130,.T.);
#80=ORIENTED_EDGE('',*,*,#134,.F.);
#81=ORIENTED_EDGE('',*,*,#135,.T.);
#82=ORIENTED_EDGE('',*,*,#118,.T.);
#83=ORIENTED_EDGE('',*,*,#136,.F.);
#84=ORIENTED_EDGE('',*,*,#137,.F.);
#85=ORIENTED_EDGE('',*,*,#136,.T.);
#86=ORIENTED_EDGE('',*,*,#138,.F.);
#87=ORIENTED_EDGE('',*,*,#137,.T.);
#88=ORIENTED_EDGE('',*,*,#132,.F.);
#89=ORIENTED_EDGE('',*,*,#138,.T.);
#90=ORIENTED_EDGE('',*,*,#120,.T.);
#91=ORIENTED_EDGE('',*,*,#139,.T.);
#92=ORIENTED_EDGE('',*,*,#123,.T.);
#93=ORIENTED_EDGE('',*,*,#140,.T.);
#94=ORIENTED_EDGE('',*,*,#121,.F.);
#95=ORIENTED_EDGE('',*,*,#139,.F.);
#96=ORIENTED_EDGE('',*,*,#122,.T.);
#97=ORIENTED_EDGE('',*,*,#140,.F.);
#98=ORIENTED_EDGE('',*,*,#125,.T.);
#99=ORIENTED_EDGE('',*,*,#141,.T.);
#100=ORIENTED_EDGE('',*,*,#128,.T.);
#101=ORIENTED_EDGE('',*,*,#142,.T.);
#102=ORIENTED_EDGE('',*,*,#126,.F.);
#103=ORIENTED_EDGE('',*,*,#141,.F.);
#104=ORIENTED_EDGE('',*,*,#127,.T.);
#105=ORIENTED_EDGE('',*,*,#142,.F.);
#106=ORIENTED_EDGE('',*,*,#119,.F.);
#107=ORIENTED_EDGE('',*,*,#135,.F.);
#108=ORIENTED_EDGE('',*,*,#143,.F.);
#109=ORIENTED_EDGE('',*,*,#134,.T.);
#110=ORIENTED_EDGE('',*,*,#144,.F.);
#111=ORIENTED_EDGE('',*,*,#143,.T.);
#112=ORIENTED_EDGE('',*,*,#145,.T.);
#113=ORIENTED_EDGE('',*,*,#144,.T.);
#114=ORIENTED_EDGE('',*,*,#116,.F.);
#115=ORIENTED_EDGE('',*,*,#145,.F.);
#116=EDGE_CURVE('',#146,#146,#172,.T.);
#117=EDGE_CURVE('',#147,#147,#173,.T.);
#118=EDGE_CURVE('',#148,#148,#174,.F.);
#119=EDGE_CURVE('',#149,#149,#175,.T.);
#120=EDGE_CURVE('',#150,#151,#52,.T.);
#121=EDGE_CURVE('',#150,#152,#36,.T.);
#122=EDGE_CURVE('',#153,#152,#53,.T.);
#123=EDGE_CURVE('',#151,#153,#37,.T.);
#124=EDGE_CURVE('',#154,#154,#176,.T.);
#125=EDGE_CURVE('',#155,#156,#54,.T.);
#126=EDGE_CURVE('',#155,#157,#38,.F.);
#127=EDGE_CURVE('',#158,#157,#55,.T.);
#128=EDGE_CURVE('',#156,#158,#39,.F.);
#129=EDGE_CURVE('',#159,#159,#177,.T.);
#130=EDGE_CURVE('',#160,#160,#178,.T.);
#131=EDGE_CURVE('',#161,#161,#179,.T.);
#132=EDGE_CURVE('',#162,#162,#180,.T.);
#133=EDGE_CURVE('',#163,#163,#181,.F.);
#134=EDGE_CURVE('',#164,#164,#182,.T.);
#135=EDGE_CURVE('',#165,#165,#183,.F.);
#136=EDGE_CURVE('',#166,#166,#184,.T.);
#137=EDGE_CURVE('',#167,#167,#185,.T.);
#138=EDGE_CURVE('',#168,#168,#186,.T.);
#139=EDGE_CURVE('',#151,#150,#40,.T.);
#140=EDGE_CURVE('',#153,#152,#41,.T.);
#141=EDGE_CURVE('',#156,#155,#42,.T.);
#142=EDGE_CURVE('',#158,#157,#43,.T.);
#143=EDGE_CURVE('',#169,#169,#187,.T.);
#144=EDGE_CURVE('',#170,#170,#188,.T.);
#145=EDGE_CURVE('',#171,#171,#189,.F.);
#146=VERTEX_POINT('',#636);
#147=VERTEX_POINT('',#638);
#148=VERTEX_POINT('',#641);
#149=VERTEX_POINT('',#644);
#150=VERTEX_POINT('',#646);
#151=VERTEX_POINT('',#647);
#152=VERTEX_POINT('',#649);
#153=VERTEX_POINT('',#651);
#154=VERTEX_POINT('',#654);
#155=VERTEX_POINT('',#656);
#156=VERTEX_POINT('',#657);
#157=VERTEX_POINT('',#659);
#158=VERTEX_POINT('',#661);
#159=VERTEX_POINT('',#665);
#160=VERTEX_POINT('',#667);
#161=VERTEX_POINT('',#670);
#162=VERTEX_POINT('',#673);
#163=VERTEX_POINT('',#675);
#164=VERTEX_POINT('',#680);
#165=VERTEX_POINT('',#682);
#166=VERTEX_POINT('',#685);
#167=VERTEX_POINT('',#688);
#168=VERTEX_POINT('',#691);
#169=VERTEX_POINT('',#706);
#170=VERTEX_POINT('',#709);
#171=VERTEX_POINT('',#712);
#172=CIRCLE('',#486,6.4585);
#173=CIRCLE('',#487,6.4585);
#174=CIRCLE('',#489,6.4585);
#175=CIRCLE('',#491,12.7);
#176=CIRCLE('',#494,12.7000000000001);
#177=CIRCLE('',#498,12.5);
#178=CIRCLE('',#499,12.5);
#179=CIRCLE('',#501,12.5);
#180=CIRCLE('',#503,10.3221851391024);
#181=CIRCLE('',#504,11.5);
#182=CIRCLE('',#508,8.25);
#183=CIRCLE('',#509,11.85);
#184=CIRCLE('',#511,7.1);
#185=CIRCLE('',#513,7.1);
#186=CIRCLE('',#515,9.91726901872996);
#187=CIRCLE('',#525,7.25);
#188=CIRCLE('',#527,7.25);
#189=CIRCLE('',#529,6.4585);
#190=EDGE_LOOP('',(#56));
#191=EDGE_LOOP('',(#57));
#192=EDGE_LOOP('',(#58));
#193=EDGE_LOOP('',(#59));
#194=EDGE_LOOP('',(#60));
#195=EDGE_LOOP('',(#61,#62,#63,#64));
#196=EDGE_LOOP('',(#65));
#197=EDGE_LOOP('',(#66,#67,#68,#69));
#198=EDGE_LOOP('',(#70));
#199=EDGE_LOOP('',(#71));
#200=EDGE_LOOP('',(#72));
#201=EDGE_LOOP('',(#73));
#202=EDGE_LOOP('',(#74));
#203=EDGE_LOOP('',(#75));
#204=EDGE_LOOP('',(#76));
#205=EDGE_LOOP('',(#77));
#206=EDGE_LOOP('',(#78));
#207=EDGE_LOOP('',(#79));
#208=EDGE_LOOP('',(#80));
#209=EDGE_LOOP('',(#81));
#210=EDGE_LOOP('',(#82));
#211=EDGE_LOOP('',(#83));
#212=EDGE_LOOP('',(#84));
#213=EDGE_LOOP('',(#85));
#214=EDGE_LOOP('',(#86));
#215=EDGE_LOOP('',(#87));
#216=EDGE_LOOP('',(#88));
#217=EDGE_LOOP('',(#89));
#218=EDGE_LOOP('',(#90,#91));
#219=EDGE_LOOP('',(#92,#93,#94,#95));
#220=EDGE_LOOP('',(#96,#97));
#221=EDGE_LOOP('',(#98,#99));
#222=EDGE_LOOP('',(#100,#101,#102,#103));
#223=EDGE_LOOP('',(#104,#105));
#224=EDGE_LOOP('',(#106));
#225=EDGE_LOOP('',(#107));
#226=EDGE_LOOP('',(#108));
#227=EDGE_LOOP('',(#109));
#228=EDGE_LOOP('',(#110));
#229=EDGE_LOOP('',(#111));
#230=EDGE_LOOP('',(#112));
#231=EDGE_LOOP('',(#113));
#232=EDGE_LOOP('',(#114));
#233=EDGE_LOOP('',(#115));
#234=FACE_BOUND('',#190,.T.);
#235=FACE_BOUND('',#191,.T.);
#236=FACE_BOUND('',#192,.T.);
#237=FACE_BOUND('',#193,.T.);
#238=FACE_BOUND('',#194,.T.);
#239=FACE_BOUND('',#195,.T.);
#240=FACE_BOUND('',#196,.T.);
#241=FACE_BOUND('',#197,.T.);
#242=FACE_BOUND('',#198,.T.);
#243=FACE_BOUND('',#199,.T.);
#244=FACE_BOUND('',#200,.T.);
#245=FACE_BOUND('',#201,.T.);
#246=FACE_BOUND('',#202,.T.);
#247=FACE_BOUND('',#203,.T.);
#248=FACE_BOUND('',#204,.T.);
#249=FACE_BOUND('',#205,.T.);
#250=FACE_BOUND('',#206,.T.);
#251=FACE_BOUND('',#207,.T.);
#252=FACE_BOUND('',#208,.T.);
#253=FACE_BOUND('',#209,.T.);
#254=FACE_BOUND('',#210,.T.);
#255=FACE_BOUND('',#211,.T.);
#256=FACE_BOUND('',#212,.T.);
#257=FACE_BOUND('',#213,.T.);
#258=FACE_BOUND('',#214,.T.);
#259=FACE_BOUND('',#215,.T.);
#260=FACE_BOUND('',#216,.T.);
#261=FACE_BOUND('',#217,.T.);
#262=FACE_BOUND('',#218,.T.);
#263=FACE_BOUND('',#219,.T.);
#264=FACE_BOUND('',#220,.T.);
#265=FACE_BOUND('',#221,.T.);
#266=FACE_BOUND('',#222,.T.);
#267=FACE_BOUND('',#223,.T.);
#268=FACE_BOUND('',#224,.T.);
#269=FACE_BOUND('',#225,.T.);
#270=FACE_BOUND('',#226,.T.);
#271=FACE_BOUND('',#227,.T.);
#272=FACE_BOUND('',#228,.T.);
#273=FACE_BOUND('',#229,.T.);
#274=FACE_BOUND('',#230,.T.);
#275=FACE_BOUND('',#231,.T.);
#276=FACE_BOUND('',#232,.T.);
#277=FACE_BOUND('',#233,.T.);
#278=CYLINDRICAL_SURFACE('',#485,6.4585);
#279=CYLINDRICAL_SURFACE('',#488,6.4585);
#280=CYLINDRICAL_SURFACE('',#490,12.7);
#281=CYLINDRICAL_SURFACE('',#497,12.5);
#282=CYLINDRICAL_SURFACE('',#500,12.5);
#283=CYLINDRICAL_SURFACE('',#512,7.1);
#284=CYLINDRICAL_SURFACE('',#526,7.25);
#285=CYLINDRICAL_SURFACE('',#530,6.4585);
#286=STYLED_ITEM('',(#310),#456);
#287=STYLED_ITEM('',(#311),#457);
#288=STYLED_ITEM('',(#312),#458);
#289=STYLED_ITEM('',(#313),#459);
#290=STYLED_ITEM('',(#314),#460);
#291=STYLED_ITEM('',(#315),#461);
#292=STYLED_ITEM('',(#316),#462);
#293=STYLED_ITEM('',(#317),#463);
#294=STYLED_ITEM('',(#318),#464);
#295=STYLED_ITEM('',(#319),#465);
#296=STYLED_ITEM('',(#320),#466);
#297=STYLED_ITEM('',(#321),#467);
#298=STYLED_ITEM('',(#322),#468);
#299=STYLED_ITEM('',(#323),#469);
#300=STYLED_ITEM('',(#324),#470);
#301=STYLED_ITEM('',(#325),#471);
#302=STYLED_ITEM('',(#326),#472);
#303=STYLED_ITEM('',(#327),#473);
#304=STYLED_ITEM('',(#328),#474);
#305=STYLED_ITEM('',(#329),#475);
#306=STYLED_ITEM('',(#330),#476);
#307=STYLED_ITEM('',(#331),#477);
#308=STYLED_ITEM('',(#332),#478);
#309=STYLED_ITEM('',(#333),#479);
#310=PRESENTATION_STYLE_ASSIGNMENT((#334));
#311=PRESENTATION_STYLE_ASSIGNMENT((#335));
#312=PRESENTATION_STYLE_ASSIGNMENT((#336));
#313=PRESENTATION_STYLE_ASSIGNMENT((#337));
#314=PRESENTATION_STYLE_ASSIGNMENT((#338));
#315=PRESENTATION_STYLE_ASSIGNMENT((#339));
#316=PRESENTATION_STYLE_ASSIGNMENT((#340));
#317=PRESENTATION_STYLE_ASSIGNMENT((#341));
#318=PRESENTATION_STYLE_ASSIGNMENT((#342));
#319=PRESENTATION_STYLE_ASSIGNMENT((#343));
#320=PRESENTATION_STYLE_ASSIGNMENT((#344));
#321=PRESENTATION_STYLE_ASSIGNMENT((#345));
#322=PRESENTATION_STYLE_ASSIGNMENT((#346));
#323=PRESENTATION_STYLE_ASSIGNMENT((#347));
#324=PRESENTATION_STYLE_ASSIGNMENT((#348));
#325=PRESENTATION_STYLE_ASSIGNMENT((#349));
#326=PRESENTATION_STYLE_ASSIGNMENT((#350));
#327=PRESENTATION_STYLE_ASSIGNMENT((#351));
#328=PRESENTATION_STYLE_ASSIGNMENT((#352));
#329=PRESENTATION_STYLE_ASSIGNMENT((#353));
#330=PRESENTATION_STYLE_ASSIGNMENT((#354));
#331=PRESENTATION_STYLE_ASSIGNMENT((#355));
#332=PRESENTATION_STYLE_ASSIGNMENT((#356));
#333=PRESENTATION_STYLE_ASSIGNMENT((#357));
#334=SURFACE_STYLE_USAGE(.BOTH.,#358);
#335=SURFACE_STYLE_USAGE(.BOTH.,#359);
#336=SURFACE_STYLE_USAGE(.BOTH.,#360);
#337=SURFACE_STYLE_USAGE(.BOTH.,#361);
#338=SURFACE_STYLE_USAGE(.BOTH.,#362);
#339=SURFACE_STYLE_USAGE(.BOTH.,#363);
#340=SURFACE_STYLE_USAGE(.BOTH.,#364);
#341=SURFACE_STYLE_USAGE(.BOTH.,#365);
#342=SURFACE_STYLE_USAGE(.BOTH.,#366);
#343=SURFACE_STYLE_USAGE(.BOTH.,#367);
#344=SURFACE_STYLE_USAGE(.BOTH.,#368);
#345=SURFACE_STYLE_USAGE(.BOTH.,#369);
#346=SURFACE_STYLE_USAGE(.BOTH.,#370);
#347=SURFACE_STYLE_USAGE(.BOTH.,#371);
#348=SURFACE_STYLE_USAGE(.BOTH.,#372);
#349=SURFACE_STYLE_USAGE(.BOTH.,#373);
#350=SURFACE_STYLE_USAGE(.BOTH.,#374);
#351=SURFACE_STYLE_USAGE(.BOTH.,#375);
#352=SURFACE_STYLE_USAGE(.BOTH.,#376);
#353=SURFACE_STYLE_USAGE(.BOTH.,#377);
#354=SURFACE_STYLE_USAGE(.BOTH.,#378);
#355=SURFACE_STYLE_USAGE(.BOTH.,#379);
#356=SURFACE_STYLE_USAGE(.BOTH.,#380);
#357=SURFACE_STYLE_USAGE(.BOTH.,#381);
#358=SURFACE_SIDE_STYLE('',(#382));
#359=SURFACE_SIDE_STYLE('',(#383));
#360=SURFACE_SIDE_STYLE('',(#384));
#361=SURFACE_SIDE_STYLE('',(#385));
#362=SURFACE_SIDE_STYLE('',(#386));
#363=SURFACE_SIDE_STYLE('',(#387));
#364=SURFACE_SIDE_STYLE('',(#388));
#365=SURFACE_SIDE_STYLE('',(#389));
#366=SURFACE_SIDE_STYLE('',(#390));
#367=SURFACE_SIDE_STYLE('',(#391));
#368=SURFACE_SIDE_STYLE('',(#392));
#369=SURFACE_SIDE_STYLE('',(#393));
#370=SURFACE_SIDE_STYLE('',(#394));
#371=SURFACE_SIDE_STYLE('',(#395));
#372=SURFACE_SIDE_STYLE('',(#396));
#373=SURFACE_SIDE_STYLE('',(#397));
#374=SURFACE_SIDE_STYLE('',(#398));
#375=SURFACE_SIDE_STYLE('',(#399));
#376=SURFACE_SIDE_STYLE('',(#400));
#377=SURFACE_SIDE_STYLE('',(#401));
#378=SURFACE_SIDE_STYLE('',(#402));
#379=SURFACE_SIDE_STYLE('',(#403));
#380=SURFACE_SIDE_STYLE('',(#404));
#381=SURFACE_SIDE_STYLE('',(#405));
#382=SURFACE_STYLE_FILL_AREA(#406);
#383=SURFACE_STYLE_FILL_AREA(#407);
#384=SURFACE_STYLE_FILL_AREA(#408);
#385=SURFACE_STYLE_FILL_AREA(#409);
#386=SURFACE_STYLE_FILL_AREA(#410);
#387=SURFACE_STYLE_FILL_AREA(#411);
#388=SURFACE_STYLE_FILL_AREA(#412);
#389=SURFACE_STYLE_FILL_AREA(#413);
#390=SURFACE_STYLE_FILL_AREA(#414);
#391=SURFACE_STYLE_FILL_AREA(#415);
#392=SURFACE_STYLE_FILL_AREA(#416);
#393=SURFACE_STYLE_FILL_AREA(#417);
#394=SURFACE_STYLE_FILL_AREA(#418);
#395=SURFACE_STYLE_FILL_AREA(#419);
#396=SURFACE_STYLE_FILL_AREA(#420);
#397=SURFACE_STYLE_FILL_AREA(#421);
#398=SURFACE_STYLE_FILL_AREA(#422);
#399=SURFACE_STYLE_FILL_AREA(#423);
#400=SURFACE_STYLE_FILL_AREA(#424);
#401=SURFACE_STYLE_FILL_AREA(#425);
#402=SURFACE_STYLE_FILL_AREA(#426);
#403=SURFACE_STYLE_FILL_AREA(#427);
#404=SURFACE_STYLE_FILL_AREA(#428);
#405=SURFACE_STYLE_FILL_AREA(#429);
#406=FILL_AREA_STYLE('',(#430));
#407=FILL_AREA_STYLE('',(#431));
#408=FILL_AREA_STYLE('',(#432));
#409=FILL_AREA_STYLE('',(#433));
#410=FILL_AREA_STYLE('',(#434));
#411=FILL_AREA_STYLE('',(#435));
#412=FILL_AREA_STYLE('',(#436));
#413=FILL_AREA_STYLE('',(#437));
#414=FILL_AREA_STYLE('',(#438));
#415=FILL_AREA_STYLE('',(#439));
#416=FILL_AREA_STYLE('',(#440));
#417=FILL_AREA_STYLE('',(#441));
#418=FILL_AREA_STYLE('',(#442));
#419=FILL_AREA_STYLE('',(#443));
#420=FILL_AREA_STYLE('',(#444));
#421=FILL_AREA_STYLE('',(#445));
#422=FILL_AREA_STYLE('',(#446));
#423=FILL_AREA_STYLE('',(#447));
#424=FILL_AREA_STYLE('',(#448));
#425=FILL_AREA_STYLE('',(#449));
#426=FILL_AREA_STYLE('',(#450));
#427=FILL_AREA_STYLE('',(#451));
#428=FILL_AREA_STYLE('',(#452));
#429=FILL_AREA_STYLE('',(#453));
#430=FILL_AREA_STYLE_COLOUR('',#454);
#431=FILL_AREA_STYLE_COLOUR('',#455);
#432=FILL_AREA_STYLE_COLOUR('',#454);
#433=FILL_AREA_STYLE_COLOUR('',#454);
#434=FILL_AREA_STYLE_COLOUR('',#455);
#435=FILL_AREA_STYLE_COLOUR('',#454);
#436=FILL_AREA_STYLE_COLOUR('',#454);
#437=FILL_AREA_STYLE_COLOUR('',#454);
#438=FILL_AREA_STYLE_COLOUR('',#454);
#439=FILL_AREA_STYLE_COLOUR('',#454);
#440=FILL_AREA_STYLE_COLOUR('',#454);
#441=FILL_AREA_STYLE_COLOUR('',#454);
#442=FILL_AREA_STYLE_COLOUR('',#454);
#443=FILL_AREA_STYLE_COLOUR('',#454);
#444=FILL_AREA_STYLE_COLOUR('',#454);
#445=FILL_AREA_STYLE_COLOUR('',#454);
#446=FILL_AREA_STYLE_COLOUR('',#454);
#447=FILL_AREA_STYLE_COLOUR('',#454);
#448=FILL_AREA_STYLE_COLOUR('',#454);
#449=FILL_AREA_STYLE_COLOUR('',#454);
#450=FILL_AREA_STYLE_COLOUR('',#454);
#451=FILL_AREA_STYLE_COLOUR('',#454);
#452=FILL_AREA_STYLE_COLOUR('',#454);
#453=FILL_AREA_STYLE_COLOUR('',#455);
#454=COLOUR_RGB( ' ', 0.5, 0.5, 0.5 );
#455=COLOUR_RGB( ' ', 0.5, 0.5, 0.5 );
#456=ADVANCED_FACE('',(#234,#235),#278,.F.);
#457=ADVANCED_FACE('',(#236,#237),#279,.F.);
#458=ADVANCED_FACE('',(#238,#239,#240,#241),#280,.T.);
#459=ADVANCED_FACE('',(#242,#243),#281,.T.);
#460=ADVANCED_FACE('',(#244,#245),#282,.T.);
#461=ADVANCED_FACE('',(#246,#247),#28,.F.);
#462=ADVANCED_FACE('',(#248,#249),#22,.T.);
#463=ADVANCED_FACE('',(#250,#251),#23,.T.);
#464=ADVANCED_FACE('',(#252,#253),#29,.F.);
#465=ADVANCED_FACE('',(#254,#255),#24,.F.);
#466=ADVANCED_FACE('',(#256,#257),#283,.F.);
#467=ADVANCED_FACE('',(#258,#259),#25,.F.);
#468=ADVANCED_FACE('',(#260,#261),#20,.T.);
#469=ADVANCED_FACE('',(#262),#30,.T.);
#470=ADVANCED_FACE('',(#263),#31,.T.);
#471=ADVANCED_FACE('',(#264),#32,.T.);
#472=ADVANCED_FACE('',(#265),#33,.T.);
#473=ADVANCED_FACE('',(#266),#34,.T.);
#474=ADVANCED_FACE('',(#267),#35,.T.);
#475=ADVANCED_FACE('',(#268,#269),#26,.T.);
#476=ADVANCED_FACE('',(#270,#271),#21,.T.);
#477=ADVANCED_FACE('',(#272,#273),#284,.F.);
#478=ADVANCED_FACE('',(#274,#275),#27,.F.);
#479=ADVANCED_FACE('',(#276,#277),#285,.F.);
#480=CLOSED_SHELL('',(#456,#457,#458,#459,#460,#461,#462,#463,#464,#465,
#466,#467,#468,#469,#470,#471,#472,#473,#474,#475,#476,#477,#478,#479));
#481=MANIFOLD_SOLID_BREP('NOCUT',#480);
#482=SHAPE_DEFINITION_REPRESENTATION(#720,#483);
#483=SHAPE_REPRESENTATION('0009641',(#484),#715);
#484=AXIS2_PLACEMENT_3D('',#633,#531,#532);
#485=AXIS2_PLACEMENT_3D('',#634,#533,#534);
#486=AXIS2_PLACEMENT_3D('',#635,#535,#536);
#487=AXIS2_PLACEMENT_3D('',#637,#537,#538);
#488=AXIS2_PLACEMENT_3D('',#639,#539,#540);
#489=AXIS2_PLACEMENT_3D('',#640,#541,#542);
#490=AXIS2_PLACEMENT_3D('',#642,#543,#544);
#491=AXIS2_PLACEMENT_3D('',#643,#545,#546);
#492=AXIS2_PLACEMENT_3D('',#645,#547,#548);
#493=AXIS2_PLACEMENT_3D('',#650,#550,#551);
#494=AXIS2_PLACEMENT_3D('',#653,#553,#554);
#495=AXIS2_PLACEMENT_3D('',#655,#555,#556);
#496=AXIS2_PLACEMENT_3D('',#660,#558,#559);
#497=AXIS2_PLACEMENT_3D('',#663,#561,#562);
#498=AXIS2_PLACEMENT_3D('',#664,#563,#564);
#499=AXIS2_PLACEMENT_3D('',#666,#565,#566);
#500=AXIS2_PLACEMENT_3D('',#668,#567,#568);
#501=AXIS2_PLACEMENT_3D('',#669,#569,#570);
#502=AXIS2_PLACEMENT_3D('',#671,#571,#572);
#503=AXIS2_PLACEMENT_3D('',#672,#573,#574);
#504=AXIS2_PLACEMENT_3D('',#674,#575,#576);
#505=AXIS2_PLACEMENT_3D('',#676,#577,#578);
#506=AXIS2_PLACEMENT_3D('',#677,#579,#580);
#507=AXIS2_PLACEMENT_3D('',#678,#581,#582);
#508=AXIS2_PLACEMENT_3D('',#679,#583,#584);
#509=AXIS2_PLACEMENT_3D('',#681,#585,#586);
#510=AXIS2_PLACEMENT_3D('',#683,#587,#588);
#511=AXIS2_PLACEMENT_3D('',#684,#589,#590);
#512=AXIS2_PLACEMENT_3D('',#686,#591,#592);
#513=AXIS2_PLACEMENT_3D('',#687,#593,#594);
#514=AXIS2_PLACEMENT_3D('',#689,#595,#596);
#515=AXIS2_PLACEMENT_3D('',#690,#597,#598);
#516=AXIS2_PLACEMENT_3D('',#692,#599,#600);
#517=AXIS2_PLACEMENT_3D('',#693,#601,#602);
#518=AXIS2_PLACEMENT_3D('',#695,#604,#605);
#519=AXIS2_PLACEMENT_3D('',#697,#607,#608);
#520=AXIS2_PLACEMENT_3D('',#698,#609,#610);
#521=AXIS2_PLACEMENT_3D('',#700,#612,#613);
#522=AXIS2_PLACEMENT_3D('',#702,#615,#616);
#523=AXIS2_PLACEMENT_3D('',#703,#617,#618);
#524=AXIS2_PLACEMENT_3D('',#704,#619,#620);
#525=AXIS2_PLACEMENT_3D('',#705,#621,#622);
#526=AXIS2_PLACEMENT_3D('',#707,#623,#624);
#527=AXIS2_PLACEMENT_3D('',#708,#625,#626);
#528=AXIS2_PLACEMENT_3D('',#710,#627,#628);
#529=AXIS2_PLACEMENT_3D('',#711,#629,#630);
#530=AXIS2_PLACEMENT_3D('',#713,#631,#632);
#531=DIRECTION('',(0.,0.,1.));
#532=DIRECTION('',(1.,0.,0.));
#533=DIRECTION('',(0.,0.,-1.));
#534=DIRECTION('',(1.,0.,0.));
#535=DIRECTION('',(0.,0.,1.));
#536=DIRECTION('',(1.,0.,0.));
#537=DIRECTION('',(0.,0.,-1.));
#538=DIRECTION('',(1.,0.,0.));
#539=DIRECTION('',(0.,0.,-1.));
#540=DIRECTION('',(1.,0.,0.));
#541=DIRECTION('',(0.,0.,-1.));
#542=DIRECTION('',(-1.,0.,0.));
#543=DIRECTION('',(0.,0.,1.));
#544=DIRECTION('',(1.,0.,0.));
#545=DIRECTION('',(0.,0.,-1.));
#546=DIRECTION('',(-1.,0.,0.));
#547=DIRECTION('',(-0.707106781186548,0.,0.707106781186547));
#548=DIRECTION('',(0.707106781186547,0.,0.707106781186548));
#549=DIRECTION('',(0.,0.,1.));
#550=DIRECTION('',(-0.707106781186546,0.,-0.707106781186549));
#551=DIRECTION('',(-0.707106781186549,0.,0.707106781186546));
#552=DIRECTION('',(0.,0.,1.));
#553=DIRECTION('',(0.,0.,1.));
#554=DIRECTION('',(1.,0.,0.));
#555=DIRECTION('',(0.707106781186549,0.,-0.707106781186546));
#556=DIRECTION('',(0.707106781186546,0.,0.707106781186549));
#557=DIRECTION('',(0.,0.,1.));
#558=DIRECTION('',(0.707106781186549,0.,0.707106781186546));
#559=DIRECTION('',(-0.707106781186546,0.,0.707106781186549));
#560=DIRECTION('',(0.,0.,1.));
#561=DIRECTION('',(0.,0.,1.));
#562=DIRECTION('',(1.,0.,0.));
#563=DIRECTION('',(0.,0.,-1.));
#564=DIRECTION('',(1.,0.,0.));
#565=DIRECTION('',(0.,0.,1.));
#566=DIRECTION('',(1.,0.,0.));
#567=DIRECTION('',(0.,0.,1.));
#568=DIRECTION('',(1.,0.,0.));
#569=DIRECTION('',(0.,0.,1.));
#570=DIRECTION('',(1.,0.,0.));
#571=DIRECTION('',(0.,0.,1.));
#572=DIRECTION('',(1.,0.,0.));
#573=DIRECTION('',(0.,0.,1.));
#574=DIRECTION('',(1.,0.,0.));
#575=DIRECTION('',(0.,0.,1.));
#576=DIRECTION('',(1.,0.,0.));
#577=DIRECTION('',(0.,0.,1.));
#578=DIRECTION('',(1.,0.,0.));
#579=DIRECTION('',(0.,0.,1.));
#580=DIRECTION('',(1.,0.,0.));
#581=DIRECTION('',(0.,0.,-1.));
#582=DIRECTION('',(-1.,0.,0.));
#583=DIRECTION('',(0.,0.,1.));
#584=DIRECTION('',(1.,0.,0.));
#585=DIRECTION('',(0.,0.,-1.));
#586=DIRECTION('',(-1.,0.,0.));
#587=DIRECTION('',(0.,0.,-1.));
#588=DIRECTION('',(-1.,0.,0.));
#589=DIRECTION('',(0.,0.,1.));
#590=DIRECTION('',(1.,0.,0.));
#591=DIRECTION('',(0.,0.,1.));
#592=DIRECTION('',(1.,0.,0.));
#593=DIRECTION('',(0.,0.,1.));
#594=DIRECTION('',(1.,0.,0.));
#595=DIRECTION('',(0.,0.,-1.));
#596=DIRECTION('',(-1.,0.,0.));
#597=DIRECTION('',(0.,0.,1.));
#598=DIRECTION('',(1.,0.,0.));
#599=DIRECTION('',(0.,0.,1.));
#600=DIRECTION('',(1.,0.,0.));
#601=DIRECTION('',(-0.707106781186548,0.,0.707106781186547));
#602=DIRECTION('',(0.707106781186547,0.,0.707106781186548));
#603=DIRECTION('',(0.,1.,0.));
#604=DIRECTION('',(-1.,0.,-6.50521303491303E-16));
#605=DIRECTION('',(-6.50521303491303E-16,0.,1.));
#606=DIRECTION('',(0.,1.,0.));
#607=DIRECTION('',(-0.707106781186546,0.,-0.707106781186549));
#608=DIRECTION('',(-0.707106781186549,0.,0.707106781186546));
#609=DIRECTION('',(0.707106781186549,0.,-0.707106781186546));
#610=DIRECTION('',(-0.707106781186546,0.,-0.707106781186549));
#611=DIRECTION('',(0.,1.,0.));
#612=DIRECTION('',(1.,0.,2.16840434497101E-16));
#613=DIRECTION('',(2.16840434497101E-16,0.,-1.));
#614=DIRECTION('',(0.,1.,0.));
#615=DIRECTION('',(0.707106781186549,0.,0.707106781186546));
#616=DIRECTION('',(0.707106781186546,0.,-0.707106781186549));
#617=DIRECTION('',(0.,0.,-1.));
#618=DIRECTION('',(-1.,0.,0.));
#619=DIRECTION('',(0.,0.,1.));
#620=DIRECTION('',(1.,0.,0.));
#621=DIRECTION('',(0.,0.,1.));
#622=DIRECTION('',(1.,0.,0.));
#623=DIRECTION('',(0.,0.,1.));
#624=DIRECTION('',(1.,0.,0.));
#625=DIRECTION('',(0.,0.,1.));
#626=DIRECTION('',(1.,0.,0.));
#627=DIRECTION('',(0.,0.,1.));
#628=DIRECTION('',(1.,0.,0.));
#629=DIRECTION('',(0.,0.,1.));
#630=DIRECTION('',(1.,0.,0.));
#631=DIRECTION('',(0.,0.,-1.));
#632=DIRECTION('',(1.,0.,0.));
#633=CARTESIAN_POINT('',(0.,0.,0.));
#634=CARTESIAN_POINT('',(3.46944695195361E-15,0.,139.5));
#635=CARTESIAN_POINT('',(3.46944695195361E-15,0.,99.5));
#636=CARTESIAN_POINT('',(6.4585,0.,99.5));
#637=CARTESIAN_POINT('',(3.68628738645072E-15,0.,70.));
#638=CARTESIAN_POINT('',(6.4585,0.,70.));
#639=CARTESIAN_POINT('',(3.46944695195361E-15,0.,139.5));
#640=CARTESIAN_POINT('',(0.,0.,38.3703701976851));
#641=CARTESIAN_POINT('',(-6.4585,0.,38.3703701976851));
#642=CARTESIAN_POINT('',(0.,0.,71.5));
#643=CARTESIAN_POINT('',(0.,0.,138.65));
#644=CARTESIAN_POINT('',(-12.7,0.,138.65));
#645=CARTESIAN_POINT('',(0.,0.,40.8));
#646=CARTESIAN_POINT('',(-11.,6.34744042902341,29.8));
#647=CARTESIAN_POINT('',(-11.,-6.34744042902341,29.8));
#648=CARTESIAN_POINT('',(-11.,6.34744042902341,71.5));
#649=CARTESIAN_POINT('',(-11.,6.34744042902347,37.8));
#650=CARTESIAN_POINT('',(0.,0.,26.8000000000001));
#651=CARTESIAN_POINT('',(-11.,-6.34744042902347,37.8));
#652=CARTESIAN_POINT('',(-11.,-6.34744042902341,71.5));
#653=CARTESIAN_POINT('',(0.,0.,26.5));
#654=CARTESIAN_POINT('',(12.7000000000001,0.,26.5));
#655=CARTESIAN_POINT('',(0.,0.,26.8));
#656=CARTESIAN_POINT('',(11.,6.34744042902344,37.8));
#657=CARTESIAN_POINT('',(11.,-6.34744042902344,37.8));
#658=CARTESIAN_POINT('',(11.,6.34744042902344,71.5));
#659=CARTESIAN_POINT('',(11.,6.34744042902344,29.8));
#660=CARTESIAN_POINT('',(0.,0.,40.8000000000001));
#661=CARTESIAN_POINT('',(11.,-6.34744042902344,29.8));
#662=CARTESIAN_POINT('',(11.,-6.34744042902344,71.5));
#663=CARTESIAN_POINT('',(0.,0.,62.));
#664=CARTESIAN_POINT('',(0.,0.,25.5));
#665=CARTESIAN_POINT('',(12.5,0.,25.5));
#666=CARTESIAN_POINT('',(0.,0.,26.2999999999999));
#667=CARTESIAN_POINT('',(12.5,0.,26.2999999999999));
#668=CARTESIAN_POINT('',(0.,0.,62.));
#669=CARTESIAN_POINT('',(0.,0.,12.5));
#670=CARTESIAN_POINT('',(12.5,0.,12.5));
#671=CARTESIAN_POINT('',(0.,0.,11.5));
#672=CARTESIAN_POINT('',(0.,0.,11.5));
#673=CARTESIAN_POINT('',(10.3221851391024,0.,11.5));
#674=CARTESIAN_POINT('',(0.,0.,11.5));
#675=CARTESIAN_POINT('',(11.5,0.,11.5));
#676=CARTESIAN_POINT('',(0.,0.,12.5));
#677=CARTESIAN_POINT('',(0.,0.,26.2999999999999));
#678=CARTESIAN_POINT('',(12.7,0.,139.5));
#679=CARTESIAN_POINT('',(0.,0.,139.5));
#680=CARTESIAN_POINT('',(8.25,0.,139.5));
#681=CARTESIAN_POINT('',(0.,0.,139.5));
#682=CARTESIAN_POINT('',(-11.85,0.,139.5));
#683=CARTESIAN_POINT('',(0.,0.,42.0991869112463));
#684=CARTESIAN_POINT('',(0.,0.,38.));
#685=CARTESIAN_POINT('',(7.1,0.,38.));
#686=CARTESIAN_POINT('',(0.,0.,46.1961524227066));
#687=CARTESIAN_POINT('',(0.,0.,32.1345721949142));
#688=CARTESIAN_POINT('',(7.1,0.,32.1345721949142));
#689=CARTESIAN_POINT('',(0.,0.,32.1345721949142));
#690=CARTESIAN_POINT('',(0.,0.,12.088661519232));
#691=CARTESIAN_POINT('',(9.91726901872996,0.,12.088661519232));
#692=CARTESIAN_POINT('',(0.,0.,12.2));
#693=CARTESIAN_POINT('',(-12.7,-132.944800575276,28.1));
#694=CARTESIAN_POINT('',(-11.,-132.944800575276,29.8));
#695=CARTESIAN_POINT('',(-11.,-132.944800575276,29.8));
#696=CARTESIAN_POINT('',(-11.,-132.944800575276,37.8));
#697=CARTESIAN_POINT('',(-11.,-132.944800575276,37.8));
#698=CARTESIAN_POINT('',(11.,-132.944800575276,37.8));
#699=CARTESIAN_POINT('',(11.,-132.944800575276,37.8));
#700=CARTESIAN_POINT('',(11.,-132.944800575276,37.8));
#701=CARTESIAN_POINT('',(11.,-132.944800575276,29.8));
#702=CARTESIAN_POINT('',(11.,-132.944800575276,29.8));
#703=CARTESIAN_POINT('',(0.,0.,139.5));
#704=CARTESIAN_POINT('',(0.,0.,138.5));
#705=CARTESIAN_POINT('',(0.,0.,138.5));
#706=CARTESIAN_POINT('',(7.25,0.,138.5));
#707=CARTESIAN_POINT('',(0.,0.,199.5));
#708=CARTESIAN_POINT('',(0.,0.,134.5));
#709=CARTESIAN_POINT('',(7.25,0.,134.5));
#710=CARTESIAN_POINT('',(0.,0.,134.5));
#711=CARTESIAN_POINT('',(0.,0.,134.043027261936));
#712=CARTESIAN_POINT('',(6.4585,0.,134.043027261936));
#713=CARTESIAN_POINT('',(3.46944695195361E-15,0.,139.5));
#714=MECHANICAL_DESIGN_GEOMETRIC_PRESENTATION_REPRESENTATION('',(#286,#287,
#288,#289,#290,#291,#292,#293,#294,#295,#296,#297,#298,#299,#300,#301,#302,
#303,#304,#305,#306,#307,#308,#309),#715);
#715=(
GEOMETRIC_REPRESENTATION_CONTEXT(3)
GLOBAL_UNCERTAINTY_ASSIGNED_CONTEXT((#716))
GLOBAL_UNIT_ASSIGNED_CONTEXT((#719,#718,#717))
REPRESENTATION_CONTEXT('0009641','TOP_LEVEL_ASSEMBLY_PART')
);
#716=UNCERTAINTY_MEASURE_WITH_UNIT(LENGTH_MEASURE(0.005),#719,
'DISTANCE_ACCURACY_VALUE','Maximum Tolerance applied to model');
#717=(
NAMED_UNIT(*)
SI_UNIT($,.STERADIAN.)
SOLID_ANGLE_UNIT()
);
#718=(
NAMED_UNIT(*)
PLANE_ANGLE_UNIT()
SI_UNIT($,.RADIAN.)
);
#719=(
LENGTH_UNIT()
NAMED_UNIT(*)
SI_UNIT(.MILLI.,.METRE.)
);
#720=PRODUCT_DEFINITION_SHAPE('','',#721);
#721=PRODUCT_DEFINITION('','',#723,#722);
#722=PRODUCT_DEFINITION_CONTEXT('',#729,'design');
#723=PRODUCT_DEFINITION_FORMATION_WITH_SPECIFIED_SOURCE('','',#725,
 .NOT_KNOWN.);
#724=PRODUCT_RELATED_PRODUCT_CATEGORY('','',(#725));
#725=PRODUCT('0009641','0009641','0009641',(#727));
#726=PRODUCT_CATEGORY('','');
#727=PRODUCT_CONTEXT('',#729,'mechanical');
#728=APPLICATION_PROTOCOL_DEFINITION('international standard',
'automotive_design',2010,#729);
#729=APPLICATION_CONTEXT(
'core data for automotive mechanical design processes');
#730=AXIS2_PLACEMENT_3D('PCS',#731,#732,#733);
#731=CARTESIAN_POINT('',(0.,0.,39.5));
#732=DIRECTION('',(0.,0.,1.));
#733=DIRECTION('',(1.,0.,0.));
#734=AXIS2_PLACEMENT_3D('MCS',#735,#736,#737);
#735=CARTESIAN_POINT('',(0.,0.,39.5));
#736=DIRECTION('',(0.,0.,1.));
#737=DIRECTION('',(1.,0.,0.));
#738=AXIS2_PLACEMENT_3D('CSW',#739,#740,#741);
#739=CARTESIAN_POINT('',(0.,0.,11.5));
#740=DIRECTION('',(0.,0.,1.));
#741=DIRECTION('',(1.,0.,0.));
#742=CONSTRUCTIVE_GEOMETRY_REPRESENTATION_RELATIONSHIP('coordinate systems',$,#19,#743);
#743=CONSTRUCTIVE_GEOMETRY_REPRESENTATION('coordinate systems',(#730, #734, #738),#715);
ENDSEC;
END-ISO-10303-21;

