ISO-10303-21;
HEADER;
/* Generated by software containing ST-Developer
 * from STEP Tools, Inc. (www.steptools.com) 
 */
/* OPTION: strings as raw bytes, not using required /X/ escapes */

FILE_DESCRIPTION(
/* description */ ('Unknown'),
/* implementation_level */ '2;1');

FILE_NAME(
/* name */ '393200300',
/* time_stamp */ '2019-10-22T16:21:49+02:00',
/* author */ ('Unknown'),
/* organization */ ('Unknown'),
/* preprocessor_version */ 'ST-DEVELOPER v16.7',
/* originating_system */ 'DEX',
/* authorisation */ $);

FILE_SCHEMA (('AUTOMOTIVE_DESIGN {1 0 10303 214 3 1 1}'));
ENDSEC;

DATA;
#10=PROPERTY_DEFINITION_REPRESENTATION(#14,#12);
#11=PROPERTY_DEFINITION_REPRESENTATION(#15,#13);
#12=REPRESENTATION('',(#16),#336);
#13=REPRESENTATION('',(#17),#336);
#14=PROPERTY_DEFINITION('pmi validation property','',#341);
#15=PROPERTY_DEFINITION('pmi validation property','',#341);
#16=VALUE_REPRESENTATION_ITEM('number of annotations',COUNT_MEASURE(0.));
#17=VALUE_REPRESENTATION_ITEM('number of views',COUNT_MEASURE(0.));
#18=VERTEX_LOOP('',#88);
#19=SHAPE_REPRESENTATION_RELATIONSHIP('','',#199,#20);
#20=ADVANCED_BREP_SHAPE_REPRESENTATION('',(#196,#197),#336);
#21=TOROIDAL_SURFACE('',#217,12.1,0.1);
#22=TOROIDAL_SURFACE('',#222,2.35,0.4);
#23=TOROIDAL_SURFACE('',#226,2.35,0.4);
#24=TOROIDAL_SURFACE('',#229,2.,0.75);
#25=CONICAL_SURFACE('',#211,13.2355095289373,0.174532925199432);
#26=CONICAL_SURFACE('',#213,13.5,0.174532925199432);
#27=PLANE('',#207);
#28=PLANE('',#209);
#29=PLANE('',#215);
#30=PLANE('',#220);
#31=PLANE('',#228);
#32=ORIENTED_EDGE('',*,*,#60,.T.);
#33=ORIENTED_EDGE('',*,*,#61,.F.);
#34=ORIENTED_EDGE('',*,*,#62,.T.);
#35=ORIENTED_EDGE('',*,*,#63,.F.);
#36=ORIENTED_EDGE('',*,*,#61,.T.);
#37=ORIENTED_EDGE('',*,*,#64,.F.);
#38=ORIENTED_EDGE('',*,*,#65,.T.);
#39=ORIENTED_EDGE('',*,*,#62,.F.);
#40=ORIENTED_EDGE('',*,*,#66,.T.);
#41=ORIENTED_EDGE('',*,*,#65,.F.);
#42=ORIENTED_EDGE('',*,*,#67,.T.);
#43=ORIENTED_EDGE('',*,*,#66,.F.);
#44=ORIENTED_EDGE('',*,*,#68,.T.);
#45=ORIENTED_EDGE('',*,*,#67,.F.);
#46=ORIENTED_EDGE('',*,*,#69,.T.);
#47=ORIENTED_EDGE('',*,*,#68,.F.);
#48=ORIENTED_EDGE('',*,*,#64,.T.);
#49=ORIENTED_EDGE('',*,*,#69,.F.);
#50=ORIENTED_EDGE('',*,*,#70,.T.);
#51=ORIENTED_EDGE('',*,*,#60,.F.);
#52=ORIENTED_EDGE('',*,*,#71,.T.);
#53=ORIENTED_EDGE('',*,*,#70,.F.);
#54=ORIENTED_EDGE('',*,*,#72,.T.);
#55=ORIENTED_EDGE('',*,*,#71,.F.);
#56=ORIENTED_EDGE('',*,*,#73,.T.);
#57=ORIENTED_EDGE('',*,*,#72,.F.);
#58=ORIENTED_EDGE('',*,*,#63,.T.);
#59=ORIENTED_EDGE('',*,*,#73,.F.);
#60=EDGE_CURVE('',#74,#74,#89,.T.);
#61=EDGE_CURVE('',#75,#75,#90,.T.);
#62=EDGE_CURVE('',#76,#76,#91,.T.);
#63=EDGE_CURVE('',#77,#77,#92,.T.);
#64=EDGE_CURVE('',#78,#78,#93,.T.);
#65=EDGE_CURVE('',#79,#79,#94,.T.);
#66=EDGE_CURVE('',#80,#80,#95,.T.);
#67=EDGE_CURVE('',#81,#81,#96,.T.);
#68=EDGE_CURVE('',#82,#82,#97,.T.);
#69=EDGE_CURVE('',#83,#83,#98,.T.);
#70=EDGE_CURVE('',#84,#84,#99,.T.);
#71=EDGE_CURVE('',#85,#85,#100,.T.);
#72=EDGE_CURVE('',#86,#86,#101,.T.);
#73=EDGE_CURVE('',#87,#87,#102,.T.);
#74=VERTEX_POINT('',#293);
#75=VERTEX_POINT('',#295);
#76=VERTEX_POINT('',#298);
#77=VERTEX_POINT('',#300);
#78=VERTEX_POINT('',#303);
#79=VERTEX_POINT('',#306);
#80=VERTEX_POINT('',#309);
#81=VERTEX_POINT('',#312);
#82=VERTEX_POINT('',#315);
#83=VERTEX_POINT('',#318);
#84=VERTEX_POINT('',#322);
#85=VERTEX_POINT('',#325);
#86=VERTEX_POINT('',#328);
#87=VERTEX_POINT('',#331);
#88=VERTEX_POINT('',#334);
#89=CIRCLE('',#202,1.5);
#90=CIRCLE('',#203,1.5);
#91=CIRCLE('',#205,1.5);
#92=CIRCLE('',#206,1.5);
#93=CIRCLE('',#208,12.);
#94=CIRCLE('',#210,13.2355095289373);
#95=CIRCLE('',#212,13.5);
#96=CIRCLE('',#214,13.2355095289373);
#97=CIRCLE('',#216,12.1);
#98=CIRCLE('',#218,12.);
#99=CIRCLE('',#221,2.35);
#100=CIRCLE('',#223,2.75);
#101=CIRCLE('',#225,2.75);
#102=CIRCLE('',#227,2.35);
#103=EDGE_LOOP('',(#32));
#104=EDGE_LOOP('',(#33));
#105=EDGE_LOOP('',(#34));
#106=EDGE_LOOP('',(#35));
#107=EDGE_LOOP('',(#36));
#108=EDGE_LOOP('',(#37));
#109=EDGE_LOOP('',(#38));
#110=EDGE_LOOP('',(#39));
#111=EDGE_LOOP('',(#40));
#112=EDGE_LOOP('',(#41));
#113=EDGE_LOOP('',(#42));
#114=EDGE_LOOP('',(#43));
#115=EDGE_LOOP('',(#44));
#116=EDGE_LOOP('',(#45));
#117=EDGE_LOOP('',(#46));
#118=EDGE_LOOP('',(#47));
#119=EDGE_LOOP('',(#48));
#120=EDGE_LOOP('',(#49));
#121=EDGE_LOOP('',(#50));
#122=EDGE_LOOP('',(#51));
#123=EDGE_LOOP('',(#52));
#124=EDGE_LOOP('',(#53));
#125=EDGE_LOOP('',(#54));
#126=EDGE_LOOP('',(#55));
#127=EDGE_LOOP('',(#56));
#128=EDGE_LOOP('',(#57));
#129=EDGE_LOOP('',(#58));
#130=EDGE_LOOP('',(#59));
#131=FACE_BOUND('',#103,.T.);
#132=FACE_BOUND('',#104,.T.);
#133=FACE_BOUND('',#105,.T.);
#134=FACE_BOUND('',#106,.T.);
#135=FACE_BOUND('',#107,.T.);
#136=FACE_BOUND('',#108,.T.);
#137=FACE_BOUND('',#109,.T.);
#138=FACE_BOUND('',#110,.T.);
#139=FACE_BOUND('',#111,.T.);
#140=FACE_BOUND('',#112,.T.);
#141=FACE_BOUND('',#113,.T.);
#142=FACE_BOUND('',#114,.T.);
#143=FACE_BOUND('',#115,.T.);
#144=FACE_BOUND('',#116,.T.);
#145=FACE_BOUND('',#117,.T.);
#146=FACE_BOUND('',#118,.T.);
#147=FACE_BOUND('',#119,.T.);
#148=FACE_BOUND('',#120,.T.);
#149=FACE_BOUND('',#121,.T.);
#150=FACE_BOUND('',#122,.T.);
#151=FACE_BOUND('',#123,.T.);
#152=FACE_BOUND('',#124,.T.);
#153=FACE_BOUND('',#125,.T.);
#154=FACE_BOUND('',#126,.T.);
#155=FACE_BOUND('',#127,.T.);
#156=FACE_BOUND('',#128,.T.);
#157=FACE_BOUND('',#129,.T.);
#158=FACE_BOUND('',#130,.T.);
#159=FACE_BOUND('',#18,.T.);
#160=CYLINDRICAL_SURFACE('',#201,1.5);
#161=CYLINDRICAL_SURFACE('',#204,1.5);
#162=CYLINDRICAL_SURFACE('',#219,12.);
#163=CYLINDRICAL_SURFACE('',#224,2.75);
#164=ADVANCED_FACE('',(#131,#132),#160,.F.);
#165=ADVANCED_FACE('',(#133,#134),#161,.F.);
#166=ADVANCED_FACE('',(#135,#136),#27,.T.);
#167=ADVANCED_FACE('',(#137,#138),#28,.T.);
#168=ADVANCED_FACE('',(#139,#140),#25,.T.);
#169=ADVANCED_FACE('',(#141,#142),#26,.T.);
#170=ADVANCED_FACE('',(#143,#144),#29,.T.);
#171=ADVANCED_FACE('',(#145,#146),#21,.F.);
#172=ADVANCED_FACE('',(#147,#148),#162,.T.);
#173=ADVANCED_FACE('',(#149,#150),#30,.T.);
#174=ADVANCED_FACE('',(#151,#152),#22,.F.);
#175=ADVANCED_FACE('',(#153,#154),#163,.F.);
#176=ADVANCED_FACE('',(#155,#156),#23,.F.);
#177=ADVANCED_FACE('',(#157,#158),#31,.T.);
#178=ADVANCED_FACE('',(#159),#24,.T.);
#179=CLOSED_SHELL('',(#164,#165,#166,#167,#168,#169,#170,#171,#172,#173,
#174,#175,#176,#177));
#180=CLOSED_SHELL('',(#178));
#181=STYLED_ITEM('',(#183),#196);
#182=STYLED_ITEM('',(#184),#197);
#183=PRESENTATION_STYLE_ASSIGNMENT((#185));
#184=PRESENTATION_STYLE_ASSIGNMENT((#186));
#185=SURFACE_STYLE_USAGE(.BOTH.,#187);
#186=SURFACE_STYLE_USAGE(.BOTH.,#188);
#187=SURFACE_SIDE_STYLE('',(#189));
#188=SURFACE_SIDE_STYLE('',(#190));
#189=SURFACE_STYLE_FILL_AREA(#191);
#190=SURFACE_STYLE_FILL_AREA(#192);
#191=FILL_AREA_STYLE('',(#193));
#192=FILL_AREA_STYLE('',(#194));
#193=FILL_AREA_STYLE_COLOUR('',#195);
#194=FILL_AREA_STYLE_COLOUR('',#195);
#195=COLOUR_RGB('',0.752941191196442,0.752941191196442,0.752941191196442);
#196=MANIFOLD_SOLID_BREP('',#179);
#197=MANIFOLD_SOLID_BREP('',#180);
#198=SHAPE_DEFINITION_REPRESENTATION(#341,#199);
#199=SHAPE_REPRESENTATION('0015878',(#200),#336);
#200=AXIS2_PLACEMENT_3D('',#290,#230,#231);
#201=AXIS2_PLACEMENT_3D('',#291,#232,#233);
#202=AXIS2_PLACEMENT_3D('',#292,#234,#235);
#203=AXIS2_PLACEMENT_3D('',#294,#236,#237);
#204=AXIS2_PLACEMENT_3D('',#296,#238,#239);
#205=AXIS2_PLACEMENT_3D('',#297,#240,#241);
#206=AXIS2_PLACEMENT_3D('',#299,#242,#243);
#207=AXIS2_PLACEMENT_3D('',#301,#244,#245);
#208=AXIS2_PLACEMENT_3D('',#302,#246,#247);
#209=AXIS2_PLACEMENT_3D('',#304,#248,#249);
#210=AXIS2_PLACEMENT_3D('',#305,#250,#251);
#211=AXIS2_PLACEMENT_3D('',#307,#252,#253);
#212=AXIS2_PLACEMENT_3D('',#308,#254,#255);
#213=AXIS2_PLACEMENT_3D('',#310,#256,#257);
#214=AXIS2_PLACEMENT_3D('',#311,#258,#259);
#215=AXIS2_PLACEMENT_3D('',#313,#260,#261);
#216=AXIS2_PLACEMENT_3D('',#314,#262,#263);
#217=AXIS2_PLACEMENT_3D('',#316,#264,#265);
#218=AXIS2_PLACEMENT_3D('',#317,#266,#267);
#219=AXIS2_PLACEMENT_3D('',#319,#268,#269);
#220=AXIS2_PLACEMENT_3D('',#320,#270,#271);
#221=AXIS2_PLACEMENT_3D('',#321,#272,#273);
#222=AXIS2_PLACEMENT_3D('',#323,#274,#275);
#223=AXIS2_PLACEMENT_3D('',#324,#276,#277);
#224=AXIS2_PLACEMENT_3D('',#326,#278,#279);
#225=AXIS2_PLACEMENT_3D('',#327,#280,#281);
#226=AXIS2_PLACEMENT_3D('',#329,#282,#283);
#227=AXIS2_PLACEMENT_3D('',#330,#284,#285);
#228=AXIS2_PLACEMENT_3D('',#332,#286,#287);
#229=AXIS2_PLACEMENT_3D('',#333,#288,#289);
#230=DIRECTION('',(0.,0.,1.));
#231=DIRECTION('',(1.,0.,0.));
#232=DIRECTION('',(-1.,0.,0.));
#233=DIRECTION('',(0.,0.,1.));
#234=DIRECTION('',(-1.,0.,0.));
#235=DIRECTION('',(0.,0.,1.));
#236=DIRECTION('',(-1.,0.,0.));
#237=DIRECTION('',(0.,0.,1.));
#238=DIRECTION('',(-1.,0.,0.));
#239=DIRECTION('',(0.,0.,1.));
#240=DIRECTION('',(-1.,0.,0.));
#241=DIRECTION('',(0.,0.,1.));
#242=DIRECTION('',(-1.,0.,0.));
#243=DIRECTION('',(0.,0.,1.));
#244=DIRECTION('',(1.,0.,0.));
#245=DIRECTION('',(0.,0.,-1.));
#246=DIRECTION('',(-1.,0.,0.));
#247=DIRECTION('',(0.,0.,1.));
#248=DIRECTION('',(-1.,0.,0.));
#249=DIRECTION('',(0.,0.,1.));
#250=DIRECTION('',(-1.,0.,0.));
#251=DIRECTION('',(0.,0.,1.));
#252=DIRECTION('',(1.,0.,0.));
#253=DIRECTION('',(0.,0.,-1.));
#254=DIRECTION('',(-1.,0.,0.));
#255=DIRECTION('',(0.,0.,1.));
#256=DIRECTION('',(-1.,0.,0.));
#257=DIRECTION('',(0.,0.,1.));
#258=DIRECTION('',(-1.,0.,0.));
#259=DIRECTION('',(0.,0.,1.));
#260=DIRECTION('',(1.,0.,0.));
#261=DIRECTION('',(0.,0.,-1.));
#262=DIRECTION('',(-1.,0.,0.));
#263=DIRECTION('',(0.,0.,1.));
#264=DIRECTION('',(-1.,0.,0.));
#265=DIRECTION('',(0.,0.,1.));
#266=DIRECTION('',(-1.,0.,0.));
#267=DIRECTION('',(0.,0.,1.));
#268=DIRECTION('',(-1.,0.,0.));
#269=DIRECTION('',(0.,0.,1.));
#270=DIRECTION('',(-1.,0.,0.));
#271=DIRECTION('',(0.,0.,1.));
#272=DIRECTION('',(-1.,0.,0.));
#273=DIRECTION('',(0.,0.,1.));
#274=DIRECTION('',(-1.,0.,0.));
#275=DIRECTION('',(0.,0.,1.));
#276=DIRECTION('',(-1.,0.,0.));
#277=DIRECTION('',(0.,0.,1.));
#278=DIRECTION('',(-1.,0.,0.));
#279=DIRECTION('',(0.,0.,1.));
#280=DIRECTION('',(-1.,0.,0.));
#281=DIRECTION('',(0.,0.,1.));
#282=DIRECTION('',(-1.,0.,0.));
#283=DIRECTION('',(0.,0.,1.));
#284=DIRECTION('',(-1.,0.,0.));
#285=DIRECTION('',(0.,0.,1.));
#286=DIRECTION('',(1.,0.,0.));
#287=DIRECTION('',(0.,0.,-1.));
#288=DIRECTION('',(-1.,0.,0.));
#289=DIRECTION('',(0.,0.,1.));
#290=CARTESIAN_POINT('',(0.,0.,0.));
#291=CARTESIAN_POINT('',(-60.,0.,0.));
#292=CARTESIAN_POINT('',(-1.7,0.,0.));
#293=CARTESIAN_POINT('',(-1.7,0.,1.5));
#294=CARTESIAN_POINT('',(0.,0.,0.));
#295=CARTESIAN_POINT('',(0.,0.,1.5));
#296=CARTESIAN_POINT('',(-60.,0.,0.));
#297=CARTESIAN_POINT('',(-4.,0.,0.));
#298=CARTESIAN_POINT('',(-4.,0.,1.5));
#299=CARTESIAN_POINT('',(-3.4,0.,0.));
#300=CARTESIAN_POINT('',(-3.4,0.,1.5));
#301=CARTESIAN_POINT('',(-3.25260651745651E-16,0.,12.));
#302=CARTESIAN_POINT('',(0.,0.,0.));
#303=CARTESIAN_POINT('',(0.,0.,12.));
#304=CARTESIAN_POINT('',(-4.,0.,5.));
#305=CARTESIAN_POINT('',(-4.,0.,0.));
#306=CARTESIAN_POINT('',(-4.,0.,13.2355095289373));
#307=CARTESIAN_POINT('',(-4.,0.,0.));
#308=CARTESIAN_POINT('',(-2.5,0.,0.));
#309=CARTESIAN_POINT('',(-2.5,0.,13.5));
#310=CARTESIAN_POINT('',(-2.5,0.,0.));
#311=CARTESIAN_POINT('',(-1.,0.,0.));
#312=CARTESIAN_POINT('',(-1.,0.,13.2355095289373));
#313=CARTESIAN_POINT('',(-0.999999999999999,0.,13.2355095289373));
#314=CARTESIAN_POINT('',(-1.,0.,0.));
#315=CARTESIAN_POINT('',(-1.,0.,12.1));
#316=CARTESIAN_POINT('',(-0.899999999999999,0.,0.));
#317=CARTESIAN_POINT('',(-0.899999999999998,0.,0.));
#318=CARTESIAN_POINT('',(-0.899999999999998,0.,12.));
#319=CARTESIAN_POINT('',(-60.,0.,0.));
#320=CARTESIAN_POINT('',(-1.7,0.,2.35));
#321=CARTESIAN_POINT('',(-1.7,0.,0.));
#322=CARTESIAN_POINT('',(-1.7,0.,2.35));
#323=CARTESIAN_POINT('',(-2.1,0.,0.));
#324=CARTESIAN_POINT('',(-2.1,0.,0.));
#325=CARTESIAN_POINT('',(-2.1,0.,2.75));
#326=CARTESIAN_POINT('',(-4.,0.,0.));
#327=CARTESIAN_POINT('',(-3.,0.,0.));
#328=CARTESIAN_POINT('',(-3.,0.,2.75));
#329=CARTESIAN_POINT('',(-3.,0.,0.));
#330=CARTESIAN_POINT('',(-3.4,0.,0.));
#331=CARTESIAN_POINT('',(-3.4,0.,2.35));
#332=CARTESIAN_POINT('',(-3.4,0.,2.35));
#333=CARTESIAN_POINT('',(-2.55,0.,0.));
#334=CARTESIAN_POINT('',(-2.55,0.,1.25));
#335=MECHANICAL_DESIGN_GEOMETRIC_PRESENTATION_REPRESENTATION('',(#181,#182),
#336);
#336=(
GEOMETRIC_REPRESENTATION_CONTEXT(3)
GLOBAL_UNCERTAINTY_ASSIGNED_CONTEXT((#337))
GLOBAL_UNIT_ASSIGNED_CONTEXT((#340,#339,#338))
REPRESENTATION_CONTEXT('0015878','TOP_LEVEL_ASSEMBLY_PART')
);
#337=UNCERTAINTY_MEASURE_WITH_UNIT(LENGTH_MEASURE(0.005),#340,
'DISTANCE_ACCURACY_VALUE','Maximum Tolerance applied to model');
#338=(
NAMED_UNIT(*)
SI_UNIT($,.STERADIAN.)
SOLID_ANGLE_UNIT()
);
#339=(
NAMED_UNIT(*)
PLANE_ANGLE_UNIT()
SI_UNIT($,.RADIAN.)
);
#340=(
LENGTH_UNIT()
NAMED_UNIT(*)
SI_UNIT(.MILLI.,.METRE.)
);
#341=PRODUCT_DEFINITION_SHAPE('','',#342);
#342=PRODUCT_DEFINITION('','',#344,#343);
#343=PRODUCT_DEFINITION_CONTEXT('',#350,'design');
#344=PRODUCT_DEFINITION_FORMATION_WITH_SPECIFIED_SOURCE('','',#346,
 .NOT_KNOWN.);
#345=PRODUCT_RELATED_PRODUCT_CATEGORY('','',(#346));
#346=PRODUCT('0015878','0015878','0015878',(#348));
#347=PRODUCT_CATEGORY('','');
#348=PRODUCT_CONTEXT('',#350,'mechanical');
#349=APPLICATION_PROTOCOL_DEFINITION('international standard',
'automotive_design',2010,#350);
#350=APPLICATION_CONTEXT(
'core data for automotive mechanical design processes');
ENDSEC;
END-ISO-10303-21;
