  0
SECTION
  2
HEADER
  9
$ACADVER
  1
AC1009
  9
$DWGCODEPAGE
  3
ansi_1252
  9
$INSBASE
 10
0.0
 20
0.0
 30
0.0
  9
$EXTMIN
 10
0.0
 20
0.0
 30
0.0
  9
$EXTMAX
 10
297.0
 20
210.0
 30
0.0
  9
$LIMMIN
 10
0.0
 20
0.0
  9
$LIMMAX
 10
297.0
 20
210.0
  9
$ORTHOMODE
 70
     0
  9
$REGENMODE
 70
     1
  9
$FILLMODE
 70
     1
  9
$QTEXTMODE
 70
     0
  9
$MIRRTEXT
 70
     1
  9
$DRAGMODE
 70
     2
  9
$LTSCALE
 40
1.0
  9
$OSMODE
 70
    37
  9
$ATTMODE
 70
     1
  9
$TEXTSIZE
 40
2.5
  9
$TRACEWID
 40
1.0
  9
$TEXTSTYLE
  7
STANDARD
  9
$CLAYER
  8
0
  9
$CELTYPE
  6
BYLAYER
  9
$CECOLOR
 62
   256
  9
$DIMSCALE
 40
1.0
  9
$DIMASZ
 40
2.5
  9
$DIMEXO
 40
0.625
  9
$DIMDLI
 40
3.75
  9
$DIMRND
 40
0.0
  9
$DIMDLE
 40
0.0
  9
$DIMEXE
 40
1.25
  9
$DIMTP
 40
0.0
  9
$DIMTM
 40
0.0
  9
$DIMTXT
 40
2.5
  9
$DIMCEN
 40
2.5
  9
$DIMTSZ
 40
0.0
  9
$DIMTOL
 70
     0
  9
$DIMLIM
 70
     0
  9
$DIMTIH
 70
     0
  9
$DIMTOH
 70
     0
  9
$DIMSE1
 70
     0
  9
$DIMSE2
 70
     0
  9
$DIMTAD
 70
     1
  9
$DIMZIN
 70
     8
  9
$DIMBLK
  1

  9
$DIMASO
 70
     1
  9
$DIMSHO
 70
     1
  9
$DIMPOST
  1

  9
$DIMAPOST
  1

  9
$DIMALT
 70
     0
  9
$DIMALTD
 70
     3
  9
$DIMALTF
 40
0.0393700787
  9
$DIMLFAC
 40
1.0
  9
$DIMTOFL
 70
     1
  9
$DIMTVP
 40
0.0
  9
$DIMTIX
 70
     0
  9
$DIMSOXD
 70
     0
  9
$DIMSAH
 70
     0
  9
$DIMBLK1
  1

  9
$DIMBLK2
  1

  9
$DIMSTYLE
  2
ISO-25
  9
$DIMCLRD
 70
     0
  9
$DIMCLRE
 70
     0
  9
$DIMCLRT
 70
     0
  9
$DIMTFAC
 40
1.0
  9
$DIMGAP
 40
0.625
  9
$LUNITS
 70
     2
  9
$LUPREC
 70
     4
  9
$SKETCHINC
 40
1.0
  9
$FILLETRAD
 40
10.0
  9
$AUNITS
 70
     0
  9
$AUPREC
 70
     0
  9
$MENU
  1
.
  9
$ELEVATION
 40
0.0
  9
$PELEVATION
 40
0.0
  9
$THICKNESS
 40
0.0
  9
$LIMCHECK
 70
     0
  9
$CHAMFERA
 40
10.0
  9
$CHAMFERB
 40
10.0
  9
$SKPOLY
 70
     0
  9
$TDCREATE
 40
2457000.599588368
  9
$TDUPDATE
 40
2457000.599843322
  9
$TDINDWG
 40
0.0000000116
  9
$TDUSRTIMER
 40
0.0000000116
  9
$USRTIMER
 70
     1
  9
$ANGBASE
 50
0.0
  9
$ANGDIR
 70
     0
  9
$PDMODE
 70
     0
  9
$PDSIZE
 40
0.0
  9
$PLINEWID
 40
0.0
  9
$COORDS
 70
     1
  9
$SPLFRAME
 70
     0
  9
$SPLINETYPE
 70
     6
  9
$SPLINESEGS
 70
     8
  9
$ATTDIA
 70
     0
  9
$ATTREQ
 70
     1
  9
$HANDLING
 70
     1
  9
$HANDSEED
  5
992
  9
$SURFTAB1
 70
     6
  9
$SURFTAB2
 70
     6
  9
$SURFTYPE
 70
     6
  9
$SURFU
 70
     6
  9
$SURFV
 70
     6
  9
$UCSNAME
  2

  9
$UCSORG
 10
0.0
 20
0.0
 30
0.0
  9
$UCSXDIR
 10
1.0
 20
0.0
 30
0.0
  9
$UCSYDIR
 10
0.0
 20
1.0
 30
0.0
  9
$PUCSNAME
  2

  9
$PUCSORG
 10
0.0
 20
0.0
 30
0.0
  9
$PUCSXDIR
 10
1.0
 20
0.0
 30
0.0
  9
$PUCSYDIR
 10
0.0
 20
1.0
 30
0.0
  9
$USERI1
 70
     0
  9
$USERI2
 70
     0
  9
$USERI3
 70
     0
  9
$USERI4
 70
     0
  9
$USERI5
 70
     0
  9
$USERR1
 40
0.0
  9
$USERR2
 40
0.0
  9
$USERR3
 40
0.0
  9
$USERR4
 40
0.0
  9
$USERR5
 40
0.0
  9
$WORLDVIEW
 70
     1
  9
$SHADEDGE
 70
     3
  9
$SHADEDIF
 70
    70
  9
$TILEMODE
 70
     1
  9
$MAXACTVP
 70
    64
  9
$PLIMCHECK
 70
     0
  9
$PEXTMIN
 10
0.0
 20
0.0
 30
0.0
  9
$PEXTMAX
 10
297.0
 20
210.0
 30
0.0
  9
$PLIMMIN
 10
0.0
 20
0.0
  9
$PLIMMAX
 10
297.0
 20
210.0
  9
$UNITMODE
 70
     0
  9
$VISRETAIN
 70
     1
  9
$PLINEGEN
 70
     0
  9
$PSLTSCALE
 70
     1
  0
ENDSEC
  0
SECTION
  2
TABLES
  0
TABLE
  2
VPORT
 70
     1
  0
VPORT
  2
*ACTIVE
 70
     0
 10
0.0
 20
0.0
 11
1.0
 21
1.0
 12
344.1869158879
 22
148.5
 13
0.0
 23
0.0
 14
10.0
 24
10.0
 15
10.0
 25
10.0
 16
0.0
 26
0.0
 36
1.0
 17
0.0
 27
0.0
 37
0.0
 40
297.0
 41
1.9729729729
 42
50.0
 43
0.0
 44
0.0
 50
0.0
 51
0.0
 71
     0
 72
   100
 73
     1
 74
     3
 75
     0
 76
     0
 77
     0
 78
     0
  0
ENDTAB
  0
TABLE
  2
LTYPE
 70
     2
  0
LTYPE
  2
CONTINUOUS
 70
     0
  3
Solid line
 72
    65
 73
     0
 40
0.0
  0
LTYPE
  2
CENTER2
 70
     0
  3
Center (.5x) ___ _ ___ _ ___ _ ___ _ ___ _ ___
 72
    65
 73
     4
 40
28.575
 49
19.05
 49
-3.175
 49
3.175
 49
-3.175
  0
ENDTAB
  0
TABLE
  2
LAYER
 70
     4
  0
LAYER
  2
0
 70
     0
 62
     7
  6
CONTINUOUS
  0
LAYER
  2
SK2
 70
     0
 62
     7
  6
CONTINUOUS
  0
LAYER
  2
SK1
 70
     0
 62
     4
  6
CONTINUOUS
  0
LAYER
  2
SK4
 70
     0
 62
     2
  6
CENTER2
  0
ENDTAB
  0
TABLE
  2
STYLE
 70
     4
  0
STYLE
  2
STANDARD
 70
     0
 40
0.0
 41
1.0
 50
0.0
 71
     0
 42
2.5
  3
txt
  4

  0
STYLE
  2
SEACAD_SOLID_EDGE_ISO
 70
     0
 40
0.0
 41
1.0
 50
0.0
 71
     0
 42
0.2
  3
seiso.ttf
  4

  0
STYLE
  2
SEACAD_SOLID_EDGE_ISO1_SYM
 70
     0
 40
0.0
 41
1.0
 50
0.0
 71
     0
 42
0.2
  3
semeci1.ttf
  4

  0
STYLE
  2
SEACAD_SOLID_EDGE_ISOB
 70
     0
 40
0.0
 41
1.0
 50
0.0
 71
     0
 42
0.2
  3
seisobd.ttf
  4

  0
ENDTAB
  0
TABLE
  2
VIEW
 70
     0
  0
ENDTAB
  0
TABLE
  2
UCS
 70
     0
  0
ENDTAB
  0
TABLE
  2
APPID
 70
     1
  0
APPID
  2
ACAD
 70
     0
  0
ENDTAB
  0
TABLE
  2
DIMSTYLE
 70
     1
  0
DIMSTYLE
  2
ISO-25
 70
     0
  3

  4

  5

  6

  7

 40
1.0
 41
2.5
 42
0.625
 43
3.75
 44
1.25
 45
0.0
 46
0.0
 47
0.0
 48
0.0
140
2.5
141
2.5
142
0.0
143
0.0393700787
144
1.0
145
0.0
146
1.0
147
0.625
 71
     0
 72
     0
 73
     0
 74
     0
 75
     0
 76
     0
 77
     1
 78
     8
170
     0
171
     3
172
     1
173
     0
174
     0
175
     0
176
     0
177
     0
178
     0
  0
ENDTAB
  0
ENDSEC
  0
SECTION
  2
BLOCKS
  0
BLOCK
  8
0
  2
$MODEL_SPACE
 70
     0
 10
0.0
 20
0.0
 30
0.0
  3
$MODEL_SPACE
  1

  0
ENDBLK
  5
21
  8
0
  0
BLOCK
 67
     1
  8
0
  2
$PAPER_SPACE
 70
     0
 10
0.0
 20
0.0
 30
0.0
  3
$PAPER_SPACE
  1

  0
ENDBLK
  5
1D
 67
     1
  8
0
  0
BLOCK
  8
0
  2
SE
 70
     0
 10
0.0
 20
0.0
 30
0.0
  3
SE
  1

  0
LINE
  5
43
  8
SK1
  6
CONTINUOUS
 10
60.6128689557
 20
150.1778692315
 30
0.0
 11
63.7103901796
 21
150.1778692315
 31
0.0
  0
LINE
  5
44
  8
SK1
  6
CONTINUOUS
 10
60.6128689557
 20
136.1778692315
 30
0.0
 11
63.7103901796
 21
136.1778692315
 31
0.0
  0
LINE
  5
45
  8
SK1
  6
CONTINUOUS
 10
94.4609759433
 20
141.1778692315
 30
0.0
 11
86.9209996487
 21
141.1778692315
 31
0.0
  0
LINE
  5
46
  8
SK1
  6
CONTINUOUS
 10
94.4609759433
 20
141.3028692315
 30
0.0
 11
239.8587273626
 21
141.3028692315
 31
0.0
  0
ARC
  5
47
  8
SK1
  6
CONTINUOUS
 10
100.1369466457
 20
143.1778692315
 30
0.0
 40
16.20738048665984
 50
174.6896515691
 51
185.3103484309
  0
ARC
  5
48
  8
SK1
  6
CONTINUOUS
 10
80.5408803467
 20
-100.9224078227
 30
0.0
 40
242.624924328472
 50
86.7109688783
 51
89.1833084738
  0
LINE
  5
49
  8
SK1
  6
CONTINUOUS
 10
94.4609759433
 20
141.3028692315
 30
0.0
 11
94.4609759433
 21
141.1778692315
 31
0.0
  0
LINE
  5
4A
  8
SK1
  6
CONTINUOUS
 10
94.4609759434
 20
145.1778692315
 30
0.0
 11
239.8587273626
 21
145.1778692315
 31
0.0
  0
POLYLINE
  5
4B
  8
SK1
  6
CONTINUOUS
 66
     1
 10
0.0
 20
0.0
 30
0.0
  0
VERTEX
  5
1EF
  8
SK1
  6
CONTINUOUS
 10
94.4609759434
 20
145.0528692315
 30
0.0
  0
VERTEX
  5
1F0
  8
SK1
  6
CONTINUOUS
 10
94.3947925188
 20
145.0379549894
 30
0.0
  0
VERTEX
  5
1F1
  8
SK1
  6
CONTINUOUS
 10
94.3286007157
 20
145.0229060513
 30
0.0
  0
VERTEX
  5
1F2
  8
SK1
  6
CONTINUOUS
 10
94.2624034866
 20
145.0077171652
 30
0.0
  0
VERTEX
  5
1F3
  8
SK1
  6
CONTINUOUS
 10
94.1962037842
 20
144.9923830794
 30
0.0
  0
VERTEX
  5
1F4
  8
SK1
  6
CONTINUOUS
 10
94.1300045607
 20
144.9768985419
 30
0.0
  0
VERTEX
  5
1F5
  8
SK1
  6
CONTINUOUS
 10
94.0638087688
 20
144.961258301
 30
0.0
  0
VERTEX
  5
1F6
  8
SK1
  6
CONTINUOUS
 10
93.997619361
 20
144.9454571048
 30
0.0
  0
VERTEX
  5
1F7
  8
SK1
  6
CONTINUOUS
 10
93.9314392898
 20
144.9294897015
 30
0.0
  0
VERTEX
  5
1F8
  8
SK1
  6
CONTINUOUS
 10
93.8652715076
 20
144.9133508393
 30
0.0
  0
VERTEX
  5
1F9
  8
SK1
  6
CONTINUOUS
 10
93.799118967
 20
144.8970352662
 30
0.0
  0
VERTEX
  5
1FA
  8
SK1
  6
CONTINUOUS
 10
93.7329846205
 20
144.8805377305
 30
0.0
  0
VERTEX
  5
1FB
  8
SK1
  6
CONTINUOUS
 10
93.6668714206
 20
144.8638529803
 30
0.0
  0
VERTEX
  5
1FC
  8
SK1
  6
CONTINUOUS
 10
93.6007823198
 20
144.8469757638
 30
0.0
  0
VERTEX
  5
1FD
  8
SK1
  6
CONTINUOUS
 10
93.5347202706
 20
144.8299008292
 30
0.0
  0
VERTEX
  5
1FE
  8
SK1
  6
CONTINUOUS
 10
93.4686882255
 20
144.8126229246
 30
0.0
  0
VERTEX
  5
1FF
  8
SK1
  6
CONTINUOUS
 10
93.4026891371
 20
144.7951367982
 30
0.0
  0
VERTEX
  5
200
  8
SK1
  6
CONTINUOUS
 10
93.3367259578
 20
144.7774371981
 30
0.0
  0
VERTEX
  5
201
  8
SK1
  6
CONTINUOUS
 10
93.2708016401
 20
144.7595188725
 30
0.0
  0
VERTEX
  5
202
  8
SK1
  6
CONTINUOUS
 10
93.2049191365
 20
144.7413765696
 30
0.0
  0
VERTEX
  5
203
  8
SK1
  6
CONTINUOUS
 10
93.1390813996
 20
144.7230050375
 30
0.0
  0
VERTEX
  5
204
  8
SK1
  6
CONTINUOUS
 10
93.0732913818
 20
144.7043990244
 30
0.0
  0
VERTEX
  5
205
  8
SK1
  6
CONTINUOUS
 10
93.0075520357
 20
144.6855532785
 30
0.0
  0
VERTEX
  5
206
  8
SK1
  6
CONTINUOUS
 10
92.9418663138
 20
144.6664625479
 30
0.0
  0
VERTEX
  5
207
  8
SK1
  6
CONTINUOUS
 10
92.8762371685
 20
144.6471215808
 30
0.0
  0
VERTEX
  5
208
  8
SK1
  6
CONTINUOUS
 10
92.8106675524
 20
144.6275251253
 30
0.0
  0
VERTEX
  5
209
  8
SK1
  6
CONTINUOUS
 10
92.745160418
 20
144.6076679296
 30
0.0
  0
VERTEX
  5
20A
  8
SK1
  6
CONTINUOUS
 10
92.6797187177
 20
144.5875447419
 30
0.0
  0
VERTEX
  5
20B
  8
SK1
  6
CONTINUOUS
 10
92.6143454042
 20
144.5671503103
 30
0.0
  0
VERTEX
  5
20C
  8
SK1
  6
CONTINUOUS
 10
92.5490434299
 20
144.546479383
 30
0.0
  0
VERTEX
  5
20D
  8
SK1
  6
CONTINUOUS
 10
92.4838157472
 20
144.5255267082
 30
0.0
  0
VERTEX
  5
20E
  8
SK1
  6
CONTINUOUS
 10
92.4186653088
 20
144.504287034
 30
0.0
  0
VERTEX
  5
20F
  8
SK1
  6
CONTINUOUS
 10
92.3535950671
 20
144.4827551085
 30
0.0
  0
VERTEX
  5
210
  8
SK1
  6
CONTINUOUS
 10
92.2886079746
 20
144.4609256801
 30
0.0
  0
VERTEX
  5
211
  8
SK1
  6
CONTINUOUS
 10
92.2237069839
 20
144.4387934967
 30
0.0
  0
VERTEX
  5
212
  8
SK1
  6
CONTINUOUS
 10
92.1588631065
 20
144.4163533264
 30
0.0
  0
VERTEX
  5
213
  8
SK1
  6
CONTINUOUS
 10
92.0940620774
 20
144.3935816217
 30
0.0
  0
VERTEX
  5
214
  8
SK1
  6
CONTINUOUS
 10
92.0293289339
 20
144.3704456571
 30
0.0
  0
VERTEX
  5
215
  8
SK1
  6
CONTINUOUS
 10
91.9646887134
 20
144.3469127074
 30
0.0
  0
VERTEX
  5
216
  8
SK1
  6
CONTINUOUS
 10
91.9001664531
 20
144.3229500474
 30
0.0
  0
VERTEX
  5
217
  8
SK1
  6
CONTINUOUS
 10
91.8357871904
 20
144.2985249516
 30
0.0
  0
VERTEX
  5
218
  8
SK1
  6
CONTINUOUS
 10
91.7715759627
 20
144.2736046949
 30
0.0
  0
VERTEX
  5
219
  8
SK1
  6
CONTINUOUS
 10
91.7075578073
 20
144.2481565519
 30
0.0
  0
VERTEX
  5
21A
  8
SK1
  6
CONTINUOUS
 10
91.6437577615
 20
144.2221477974
 30
0.0
  0
VERTEX
  5
21B
  8
SK1
  6
CONTINUOUS
 10
91.5802008627
 20
144.1955457061
 30
0.0
  0
VERTEX
  5
21C
  8
SK1
  6
CONTINUOUS
 10
91.5169121482
 20
144.1683175526
 30
0.0
  0
VERTEX
  5
21D
  8
SK1
  6
CONTINUOUS
 10
91.4539166553
 20
144.1404306117
 30
0.0
  0
VERTEX
  5
21E
  8
SK1
  6
CONTINUOUS
 10
91.3912394214
 20
144.1118521581
 30
0.0
  0
VERTEX
  5
21F
  8
SK1
  6
CONTINUOUS
 10
91.3289054839
 20
144.0825494665
 30
0.0
  0
VERTEX
  5
220
  8
SK1
  6
CONTINUOUS
 10
91.26693988
 20
144.0524898116
 30
0.0
  0
VERTEX
  5
221
  8
SK1
  6
CONTINUOUS
 10
91.2053676471
 20
144.0216404681
 30
0.0
  0
VERTEX
  5
222
  8
SK1
  6
CONTINUOUS
 10
91.1442138226
 20
143.9899687107
 30
0.0
  0
VERTEX
  5
223
  8
SK1
  6
CONTINUOUS
 10
91.0835075118
 20
143.9574686173
 30
0.0
  0
VERTEX
  5
224
  8
SK1
  6
CONTINUOUS
 10
91.0233397804
 20
143.9240211451
 30
0.0
  0
VERTEX
  5
225
  8
SK1
  6
CONTINUOUS
 10
90.963828606
 20
143.889423888
 30
0.0
  0
VERTEX
  5
226
  8
SK1
  6
CONTINUOUS
 10
90.9050919663
 20
143.8534744396
 30
0.0
  0
VERTEX
  5
227
  8
SK1
  6
CONTINUOUS
 10
90.8472478391
 20
143.8159703939
 30
0.0
  0
VERTEX
  5
228
  8
SK1
  6
CONTINUOUS
 10
90.790414202
 20
143.7767093447
 30
0.0
  0
VERTEX
  5
229
  8
SK1
  6
CONTINUOUS
 10
90.7347090328
 20
143.7354888858
 30
0.0
  0
VERTEX
  5
22A
  8
SK1
  6
CONTINUOUS
 10
90.6802503091
 20
143.692106611
 30
0.0
  0
VERTEX
  5
22B
  8
SK1
  6
CONTINUOUS
 10
90.627098968
 20
143.6462427336
 30
0.0
  0
VERTEX
  5
22C
  8
SK1
  6
CONTINUOUS
 10
90.5754906085
 20
143.597104787
 30
0.0
  0
VERTEX
  5
22D
  8
SK1
  6
CONTINUOUS
 10
90.5266613772
 20
143.5446648884
 30
0.0
  0
VERTEX
  5
22E
  8
SK1
  6
CONTINUOUS
 10
90.4819555574
 20
143.4890252271
 30
0.0
  0
VERTEX
  5
22F
  8
SK1
  6
CONTINUOUS
 10
90.4427174324
 20
143.4302879923
 30
0.0
  0
VERTEX
  5
230
  8
SK1
  6
CONTINUOUS
 10
90.4102912855
 20
143.3685553731
 30
0.0
  0
VERTEX
  5
231
  8
SK1
  6
CONTINUOUS
 10
90.3860214
 20
143.3039295587
 30
0.0
  0
VERTEX
  5
232
  8
SK1
  6
CONTINUOUS
 10
90.3712520591
 20
143.2365127384
 30
0.0
  0
VERTEX
  5
233
  8
SK1
  6
CONTINUOUS
 10
90.3673275461
 20
143.1664071013
 30
0.0
  0
VERTEX
  5
234
  8
SK1
  6
CONTINUOUS
 10
90.3748801968
 20
143.096542652
 30
0.0
  0
VERTEX
  5
235
  8
SK1
  6
CONTINUOUS
 10
90.3927661117
 20
143.0297883468
 30
0.0
  0
VERTEX
  5
236
  8
SK1
  6
CONTINUOUS
 10
90.4196652214
 20
142.966154803
 30
0.0
  0
VERTEX
  5
237
  8
SK1
  6
CONTINUOUS
 10
90.4542574566
 20
142.9056526376
 30
0.0
  0
VERTEX
  5
238
  8
SK1
  6
CONTINUOUS
 10
90.4952227479
 20
142.8482924678
 30
0.0
  0
VERTEX
  5
239
  8
SK1
  6
CONTINUOUS
 10
90.541241026
 20
142.7940849108
 30
0.0
  0
VERTEX
  5
23A
  8
SK1
  6
CONTINUOUS
 10
90.5909922215
 20
142.7430405837
 30
0.0
  0
VERTEX
  5
23B
  8
SK1
  6
CONTINUOUS
 10
90.643156265
 20
142.6951701038
 30
0.0
  0
VERTEX
  5
23C
  8
SK1
  6
CONTINUOUS
 10
90.6965853423
 20
142.6503526287
 30
0.0
  0
VERTEX
  5
23D
  8
SK1
  6
CONTINUOUS
 10
90.7514220485
 20
142.6077508316
 30
0.0
  0
VERTEX
  5
23E
  8
SK1
  6
CONTINUOUS
 10
90.8076152436
 20
142.5670926141
 30
0.0
  0
VERTEX
  5
23F
  8
SK1
  6
CONTINUOUS
 10
90.8649892139
 20
142.5282307605
 30
0.0
  0
VERTEX
  5
240
  8
SK1
  6
CONTINUOUS
 10
90.9233682458
 20
142.4910180555
 30
0.0
  0
VERTEX
  5
241
  8
SK1
  6
CONTINUOUS
 10
90.9825766258
 20
142.4553072836
 30
0.0
  0
VERTEX
  5
242
  8
SK1
  6
CONTINUOUS
 10
91.0424386401
 20
142.4209512292
 30
0.0
  0
VERTEX
  5
243
  8
SK1
  6
CONTINUOUS
 10
91.1027785752
 20
142.3878026769
 30
0.0
  0
VERTEX
  5
244
  8
SK1
  6
CONTINUOUS
 10
91.1634207175
 20
142.3557144112
 30
0.0
  0
VERTEX
  5
245
  8
SK1
  6
CONTINUOUS
 10
91.2243355046
 20
142.3245250417
 30
0.0
  0
VERTEX
  5
246
  8
SK1
  6
CONTINUOUS
 10
91.2856001863
 20
142.2941484647
 30
0.0
  0
VERTEX
  5
247
  8
SK1
  6
CONTINUOUS
 10
91.347199267
 20
142.2645503947
 30
0.0
  0
VERTEX
  5
248
  8
SK1
  6
CONTINUOUS
 10
91.409117251
 20
142.2356965463
 30
0.0
  0
VERTEX
  5
249
  8
SK1
  6
CONTINUOUS
 10
91.4713386428
 20
142.2075526339
 30
0.0
  0
VERTEX
  5
24A
  8
SK1
  6
CONTINUOUS
 10
91.5338479468
 20
142.1800843723
 30
0.0
  0
VERTEX
  5
24B
  8
SK1
  6
CONTINUOUS
 10
91.5966296673
 20
142.1532574759
 30
0.0
  0
VERTEX
  5
24C
  8
SK1
  6
CONTINUOUS
 10
91.6596683088
 20
142.1270376593
 30
0.0
  0
VERTEX
  5
24D
  8
SK1
  6
CONTINUOUS
 10
91.7229483756
 20
142.101390637
 30
0.0
  0
VERTEX
  5
24E
  8
SK1
  6
CONTINUOUS
 10
91.7864543721
 20
142.0762821235
 30
0.0
  0
VERTEX
  5
24F
  8
SK1
  6
CONTINUOUS
 10
91.8501708027
 20
142.0516778335
 30
0.0
  0
VERTEX
  5
250
  8
SK1
  6
CONTINUOUS
 10
91.9140821718
 20
142.0275434816
 30
0.0
  0
VERTEX
  5
251
  8
SK1
  6
CONTINUOUS
 10
91.9781729838
 20
142.0038447821
 30
0.0
  0
VERTEX
  5
252
  8
SK1
  6
CONTINUOUS
 10
92.0424277431
 20
141.9805474497
 30
0.0
  0
VERTEX
  5
253
  8
SK1
  6
CONTINUOUS
 10
92.106830954
 20
141.957617199
 30
0.0
  0
VERTEX
  5
254
  8
SK1
  6
CONTINUOUS
 10
92.171367121
 20
141.9350197445
 30
0.0
  0
VERTEX
  5
255
  8
SK1
  6
CONTINUOUS
 10
92.2360207485
 20
141.9127208007
 30
0.0
  0
VERTEX
  5
256
  8
SK1
  6
CONTINUOUS
 10
92.3007599137
 20
141.8907139857
 30
0.0
  0
VERTEX
  5
257
  8
SK1
  6
CONTINUOUS
 10
92.3655617608
 20
141.8690121311
 30
0.0
  0
VERTEX
  5
258
  8
SK1
  6
CONTINUOUS
 10
92.4304243946
 20
141.8476097719
 30
0.0
  0
VERTEX
  5
259
  8
SK1
  6
CONTINUOUS
 10
92.49534592
 20
141.8265014431
 30
0.0
  0
VERTEX
  5
25A
  8
SK1
  6
CONTINUOUS
 10
92.5603244416
 20
141.8056816796
 30
0.0
  0
VERTEX
  5
25B
  8
SK1
  6
CONTINUOUS
 10
92.6253580644
 20
141.7851450164
 30
0.0
  0
VERTEX
  5
25C
  8
SK1
  6
CONTINUOUS
 10
92.6904448929
 20
141.7648859886
 30
0.0
  0
VERTEX
  5
25D
  8
SK1
  6
CONTINUOUS
 10
92.7555830321
 20
141.744899131
 30
0.0
  0
VERTEX
  5
25E
  8
SK1
  6
CONTINUOUS
 10
92.8207705867
 20
141.7251789788
 30
0.0
  0
VERTEX
  5
25F
  8
SK1
  6
CONTINUOUS
 10
92.8860056615
 20
141.7057200669
 30
0.0
  0
VERTEX
  5
260
  8
SK1
  6
CONTINUOUS
 10
92.9512863613
 20
141.6865169302
 30
0.0
  0
VERTEX
  5
261
  8
SK1
  6
CONTINUOUS
 10
93.0166107908
 20
141.6675641038
 30
0.0
  0
VERTEX
  5
262
  8
SK1
  6
CONTINUOUS
 10
93.0819770548
 20
141.6488561226
 30
0.0
  0
VERTEX
  5
263
  8
SK1
  6
CONTINUOUS
 10
93.1473832582
 20
141.6303875217
 30
0.0
  0
VERTEX
  5
264
  8
SK1
  6
CONTINUOUS
 10
93.2128275057
 20
141.612152836
 30
0.0
  0
VERTEX
  5
265
  8
SK1
  6
CONTINUOUS
 10
93.278307902
 20
141.5941466005
 30
0.0
  0
VERTEX
  5
266
  8
SK1
  6
CONTINUOUS
 10
93.343822552
 20
141.5763633502
 30
0.0
  0
VERTEX
  5
267
  8
SK1
  6
CONTINUOUS
 10
93.4093695604
 20
141.5587976201
 30
0.0
  0
VERTEX
  5
268
  8
SK1
  6
CONTINUOUS
 10
93.474947032
 20
141.5414439451
 30
0.0
  0
VERTEX
  5
269
  8
SK1
  6
CONTINUOUS
 10
93.5405530717
 20
141.5242968603
 30
0.0
  0
VERTEX
  5
26A
  8
SK1
  6
CONTINUOUS
 10
93.6061857841
 20
141.5073509007
 30
0.0
  0
VERTEX
  5
26B
  8
SK1
  6
CONTINUOUS
 10
93.671843274
 20
141.4906006011
 30
0.0
  0
VERTEX
  5
26C
  8
SK1
  6
CONTINUOUS
 10
93.7375236463
 20
141.4740404967
 30
0.0
  0
VERTEX
  5
26D
  8
SK1
  6
CONTINUOUS
 10
93.8032250058
 20
141.4576651223
 30
0.0
  0
VERTEX
  5
26E
  8
SK1
  6
CONTINUOUS
 10
93.8689454571
 20
141.4414690131
 30
0.0
  0
VERTEX
  5
26F
  8
SK1
  6
CONTINUOUS
 10
93.9346831051
 20
141.4254467039
 30
0.0
  0
VERTEX
  5
270
  8
SK1
  6
CONTINUOUS
 10
94.0004360546
 20
141.4095927298
 30
0.0
  0
VERTEX
  5
271
  8
SK1
  6
CONTINUOUS
 10
94.0662024103
 20
141.3939016257
 30
0.0
  0
VERTEX
  5
272
  8
SK1
  6
CONTINUOUS
 10
94.131980277
 20
141.3783679267
 30
0.0
  0
VERTEX
  5
273
  8
SK1
  6
CONTINUOUS
 10
94.1977677596
 20
141.3629861677
 30
0.0
  0
VERTEX
  5
274
  8
SK1
  6
CONTINUOUS
 10
94.2635629627
 20
141.3477508837
 30
0.0
  0
VERTEX
  5
275
  8
SK1
  6
CONTINUOUS
 10
94.3293639912
 20
141.3326566096
 30
0.0
  0
VERTEX
  5
276
  8
SK1
  6
CONTINUOUS
 10
94.3951689498
 20
141.3176978806
 30
0.0
  0
VERTEX
  5
277
  8
SK1
  6
CONTINUOUS
 10
94.4609759433
 20
141.3028692315
 30
0.0
  0
SEQEND
  5
991
  8
SK1
  6
CONTINUOUS
  0
ARC
  5
4C
  8
SK1
  6
CONTINUOUS
 10
81.3089575356
 20
365.8501287905
 30
0.0
 40
221.1886195466823
 50
270.6968678103
 51
273.4088548377
  0
LINE
  5
4D
  8
SK1
  6
CONTINUOUS
 10
94.4609759434
 20
145.0528692315
 30
0.0
 11
94.4609759434
 21
145.1778692315
 31
0.0
  0
LINE
  5
4E
  8
SK1
  6
CONTINUOUS
 10
55.6207510417
 20
148.1778692315
 30
0.0
 11
55.6207510417
 21
138.1778692315
 31
0.0
  0
LINE
  5
4F
  8
SK1
  6
CONTINUOUS
 10
62.4837273626
 20
138.1778692315
 30
0.0
 11
62.4837273626
 21
148.1778692315
 31
0.0
  0
LINE
  5
50
  8
SK1
  6
CONTINUOUS
 10
239.8587273626
 20
145.0528692315
 30
0.0
 11
94.4609759434
 21
145.0528692315
 31
0.0
  0
LINE
  5
51
  8
SK1
  6
CONTINUOUS
 10
239.8587273626
 20
141.1778692315
 30
0.0
 11
94.4609759433
 21
141.1778692315
 31
0.0
  0
LINE
  5
52
  8
SK1
  6
CONTINUOUS
 10
239.8587273626
 20
145.0528692315
 30
0.0
 11
239.8587273626
 21
145.1778692315
 31
0.0
  0
LINE
  5
53
  8
SK1
  6
CONTINUOUS
 10
239.8587273626
 20
145.1778692315
 30
0.0
 11
250.6816030182
 21
145.1778692315
 31
0.0
  0
LINE
  5
54
  8
SK1
  6
CONTINUOUS
 10
239.8587273626
 20
141.3028692315
 30
0.0
 11
239.8587273626
 21
145.0528692315
 31
0.0
  0
LINE
  5
55
  8
SK1
  6
CONTINUOUS
 10
239.8587273626
 20
145.0528692315
 30
0.0
 11
251.012321932
 21
145.0528692315
 31
0.0
  0
LINE
  5
56
  8
SK1
  6
CONTINUOUS
 10
239.8587273626
 20
141.1778692315
 30
0.0
 11
239.8587273626
 21
141.3028692315
 31
0.0
  0
LINE
  5
57
  8
SK1
  6
CONTINUOUS
 10
239.8587273626
 20
141.3028692315
 30
0.0
 11
251.012321932
 21
141.3028692315
 31
0.0
  0
LINE
  5
58
  8
SK1
  6
CONTINUOUS
 10
239.8587273626
 20
141.1778692315
 30
0.0
 11
250.6816030182
 21
141.1778692315
 31
0.0
  0
LINE
  5
59
  8
SK1
  6
CONTINUOUS
 10
86.5297717971
 20
145.6778692315
 30
0.0
 11
90.6087273626
 21
145.6778692315
 31
0.0
  0
POLYLINE
  5
5A
  8
SK1
  6
CONTINUOUS
 66
     1
 10
0.0
 20
0.0
 30
0.0
  0
VERTEX
  5
278
  8
SK1
  6
CONTINUOUS
 10
83.9991282603
 20
144.6778692315
 30
0.0
  0
VERTEX
  5
279
  8
SK1
  6
CONTINUOUS
 10
84.0659303601
 20
144.7131660864
 30
0.0
  0
VERTEX
  5
27A
  8
SK1
  6
CONTINUOUS
 10
84.1325321971
 20
144.7484634676
 30
0.0
  0
VERTEX
  5
27B
  8
SK1
  6
CONTINUOUS
 10
84.1989360628
 20
144.7837232302
 30
0.0
  0
VERTEX
  5
27C
  8
SK1
  6
CONTINUOUS
 10
84.2651442488
 20
144.8189072297
 30
0.0
  0
VERTEX
  5
27D
  8
SK1
  6
CONTINUOUS
 10
84.3311590468
 20
144.8539773213
 30
0.0
  0
VERTEX
  5
27E
  8
SK1
  6
CONTINUOUS
 10
84.3969827485
 20
144.8888953602
 30
0.0
  0
VERTEX
  5
27F
  8
SK1
  6
CONTINUOUS
 10
84.4626176454
 20
144.9236232019
 30
0.0
  0
VERTEX
  5
280
  8
SK1
  6
CONTINUOUS
 10
84.5280660292
 20
144.9581227015
 30
0.0
  0
VERTEX
  5
281
  8
SK1
  6
CONTINUOUS
 10
84.5933301914
 20
144.9923557145
 30
0.0
  0
VERTEX
  5
282
  8
SK1
  6
CONTINUOUS
 10
84.6584124238
 20
145.026284096
 30
0.0
  0
VERTEX
  5
283
  8
SK1
  6
CONTINUOUS
 10
84.7233150179
 20
145.0598697013
 30
0.0
  0
VERTEX
  5
284
  8
SK1
  6
CONTINUOUS
 10
84.7880402653
 20
145.0930743858
 30
0.0
  0
VERTEX
  5
285
  8
SK1
  6
CONTINUOUS
 10
84.8525904577
 20
145.1258600048
 30
0.0
  0
VERTEX
  5
286
  8
SK1
  6
CONTINUOUS
 10
84.9169678867
 20
145.1581884135
 30
0.0
  0
VERTEX
  5
287
  8
SK1
  6
CONTINUOUS
 10
84.981174844
 20
145.1900214673
 30
0.0
  0
VERTEX
  5
288
  8
SK1
  6
CONTINUOUS
 10
85.045213621
 20
145.2213210214
 30
0.0
  0
VERTEX
  5
289
  8
SK1
  6
CONTINUOUS
 10
85.1090865096
 20
145.2520489311
 30
0.0
  0
VERTEX
  5
28A
  8
SK1
  6
CONTINUOUS
 10
85.1727958012
 20
145.2821670517
 30
0.0
  0
VERTEX
  5
28B
  8
SK1
  6
CONTINUOUS
 10
85.2363437875
 20
145.3116372386
 30
0.0
  0
VERTEX
  5
28C
  8
SK1
  6
CONTINUOUS
 10
85.2997327602
 20
145.3404213469
 30
0.0
  0
VERTEX
  5
28D
  8
SK1
  6
CONTINUOUS
 10
85.3629504995
 20
145.3685244338
 30
0.0
  0
VERTEX
  5
28E
  8
SK1
  6
CONTINUOUS
 10
85.425983695
 20
145.3959238215
 30
0.0
  0
VERTEX
  5
28F
  8
SK1
  6
CONTINUOUS
 10
85.4888330026
 20
145.4225397637
 30
0.0
  0
VERTEX
  5
290
  8
SK1
  6
CONTINUOUS
 10
85.551499078
 20
145.4482925137
 30
0.0
  0
VERTEX
  5
291
  8
SK1
  6
CONTINUOUS
 10
85.6139825769
 20
145.4731023251
 30
0.0
  0
VERTEX
  5
292
  8
SK1
  6
CONTINUOUS
 10
85.6762841551
 20
145.4968894514
 30
0.0
  0
VERTEX
  5
293
  8
SK1
  6
CONTINUOUS
 10
85.7384044683
 20
145.519574146
 30
0.0
  0
VERTEX
  5
294
  8
SK1
  6
CONTINUOUS
 10
85.8003441724
 20
145.5410766624
 30
0.0
  0
VERTEX
  5
295
  8
SK1
  6
CONTINUOUS
 10
85.862103923
 20
145.5613172542
 30
0.0
  0
VERTEX
  5
296
  8
SK1
  6
CONTINUOUS
 10
85.9236843759
 20
145.5802161748
 30
0.0
  0
VERTEX
  5
297
  8
SK1
  6
CONTINUOUS
 10
85.9850861868
 20
145.5976936776
 30
0.0
  0
VERTEX
  5
298
  8
SK1
  6
CONTINUOUS
 10
86.0463100116
 20
145.6136700162
 30
0.0
  0
VERTEX
  5
299
  8
SK1
  6
CONTINUOUS
 10
86.1073565059
 20
145.6280654441
 30
0.0
  0
VERTEX
  5
29A
  8
SK1
  6
CONTINUOUS
 10
86.1682263256
 20
145.6408002147
 30
0.0
  0
VERTEX
  5
29B
  8
SK1
  6
CONTINUOUS
 10
86.2289201263
 20
145.6517945816
 30
0.0
  0
VERTEX
  5
29C
  8
SK1
  6
CONTINUOUS
 10
86.2894385638
 20
145.6609687982
 30
0.0
  0
VERTEX
  5
29D
  8
SK1
  6
CONTINUOUS
 10
86.3497822939
 20
145.668243118
 30
0.0
  0
VERTEX
  5
29E
  8
SK1
  6
CONTINUOUS
 10
86.4099519723
 20
145.6735377945
 30
0.0
  0
VERTEX
  5
29F
  8
SK1
  6
CONTINUOUS
 10
86.4699482548
 20
145.6767730811
 30
0.0
  0
VERTEX
  5
2A0
  8
SK1
  6
CONTINUOUS
 10
86.5297717971
 20
145.6778692315
 30
0.0
  0
SEQEND
  5
990
  8
SK1
  6
CONTINUOUS
  0
LINE
  5
5B
  8
SK1
  6
CONTINUOUS
 10
86.9209996487
 20
145.1778692315
 30
0.0
 11
94.4609759434
 21
145.1778692315
 31
0.0
  0
ARC
  5
5C
  8
SK1
  6
CONTINUOUS
 10
87.6247198349
 20
132.2781770665
 30
0.0
 40
12.91887301783575
 50
93.1225760253
 51
106.2985860555
  0
POLYLINE
  5
5D
  8
SK1
  6
CONTINUOUS
 66
     1
 10
0.0
 20
0.0
 30
0.0
  0
VERTEX
  5
2A1
  8
SK1
  6
CONTINUOUS
 10
86.5297717971
 20
145.6778692315
 30
0.0
  0
VERTEX
  5
2A2
  8
SK1
  6
CONTINUOUS
 10
86.536303202
 20
145.5868877053
 30
0.0
  0
VERTEX
  5
2A3
  8
SK1
  6
CONTINUOUS
 10
86.5572405693
 20
145.4938218767
 30
0.0
  0
VERTEX
  5
2A4
  8
SK1
  6
CONTINUOUS
 10
86.5935436931
 20
145.4042643548
 30
0.0
  0
VERTEX
  5
2A5
  8
SK1
  6
CONTINUOUS
 10
86.6443597819
 20
145.3243158409
 30
0.0
  0
VERTEX
  5
2A6
  8
SK1
  6
CONTINUOUS
 10
86.7069159525
 20
145.2593714759
 30
0.0
  0
VERTEX
  5
2A7
  8
SK1
  6
CONTINUOUS
 10
86.7769907463
 20
145.2129750809
 30
0.0
  0
VERTEX
  5
2A8
  8
SK1
  6
CONTINUOUS
 10
86.8498106346
 20
145.1862165473
 30
0.0
  0
VERTEX
  5
2A9
  8
SK1
  6
CONTINUOUS
 10
86.9209996487
 20
145.1778692315
 30
0.0
  0
SEQEND
  5
98F
  8
SK1
  6
CONTINUOUS
  0
POLYLINE
  5
5E
  8
SK1
  6
CONTINUOUS
 66
     1
 10
0.0
 20
0.0
 30
0.0
  0
VERTEX
  5
2AA
  8
SK1
  6
CONTINUOUS
 10
86.5297717971
 20
140.6778692315
 30
0.0
  0
VERTEX
  5
2AB
  8
SK1
  6
CONTINUOUS
 10
86.4699482548
 20
140.6789653818
 30
0.0
  0
VERTEX
  5
2AC
  8
SK1
  6
CONTINUOUS
 10
86.4099519723
 20
140.6822006685
 30
0.0
  0
VERTEX
  5
2AD
  8
SK1
  6
CONTINUOUS
 10
86.3497822939
 20
140.687495345
 30
0.0
  0
VERTEX
  5
2AE
  8
SK1
  6
CONTINUOUS
 10
86.2894385638
 20
140.6947696648
 30
0.0
  0
VERTEX
  5
2AF
  8
SK1
  6
CONTINUOUS
 10
86.2289201263
 20
140.7039438814
 30
0.0
  0
VERTEX
  5
2B0
  8
SK1
  6
CONTINUOUS
 10
86.1682263256
 20
140.7149382482
 30
0.0
  0
VERTEX
  5
2B1
  8
SK1
  6
CONTINUOUS
 10
86.1073565059
 20
140.7276730189
 30
0.0
  0
VERTEX
  5
2B2
  8
SK1
  6
CONTINUOUS
 10
86.0463100116
 20
140.7420684467
 30
0.0
  0
VERTEX
  5
2B3
  8
SK1
  6
CONTINUOUS
 10
85.9850861868
 20
140.7580447854
 30
0.0
  0
VERTEX
  5
2B4
  8
SK1
  6
CONTINUOUS
 10
85.9236843759
 20
140.7755222882
 30
0.0
  0
VERTEX
  5
2B5
  8
SK1
  6
CONTINUOUS
 10
85.862103923
 20
140.7944212088
 30
0.0
  0
VERTEX
  5
2B6
  8
SK1
  6
CONTINUOUS
 10
85.8003441724
 20
140.8146618005
 30
0.0
  0
VERTEX
  5
2B7
  8
SK1
  6
CONTINUOUS
 10
85.7384044683
 20
140.836164317
 30
0.0
  0
VERTEX
  5
2B8
  8
SK1
  6
CONTINUOUS
 10
85.6762841551
 20
140.8588490116
 30
0.0
  0
VERTEX
  5
2B9
  8
SK1
  6
CONTINUOUS
 10
85.6139825769
 20
140.8826361378
 30
0.0
  0
VERTEX
  5
2BA
  8
SK1
  6
CONTINUOUS
 10
85.551499078
 20
140.9074459492
 30
0.0
  0
VERTEX
  5
2BB
  8
SK1
  6
CONTINUOUS
 10
85.4888330026
 20
140.9331986993
 30
0.0
  0
VERTEX
  5
2BC
  8
SK1
  6
CONTINUOUS
 10
85.425983695
 20
140.9598146414
 30
0.0
  0
VERTEX
  5
2BD
  8
SK1
  6
CONTINUOUS
 10
85.3629504995
 20
140.9872140292
 30
0.0
  0
VERTEX
  5
2BE
  8
SK1
  6
CONTINUOUS
 10
85.2997327602
 20
141.015317116
 30
0.0
  0
VERTEX
  5
2BF
  8
SK1
  6
CONTINUOUS
 10
85.2363437876
 20
141.0441012245
 30
0.0
  0
VERTEX
  5
2C0
  8
SK1
  6
CONTINUOUS
 10
85.1727958014
 20
141.0735714118
 30
0.0
  0
VERTEX
  5
2C1
  8
SK1
  6
CONTINUOUS
 10
85.1090865099
 20
141.103689533
 30
0.0
  0
VERTEX
  5
2C2
  8
SK1
  6
CONTINUOUS
 10
85.0452136216
 20
141.1344174435
 30
0.0
  0
VERTEX
  5
2C3
  8
SK1
  6
CONTINUOUS
 10
84.9811748448
 20
141.1657169985
 30
0.0
  0
VERTEX
  5
2C4
  8
SK1
  6
CONTINUOUS
 10
84.9169678879
 20
141.1975500532
 30
0.0
  0
VERTEX
  5
2C5
  8
SK1
  6
CONTINUOUS
 10
84.8525904592
 20
141.2298784629
 30
0.0
  0
VERTEX
  5
2C6
  8
SK1
  6
CONTINUOUS
 10
84.7880402671
 20
141.2626640829
 30
0.0
  0
VERTEX
  5
2C7
  8
SK1
  6
CONTINUOUS
 10
84.7233150199
 20
141.2958687683
 30
0.0
  0
VERTEX
  5
2C8
  8
SK1
  6
CONTINUOUS
 10
84.6584124261
 20
141.3294543745
 30
0.0
  0
VERTEX
  5
2C9
  8
SK1
  6
CONTINUOUS
 10
84.5933301939
 20
141.3633827566
 30
0.0
  0
VERTEX
  5
2CA
  8
SK1
  6
CONTINUOUS
 10
84.5280660318
 20
141.39761577
 30
0.0
  0
VERTEX
  5
2CB
  8
SK1
  6
CONTINUOUS
 10
84.4626176481
 20
141.4321152699
 30
0.0
  0
VERTEX
  5
2CC
  8
SK1
  6
CONTINUOUS
 10
84.3969827512
 20
141.4668431115
 30
0.0
  0
VERTEX
  5
2CD
  8
SK1
  6
CONTINUOUS
 10
84.3311590494
 20
141.5017611501
 30
0.0
  0
VERTEX
  5
2CE
  8
SK1
  6
CONTINUOUS
 10
84.2651442512
 20
141.5368312409
 30
0.0
  0
VERTEX
  5
2CF
  8
SK1
  6
CONTINUOUS
 10
84.1989360647
 20
141.5720152392
 30
0.0
  0
VERTEX
  5
2D0
  8
SK1
  6
CONTINUOUS
 10
84.1325321986
 20
141.6072750003
 30
0.0
  0
VERTEX
  5
2D1
  8
SK1
  6
CONTINUOUS
 10
84.065930361
 20
141.6425723793
 30
0.0
  0
VERTEX
  5
2D2
  8
SK1
  6
CONTINUOUS
 10
83.9991282603
 20
141.6778692315
 30
0.0
  0
SEQEND
  5
98E
  8
SK1
  6
CONTINUOUS
  0
LINE
  5
5F
  8
SK1
  6
CONTINUOUS
 10
86.5297717971
 20
140.6778692315
 30
0.0
 11
90.6087273626
 21
140.6778692315
 31
0.0
  0
ARC
  5
60
  8
SK1
  6
CONTINUOUS
 10
87.6247198349
 20
154.0775613963
 30
0.0
 40
12.91887301774325
 50
253.7014139445
 51
266.8774239748
  0
POLYLINE
  5
61
  8
SK1
  6
CONTINUOUS
 66
     1
 10
0.0
 20
0.0
 30
0.0
  0
VERTEX
  5
2D3
  8
SK1
  6
CONTINUOUS
 10
86.9209996487
 20
141.1778692315
 30
0.0
  0
VERTEX
  5
2D4
  8
SK1
  6
CONTINUOUS
 10
86.8498106347
 20
141.1695219157
 30
0.0
  0
VERTEX
  5
2D5
  8
SK1
  6
CONTINUOUS
 10
86.7769907463
 20
141.142763382
 30
0.0
  0
VERTEX
  5
2D6
  8
SK1
  6
CONTINUOUS
 10
86.7069159525
 20
141.0963669871
 30
0.0
  0
VERTEX
  5
2D7
  8
SK1
  6
CONTINUOUS
 10
86.6443597819
 20
141.0314226221
 30
0.0
  0
VERTEX
  5
2D8
  8
SK1
  6
CONTINUOUS
 10
86.5935436931
 20
140.9514741082
 30
0.0
  0
VERTEX
  5
2D9
  8
SK1
  6
CONTINUOUS
 10
86.5572405693
 20
140.8619165863
 30
0.0
  0
VERTEX
  5
2DA
  8
SK1
  6
CONTINUOUS
 10
86.536303202
 20
140.7688507577
 30
0.0
  0
VERTEX
  5
2DB
  8
SK1
  6
CONTINUOUS
 10
86.5297717971
 20
140.6778692315
 30
0.0
  0
SEQEND
  5
98D
  8
SK1
  6
CONTINUOUS
  0
LINE
  5
62
  8
SK1
  6
CONTINUOUS
 10
87.3588400617
 20
150.1778692315
 30
0.0
 11
82.4090357144
 21
150.1778692315
 31
0.0
  0
LINE
  5
63
  8
SK1
  6
CONTINUOUS
 10
87.3588400617
 20
148.1778692315
 30
0.0
 11
90.6087273626
 21
148.1778692315
 31
0.0
  0
LINE
  5
64
  8
SK1
  6
CONTINUOUS
 10
87.3588400617
 20
150.1778692315
 30
0.0
 11
90.5573728974
 21
150.1778692315
 31
0.0
  0
LINE
  5
65
  8
SK1
  6
CONTINUOUS
 10
90.5573728974
 20
148.1778692315
 30
0.0
 11
90.5573728974
 21
150.1778692315
 31
0.0
  0
LINE
  5
66
  8
SK1
  6
CONTINUOUS
 10
87.3588400617
 20
148.1778692315
 30
0.0
 11
87.3588400617
 21
150.1778692315
 31
0.0
  0
LINE
  5
67
  8
SK1
  6
CONTINUOUS
 10
70.4719486618
 20
150.1778692315
 30
0.0
 11
63.7103901796
 21
150.1778692315
 31
0.0
  0
LINE
  5
68
  8
SK1
  6
CONTINUOUS
 10
70.4719486618
 20
148.1778692315
 30
0.0
 11
82.4090357144
 21
148.1778692315
 31
0.0
  0
LINE
  5
69
  8
SK1
  6
CONTINUOUS
 10
70.4719486618
 20
150.1778692315
 30
0.0
 11
70.9356748583
 21
150.1778692315
 31
0.0
  0
LINE
  5
6A
  8
SK1
  6
CONTINUOUS
 10
70.4719486618
 20
148.1778692315
 30
0.0
 11
70.4719486618
 21
150.1778692315
 31
0.0
  0
LINE
  5
6B
  8
SK1
  6
CONTINUOUS
 10
70.9356748583
 20
148.1778692315
 30
0.0
 11
70.9356748583
 21
150.1778692315
 31
0.0
  0
LINE
  5
6C
  8
SK1
  6
CONTINUOUS
 10
60.6128689557
 20
148.1778692315
 30
0.0
 11
60.6029258956
 21
148.1778692315
 31
0.0
  0
LINE
  5
6D
  8
SK1
  6
CONTINUOUS
 10
56.3586146636
 20
150.1778692315
 30
0.0
 11
60.6128689557
 21
150.1778692315
 31
0.0
  0
LINE
  5
6E
  8
SK1
  6
CONTINUOUS
 10
56.3586146636
 20
148.1778692315
 30
0.0
 11
56.3586146636
 21
150.1778692315
 31
0.0
  0
LINE
  5
6F
  8
SK1
  6
CONTINUOUS
 10
60.6128689557
 20
148.1778692315
 30
0.0
 11
60.6128689557
 21
150.1778692315
 31
0.0
  0
LINE
  5
70
  8
SK1
  6
CONTINUOUS
 10
72.7817798669
 20
150.1778692315
 30
0.0
 11
77.8186021293
 21
150.1778692315
 31
0.0
  0
LINE
  5
71
  8
SK1
  6
CONTINUOUS
 10
72.7817798669
 20
148.1778692315
 30
0.0
 11
72.7817798669
 21
150.1778692315
 31
0.0
  0
LINE
  5
72
  8
SK1
  6
CONTINUOUS
 10
82.4090357144
 20
148.1778692315
 30
0.0
 11
82.4090357144
 21
150.1778692315
 31
0.0
  0
LINE
  5
73
  8
SK1
  6
CONTINUOUS
 10
79.4173759648
 20
150.1778692315
 30
0.0
 11
82.4090357144
 21
150.1778692315
 31
0.0
  0
LINE
  5
74
  8
SK1
  6
CONTINUOUS
 10
79.4173759648
 20
148.1778692315
 30
0.0
 11
79.4173759648
 21
150.1778692315
 31
0.0
  0
LINE
  5
75
  8
SK1
  6
CONTINUOUS
 10
62.4837273626
 20
148.1778692315
 30
0.0
 11
63.7103901796
 21
148.1778692315
 31
0.0
  0
LINE
  5
76
  8
SK1
  6
CONTINUOUS
 10
63.7103901796
 20
148.1778692315
 30
0.0
 11
63.7103901796
 21
150.1778692315
 31
0.0
  0
LINE
  5
77
  8
SK1
  6
CONTINUOUS
 10
77.8186021293
 20
150.1778692315
 30
0.0
 11
79.4173759648
 21
150.1778692315
 31
0.0
  0
LINE
  5
78
  8
SK1
  6
CONTINUOUS
 10
77.8186021293
 20
148.1778692315
 30
0.0
 11
77.8186021293
 21
150.1778692315
 31
0.0
  0
LINE
  5
79
  8
SK1
  6
CONTINUOUS
 10
87.3588400617
 20
136.1778692315
 30
0.0
 11
82.4090357144
 21
136.1778692315
 31
0.0
  0
LINE
  5
7A
  8
SK1
  6
CONTINUOUS
 10
90.6087273626
 20
138.1778692315
 30
0.0
 11
87.3588400617
 21
138.1778692315
 31
0.0
  0
LINE
  5
7B
  8
SK1
  6
CONTINUOUS
 10
90.5573728974
 20
136.1778692315
 30
0.0
 11
87.3588400617
 21
136.1778692315
 31
0.0
  0
LINE
  5
7C
  8
SK1
  6
CONTINUOUS
 10
90.5573728974
 20
138.1778692315
 30
0.0
 11
90.5573728974
 21
136.1778692315
 31
0.0
  0
LINE
  5
7D
  8
SK1
  6
CONTINUOUS
 10
87.3588400617
 20
138.1778692315
 30
0.0
 11
87.3588400617
 21
136.1778692315
 31
0.0
  0
LINE
  5
7E
  8
SK1
  6
CONTINUOUS
 10
70.4719486618
 20
136.1778692315
 30
0.0
 11
63.7103901796
 21
136.1778692315
 31
0.0
  0
LINE
  5
7F
  8
SK1
  6
CONTINUOUS
 10
82.4090357144
 20
138.1778692315
 30
0.0
 11
70.4719486618
 21
138.1778692315
 31
0.0
  0
LINE
  5
80
  8
SK1
  6
CONTINUOUS
 10
70.9356748583
 20
136.1778692315
 30
0.0
 11
70.4719486618
 21
136.1778692315
 31
0.0
  0
LINE
  5
81
  8
SK1
  6
CONTINUOUS
 10
70.4719486618
 20
138.1778692315
 30
0.0
 11
70.4719486618
 21
136.1778692315
 31
0.0
  0
LINE
  5
82
  8
SK1
  6
CONTINUOUS
 10
70.9356748583
 20
138.1778692315
 30
0.0
 11
70.9356748583
 21
136.1778692315
 31
0.0
  0
LINE
  5
83
  8
SK1
  6
CONTINUOUS
 10
55.6207510417
 20
138.1778692315
 30
0.0
 11
59.3663296744
 21
138.1778692315
 31
0.0
  0
LINE
  5
84
  8
SK1
  6
CONTINUOUS
 10
60.6128689557
 20
136.1778692315
 30
0.0
 11
56.3586146636
 21
136.1778692315
 31
0.0
  0
LINE
  5
85
  8
SK1
  6
CONTINUOUS
 10
60.6128689557
 20
138.1778692315
 30
0.0
 11
60.6128689557
 21
136.1778692315
 31
0.0
  0
LINE
  5
86
  8
SK1
  6
CONTINUOUS
 10
56.3586146636
 20
138.1778692315
 30
0.0
 11
56.3586146636
 21
136.1778692315
 31
0.0
  0
LINE
  5
87
  8
SK1
  6
CONTINUOUS
 10
72.7817798669
 20
136.1778692315
 30
0.0
 11
77.8186021293
 21
136.1778692315
 31
0.0
  0
LINE
  5
88
  8
SK1
  6
CONTINUOUS
 10
72.7817798669
 20
138.1778692315
 30
0.0
 11
72.7817798669
 21
136.1778692315
 31
0.0
  0
LINE
  5
89
  8
SK1
  6
CONTINUOUS
 10
79.4173759648
 20
138.1778692315
 30
0.0
 11
79.4173759648
 21
136.1778692315
 31
0.0
  0
LINE
  5
8A
  8
SK1
  6
CONTINUOUS
 10
82.4090357144
 20
136.1778692315
 30
0.0
 11
79.4173759648
 21
136.1778692315
 31
0.0
  0
LINE
  5
8B
  8
SK1
  6
CONTINUOUS
 10
82.4090357144
 20
138.1778692315
 30
0.0
 11
82.4090357144
 21
136.1778692315
 31
0.0
  0
LINE
  5
8C
  8
SK1
  6
CONTINUOUS
 10
63.7103901796
 20
138.1778692315
 30
0.0
 11
62.4837273626
 21
138.1778692315
 31
0.0
  0
LINE
  5
8D
  8
SK1
  6
CONTINUOUS
 10
63.7103901796
 20
138.1778692315
 30
0.0
 11
63.7103901796
 21
136.1778692315
 31
0.0
  0
LINE
  5
8E
  8
SK1
  6
CONTINUOUS
 10
77.8186021293
 20
138.1778692315
 30
0.0
 11
77.8186021293
 21
136.1778692315
 31
0.0
  0
LINE
  5
8F
  8
SK1
  6
CONTINUOUS
 10
79.4173759648
 20
136.1778692315
 30
0.0
 11
77.8186021293
 21
136.1778692315
 31
0.0
  0
LINE
  5
90
  8
SK1
  6
CONTINUOUS
 10
59.3663296744
 20
148.1778692315
 30
0.0
 11
55.6207510417
 21
148.1778692315
 31
0.0
  0
LINE
  5
91
  8
SK1
  6
CONTINUOUS
 10
59.3663296744
 20
148.1778692315
 30
0.0
 11
60.6029258956
 21
148.1778692315
 31
0.0
  0
LINE
  5
92
  8
SK1
  6
CONTINUOUS
 10
60.6029258956
 20
148.1778692315
 30
0.0
 11
60.6029258956
 21
138.1778692315
 31
0.0
  0
LINE
  5
93
  8
SK1
  6
CONTINUOUS
 10
59.3663296744
 20
138.1778692315
 30
0.0
 11
59.3663296744
 21
148.1778692315
 31
0.0
  0
LINE
  5
94
  8
SK1
  6
CONTINUOUS
 10
60.6029258956
 20
138.1778692315
 30
0.0
 11
60.6128689557
 21
138.1778692315
 31
0.0
  0
LINE
  5
95
  8
SK1
  6
CONTINUOUS
 10
59.3663296744
 20
138.1778692315
 30
0.0
 11
60.6029258956
 21
138.1778692315
 31
0.0
  0
LINE
  5
96
  8
SK1
  6
CONTINUOUS
 10
90.6087273626
 20
145.6778692315
 30
0.0
 11
90.6087273626
 21
148.1778692315
 31
0.0
  0
LINE
  5
97
  8
SK1
  6
CONTINUOUS
 10
90.6087273626
 20
138.1778692315
 30
0.0
 11
90.6087273626
 21
140.6778692315
 31
0.0
  0
ARC
  5
98
  8
SK1
  6
CONTINUOUS
 10
250.6816030182
 20
144.6778692315
 30
0.0
 40
0.5000000000000782
 50
48.5903778907
 51
90.0
  0
ARC
  5
99
  8
SK1
  6
CONTINUOUS
 10
249.3587273626
 20
143.1778692315
 30
0.0
 40
2.500000000000115
 50
0.0031326753
 51
48.5903778907
  0
ARC
  5
9A
  8
SK1
  6
CONTINUOUS
 10
249.3587273626
 20
143.1778692315
 30
0.0
 40
2.500000000000105
 50
311.4096221093
 51
0.0031326753
  0
ARC
  5
9B
  8
SK1
  6
CONTINUOUS
 10
250.6816030182
 20
141.6778692315
 30
0.0
 40
0.5000000000000009
 50
270.0
 51
311.4096221093
  0
ARC
  5
9C
  8
SK1
  6
CONTINUOUS
 10
91.1087273626
 20
145.6778692315
 30
0.0
 40
0.4999999999999996
 50
180.0
 51
270.0
  0
ARC
  5
9D
  8
SK1
  6
CONTINUOUS
 10
91.1087273626
 20
140.6778692315
 30
0.0
 40
0.5000000000000004
 50
90.0
 51
180.0
  0
ENDBLK
  5
9F
  8
0
  0
BLOCK
  8
0
  2
SE1
 70
     0
 10
0.0
 20
0.0
 30
0.0
  3
SE1
  1

  0
ARC
  5
A2
  8
SK1
  6
CONTINUOUS
 10
71.8587273626
 20
81.7205241483
 30
0.0
 40
18.75
 50
124.2415566703
 51
145.7584433297
  0
ARC
  5
A3
  8
SK1
  6
CONTINUOUS
 10
71.8587273626
 20
81.7205241483
 30
0.0
 40
13.54999999999999
 50
123.9061256833
 51
146.0938743167
  0
POLYLINE
  5
A4
  8
SK1
  6
CONTINUOUS
 66
     1
 10
0.0
 20
0.0
 30
0.0
  0
VERTEX
  5
2DC
  8
SK1
  6
CONTINUOUS
 10
94.4609759433
 20
92.5433998039
 30
0.0
  0
VERTEX
  5
2DD
  8
SK1
  6
CONTINUOUS
 10
94.3230677664
 20
92.5438004638
 30
0.0
  0
VERTEX
  5
2DE
  8
SK1
  6
CONTINUOUS
 10
94.1852858092
 20
92.5449891495
 30
0.0
  0
VERTEX
  5
2DF
  8
SK1
  6
CONTINUOUS
 10
94.0476268776
 20
92.5469459198
 30
0.0
  0
VERTEX
  5
2E0
  8
SK1
  6
CONTINUOUS
 10
93.9100877776
 20
92.5496508336
 30
0.0
  0
VERTEX
  5
2E1
  8
SK1
  6
CONTINUOUS
 10
93.7726653152
 20
92.5530839495
 30
0.0
  0
VERTEX
  5
2E2
  8
SK1
  6
CONTINUOUS
 10
93.6353562964
 20
92.5572253264
 30
0.0
  0
VERTEX
  5
2E3
  8
SK1
  6
CONTINUOUS
 10
93.4981575272
 20
92.5620550232
 30
0.0
  0
VERTEX
  5
2E4
  8
SK1
  6
CONTINUOUS
 10
93.3610658135
 20
92.5675530986
 30
0.0
  0
VERTEX
  5
2E5
  8
SK1
  6
CONTINUOUS
 10
93.2240779613
 20
92.5736996114
 30
0.0
  0
VERTEX
  5
2E6
  8
SK1
  6
CONTINUOUS
 10
93.0871907767
 20
92.5804746206
 30
0.0
  0
VERTEX
  5
2E7
  8
SK1
  6
CONTINUOUS
 10
92.9504010655
 20
92.5878581848
 30
0.0
  0
VERTEX
  5
2E8
  8
SK1
  6
CONTINUOUS
 10
92.8137056338
 20
92.5958303629
 30
0.0
  0
VERTEX
  5
2E9
  8
SK1
  6
CONTINUOUS
 10
92.6771012875
 20
92.6043712137
 30
0.0
  0
VERTEX
  5
2EA
  8
SK1
  6
CONTINUOUS
 10
92.5405848326
 20
92.613460796
 30
0.0
  0
VERTEX
  5
2EB
  8
SK1
  6
CONTINUOUS
 10
92.4041551841
 20
92.6230923353
 30
0.0
  0
VERTEX
  5
2EC
  8
SK1
  6
CONTINUOUS
 10
92.2678146308
 20
92.6332801218
 30
0.0
  0
VERTEX
  5
2ED
  8
SK1
  6
CONTINUOUS
 10
92.1315650396
 20
92.6440358109
 30
0.0
  0
VERTEX
  5
2EE
  8
SK1
  6
CONTINUOUS
 10
91.9954082774
 20
92.6553710582
 30
0.0
  0
VERTEX
  5
2EF
  8
SK1
  6
CONTINUOUS
 10
91.8593462111
 20
92.6672975194
 30
0.0
  0
VERTEX
  5
2F0
  8
SK1
  6
CONTINUOUS
 10
91.7233807075
 20
92.6798268498
 30
0.0
  0
VERTEX
  5
2F1
  8
SK1
  6
CONTINUOUS
 10
91.5875136337
 20
92.6929707052
 30
0.0
  0
VERTEX
  5
2F2
  8
SK1
  6
CONTINUOUS
 10
91.4517468564
 20
92.706740741
 30
0.0
  0
VERTEX
  5
2F3
  8
SK1
  6
CONTINUOUS
 10
91.3160822426
 20
92.7211486129
 30
0.0
  0
VERTEX
  5
2F4
  8
SK1
  6
CONTINUOUS
 10
91.1805216592
 20
92.7362059763
 30
0.0
  0
VERTEX
  5
2F5
  8
SK1
  6
CONTINUOUS
 10
91.045066973
 20
92.751924487
 30
0.0
  0
VERTEX
  5
2F6
  8
SK1
  6
CONTINUOUS
 10
90.909720051
 20
92.7683158003
 30
0.0
  0
VERTEX
  5
2F7
  8
SK1
  6
CONTINUOUS
 10
90.77448276
 20
92.7853915719
 30
0.0
  0
VERTEX
  5
2F8
  8
SK1
  6
CONTINUOUS
 10
90.639356967
 20
92.8031634573
 30
0.0
  0
VERTEX
  5
2F9
  8
SK1
  6
CONTINUOUS
 10
90.5043461661
 20
92.8216532722
 30
0.0
  0
VERTEX
  5
2FA
  8
SK1
  6
CONTINUOUS
 10
90.3694559381
 20
92.840895858
 30
0.0
  0
VERTEX
  5
2FB
  8
SK1
  6
CONTINUOUS
 10
90.2346912795
 20
92.8609224096
 30
0.0
  0
VERTEX
  5
2FC
  8
SK1
  6
CONTINUOUS
 10
90.1000571867
 20
92.8817641215
 30
0.0
  0
VERTEX
  5
2FD
  8
SK1
  6
CONTINUOUS
 10
89.9655586563
 20
92.9034521885
 30
0.0
  0
VERTEX
  5
2FE
  8
SK1
  6
CONTINUOUS
 10
89.8312006848
 20
92.9260178052
 30
0.0
  0
VERTEX
  5
2FF
  8
SK1
  6
CONTINUOUS
 10
89.6969882686
 20
92.9494921661
 30
0.0
  0
VERTEX
  5
300
  8
SK1
  6
CONTINUOUS
 10
89.5629264044
 20
92.9739064662
 30
0.0
  0
VERTEX
  5
301
  8
SK1
  6
CONTINUOUS
 10
89.4290200886
 20
92.9992918999
 30
0.0
  0
VERTEX
  5
302
  8
SK1
  6
CONTINUOUS
 10
89.2952743177
 20
93.0256796619
 30
0.0
  0
VERTEX
  5
303
  8
SK1
  6
CONTINUOUS
 10
89.1616940883
 20
93.0531009469
 30
0.0
  0
VERTEX
  5
304
  8
SK1
  6
CONTINUOUS
 10
89.0282843968
 20
93.0815869497
 30
0.0
  0
VERTEX
  5
305
  8
SK1
  6
CONTINUOUS
 10
88.8950502398
 20
93.1111688647
 30
0.0
  0
VERTEX
  5
306
  8
SK1
  6
CONTINUOUS
 10
88.7619966138
 20
93.1418778868
 30
0.0
  0
VERTEX
  5
307
  8
SK1
  6
CONTINUOUS
 10
88.6291285153
 20
93.1737452105
 30
0.0
  0
VERTEX
  5
308
  8
SK1
  6
CONTINUOUS
 10
88.4964509407
 20
93.2068020305
 30
0.0
  0
VERTEX
  5
309
  8
SK1
  6
CONTINUOUS
 10
88.3639688867
 20
93.2410795415
 30
0.0
  0
VERTEX
  5
30A
  8
SK1
  6
CONTINUOUS
 10
88.2316873497
 20
93.2766089382
 30
0.0
  0
VERTEX
  5
30B
  8
SK1
  6
CONTINUOUS
 10
88.0996113263
 20
93.3134214152
 30
0.0
  0
VERTEX
  5
30C
  8
SK1
  6
CONTINUOUS
 10
87.9677458129
 20
93.3515481672
 30
0.0
  0
VERTEX
  5
30D
  8
SK1
  6
CONTINUOUS
 10
87.836095806
 20
93.3910203888
 30
0.0
  0
VERTEX
  5
30E
  8
SK1
  6
CONTINUOUS
 10
87.7046663022
 20
93.4318692748
 30
0.0
  0
VERTEX
  5
30F
  8
SK1
  6
CONTINUOUS
 10
87.573462298
 20
93.4741260197
 30
0.0
  0
VERTEX
  5
310
  8
SK1
  6
CONTINUOUS
 10
87.4424887899
 20
93.5178218182
 30
0.0
  0
VERTEX
  5
311
  8
SK1
  6
CONTINUOUS
 10
87.3117507745
 20
93.562987865
 30
0.0
  0
VERTEX
  5
312
  8
SK1
  6
CONTINUOUS
 10
87.1812532481
 20
93.6096553549
 30
0.0
  0
VERTEX
  5
313
  8
SK1
  6
CONTINUOUS
 10
87.0510012073
 20
93.6578554823
 30
0.0
  0
VERTEX
  5
314
  8
SK1
  6
CONTINUOUS
 10
86.9209996487
 20
93.707619442
 30
0.0
  0
SEQEND
  5
98C
  8
SK1
  6
CONTINUOUS
  0
LINE
  5
A5
  8
SK1
  6
CONTINUOUS
 10
94.4609759433
 20
92.8741187178
 30
0.0
 11
239.8587273626
 21
92.8741187178
 31
0.0
  0
POLYLINE
  5
A6
  8
SK1
  6
CONTINUOUS
 66
     1
 10
0.0
 20
0.0
 30
0.0
  0
VERTEX
  5
315
  8
SK1
  6
CONTINUOUS
 10
83.9991282603
 20
96.0094417435
 30
0.0
  0
VERTEX
  5
316
  8
SK1
  6
CONTINUOUS
 10
84.0736690048
 20
95.946741193
 30
0.0
  0
VERTEX
  5
317
  8
SK1
  6
CONTINUOUS
 10
84.1487576886
 20
95.8848328879
 30
0.0
  0
VERTEX
  5
318
  8
SK1
  6
CONTINUOUS
 10
84.2243868363
 20
95.823713679
 30
0.0
  0
VERTEX
  5
319
  8
SK1
  6
CONTINUOUS
 10
84.300548972
 20
95.7633804171
 30
0.0
  0
VERTEX
  5
31A
  8
SK1
  6
CONTINUOUS
 10
84.3772366201
 20
95.7038299528
 30
0.0
  0
VERTEX
  5
31B
  8
SK1
  6
CONTINUOUS
 10
84.4544423049
 20
95.6450591368
 30
0.0
  0
VERTEX
  5
31C
  8
SK1
  6
CONTINUOUS
 10
84.5321585507
 20
95.58706482
 30
0.0
  0
VERTEX
  5
31D
  8
SK1
  6
CONTINUOUS
 10
84.6103778818
 20
95.5298438529
 30
0.0
  0
VERTEX
  5
31E
  8
SK1
  6
CONTINUOUS
 10
84.6890928226
 20
95.4733930864
 30
0.0
  0
VERTEX
  5
31F
  8
SK1
  6
CONTINUOUS
 10
84.7682958973
 20
95.4177093711
 30
0.0
  0
VERTEX
  5
320
  8
SK1
  6
CONTINUOUS
 10
84.8479796303
 20
95.3627895577
 30
0.0
  0
VERTEX
  5
321
  8
SK1
  6
CONTINUOUS
 10
84.9281365458
 20
95.3086304971
 30
0.0
  0
VERTEX
  5
322
  8
SK1
  6
CONTINUOUS
 10
85.0087591682
 20
95.2552290398
 30
0.0
  0
VERTEX
  5
323
  8
SK1
  6
CONTINUOUS
 10
85.0898400219
 20
95.2025820366
 30
0.0
  0
VERTEX
  5
324
  8
SK1
  6
CONTINUOUS
 10
85.171371631
 20
95.1506863382
 30
0.0
  0
VERTEX
  5
325
  8
SK1
  6
CONTINUOUS
 10
85.2533465199
 20
95.0995387954
 30
0.0
  0
VERTEX
  5
326
  8
SK1
  6
CONTINUOUS
 10
85.335757213
 20
95.0491362588
 30
0.0
  0
VERTEX
  5
327
  8
SK1
  6
CONTINUOUS
 10
85.4185962345
 20
94.9994755792
 30
0.0
  0
VERTEX
  5
328
  8
SK1
  6
CONTINUOUS
 10
85.5018561087
 20
94.9505536073
 30
0.0
  0
VERTEX
  5
329
  8
SK1
  6
CONTINUOUS
 10
85.58552936
 20
94.9023671939
 30
0.0
  0
VERTEX
  5
32A
  8
SK1
  6
CONTINUOUS
 10
85.6696085127
 20
94.8549131895
 30
0.0
  0
VERTEX
  5
32B
  8
SK1
  6
CONTINUOUS
 10
85.7540860911
 20
94.808188445
 30
0.0
  0
VERTEX
  5
32C
  8
SK1
  6
CONTINUOUS
 10
85.8389546195
 20
94.762189811
 30
0.0
  0
VERTEX
  5
32D
  8
SK1
  6
CONTINUOUS
 10
85.9242066222
 20
94.7169141384
 30
0.0
  0
SEQEND
  5
98B
  8
SK1
  6
CONTINUOUS
  0
POLYLINE
  5
A7
  8
SK1
  6
CONTINUOUS
 66
     1
 10
0.0
 20
0.0
 30
0.0
  0
VERTEX
  5
32E
  8
SK1
  6
CONTINUOUS
 10
85.9242066222
 20
94.7169141384
 30
0.0
  0
VERTEX
  5
32F
  8
SK1
  6
CONTINUOUS
 10
86.0640046828
 20
94.6446385998
 30
0.0
  0
VERTEX
  5
330
  8
SK1
  6
CONTINUOUS
 10
86.2047698295
 20
94.574262828
 30
0.0
  0
VERTEX
  5
331
  8
SK1
  6
CONTINUOUS
 10
86.346469663
 20
94.5057731741
 30
0.0
  0
VERTEX
  5
332
  8
SK1
  6
CONTINUOUS
 10
86.4890717839
 20
94.4391559893
 30
0.0
  0
VERTEX
  5
333
  8
SK1
  6
CONTINUOUS
 10
86.6325437929
 20
94.3743976246
 30
0.0
  0
VERTEX
  5
334
  8
SK1
  6
CONTINUOUS
 10
86.7768532905
 20
94.3114844312
 30
0.0
  0
VERTEX
  5
335
  8
SK1
  6
CONTINUOUS
 10
86.9219678774
 20
94.2504027603
 30
0.0
  0
VERTEX
  5
336
  8
SK1
  6
CONTINUOUS
 10
87.0678551542
 20
94.1911389629
 30
0.0
  0
VERTEX
  5
337
  8
SK1
  6
CONTINUOUS
 10
87.2144827216
 20
94.1336793901
 30
0.0
  0
VERTEX
  5
338
  8
SK1
  6
CONTINUOUS
 10
87.3618181802
 20
94.0780103931
 30
0.0
  0
VERTEX
  5
339
  8
SK1
  6
CONTINUOUS
 10
87.5098291306
 20
94.024118323
 30
0.0
  0
VERTEX
  5
33A
  8
SK1
  6
CONTINUOUS
 10
87.6584831735
 20
93.971989531
 30
0.0
  0
VERTEX
  5
33B
  8
SK1
  6
CONTINUOUS
 10
87.8077479094
 20
93.921610368
 30
0.0
  0
VERTEX
  5
33C
  8
SK1
  6
CONTINUOUS
 10
87.9575909391
 20
93.8729671853
 30
0.0
  0
VERTEX
  5
33D
  8
SK1
  6
CONTINUOUS
 10
88.1079798631
 20
93.8260463341
 30
0.0
  0
VERTEX
  5
33E
  8
SK1
  6
CONTINUOUS
 10
88.258882282
 20
93.7808341653
 30
0.0
  0
VERTEX
  5
33F
  8
SK1
  6
CONTINUOUS
 10
88.4102657966
 20
93.7373170301
 30
0.0
  0
VERTEX
  5
340
  8
SK1
  6
CONTINUOUS
 10
88.5620980074
 20
93.6954812797
 30
0.0
  0
VERTEX
  5
341
  8
SK1
  6
CONTINUOUS
 10
88.7143465151
 20
93.6553132651
 30
0.0
  0
VERTEX
  5
342
  8
SK1
  6
CONTINUOUS
 10
88.8669789203
 20
93.6167993376
 30
0.0
  0
VERTEX
  5
343
  8
SK1
  6
CONTINUOUS
 10
89.0199540944
 20
93.5799076924
 30
0.0
  0
VERTEX
  5
344
  8
SK1
  6
CONTINUOUS
 10
89.1731494781
 20
93.5444107207
 30
0.0
  0
VERTEX
  5
345
  8
SK1
  6
CONTINUOUS
 10
89.3265297812
 20
93.5102088614
 30
0.0
  0
VERTEX
  5
346
  8
SK1
  6
CONTINUOUS
 10
89.4800890744
 20
93.4772577701
 30
0.0
  0
VERTEX
  5
347
  8
SK1
  6
CONTINUOUS
 10
89.6338214288
 20
93.4455131021
 30
0.0
  0
VERTEX
  5
348
  8
SK1
  6
CONTINUOUS
 10
89.7877209153
 20
93.4149305129
 30
0.0
  0
VERTEX
  5
349
  8
SK1
  6
CONTINUOUS
 10
89.9417816048
 20
93.3854656579
 30
0.0
  0
VERTEX
  5
34A
  8
SK1
  6
CONTINUOUS
 10
90.0959975684
 20
93.3570741926
 30
0.0
  0
VERTEX
  5
34B
  8
SK1
  6
CONTINUOUS
 10
90.2503628769
 20
93.3297117724
 30
0.0
  0
VERTEX
  5
34C
  8
SK1
  6
CONTINUOUS
 10
90.4048716014
 20
93.3033340528
 30
0.0
  0
VERTEX
  5
34D
  8
SK1
  6
CONTINUOUS
 10
90.5595178127
 20
93.2778966892
 30
0.0
  0
VERTEX
  5
34E
  8
SK1
  6
CONTINUOUS
 10
90.7142955818
 20
93.253355337
 30
0.0
  0
VERTEX
  5
34F
  8
SK1
  6
CONTINUOUS
 10
90.8691989797
 20
93.2296656517
 30
0.0
  0
VERTEX
  5
350
  8
SK1
  6
CONTINUOUS
 10
91.0242220772
 20
93.2067832888
 30
0.0
  0
VERTEX
  5
351
  8
SK1
  6
CONTINUOUS
 10
91.1793589455
 20
93.1846639036
 30
0.0
  0
VERTEX
  5
352
  8
SK1
  6
CONTINUOUS
 10
91.3346036553
 20
93.1632631516
 30
0.0
  0
VERTEX
  5
353
  8
SK1
  6
CONTINUOUS
 10
91.4899502777
 20
93.1425366883
 30
0.0
  0
VERTEX
  5
354
  8
SK1
  6
CONTINUOUS
 10
91.6453928836
 20
93.1224401691
 30
0.0
  0
VERTEX
  5
355
  8
SK1
  6
CONTINUOUS
 10
91.8009250162
 20
93.1029259004
 30
0.0
  0
VERTEX
  5
356
  8
SK1
  6
CONTINUOUS
 10
91.9565435278
 20
93.083970225
 30
0.0
  0
VERTEX
  5
357
  8
SK1
  6
CONTINUOUS
 10
92.1122516051
 20
93.0655929963
 30
0.0
  0
VERTEX
  5
358
  8
SK1
  6
CONTINUOUS
 10
92.2680527117
 20
93.0478159356
 30
0.0
  0
VERTEX
  5
359
  8
SK1
  6
CONTINUOUS
 10
92.4239503112
 20
93.0306607644
 30
0.0
  0
VERTEX
  5
35A
  8
SK1
  6
CONTINUOUS
 10
92.5799478675
 20
93.014149204
 30
0.0
  0
VERTEX
  5
35B
  8
SK1
  6
CONTINUOUS
 10
92.7360488441
 20
92.9983029758
 30
0.0
  0
VERTEX
  5
35C
  8
SK1
  6
CONTINUOUS
 10
92.8922567047
 20
92.9831438013
 30
0.0
  0
VERTEX
  5
35D
  8
SK1
  6
CONTINUOUS
 10
93.0485749131
 20
92.9686934019
 30
0.0
  0
VERTEX
  5
35E
  8
SK1
  6
CONTINUOUS
 10
93.2050069328
 20
92.954973499
 30
0.0
  0
VERTEX
  5
35F
  8
SK1
  6
CONTINUOUS
 10
93.3615562277
 20
92.9420058139
 30
0.0
  0
VERTEX
  5
360
  8
SK1
  6
CONTINUOUS
 10
93.5182262613
 20
92.9298120682
 30
0.0
  0
VERTEX
  5
361
  8
SK1
  6
CONTINUOUS
 10
93.6750204974
 20
92.9184139831
 30
0.0
  0
VERTEX
  5
362
  8
SK1
  6
CONTINUOUS
 10
93.8319423996
 20
92.9078332802
 30
0.0
  0
VERTEX
  5
363
  8
SK1
  6
CONTINUOUS
 10
93.9889954316
 20
92.8980916808
 30
0.0
  0
VERTEX
  5
364
  8
SK1
  6
CONTINUOUS
 10
94.1461830571
 20
92.8892109063
 30
0.0
  0
VERTEX
  5
365
  8
SK1
  6
CONTINUOUS
 10
94.3035087398
 20
92.8812126781
 30
0.0
  0
VERTEX
  5
366
  8
SK1
  6
CONTINUOUS
 10
94.4609759433
 20
92.8741187178
 30
0.0
  0
SEQEND
  5
98A
  8
SK1
  6
CONTINUOUS
  0
LINE
  5
A8
  8
SK1
  6
CONTINUOUS
 10
94.4609759433
 20
92.8741187178
 30
0.0
 11
94.4609759433
 21
92.5433998039
 31
0.0
  0
ARC
  5
A9
  8
SK1
  6
CONTINUOUS
 10
81.9047426216
 20
42.466899029
 30
0.0
 40
51.94753884435747
 50
76.0125192068
 51
80.6245419689
  0
LINE
  5
AA
  8
SK1
  6
CONTINUOUS
 10
94.4609759434
 20
70.8976484928
 30
0.0
 11
239.8587273626
 21
70.8976484928
 31
0.0
  0
ARC
  5
AB
  8
SK1
  6
CONTINUOUS
 10
81.9047426216
 20
120.9741492677
 30
0.0
 40
51.94753884430791
 50
279.3765412698
 51
283.9874807932
  0
ARC
  5
AC
  8
SK1
  6
CONTINUOUS
 10
81.9047426216
 20
120.9741492677
 30
0.0
 40
51.94753884430791
 50
279.3754580311
 51
279.3765412698
  0
POLYLINE
  5
AD
  8
SK1
  6
CONTINUOUS
 66
     1
 10
0.0
 20
0.0
 30
0.0
  0
VERTEX
  5
367
  8
SK1
  6
CONTINUOUS
 10
94.4609759434
 20
70.5669295789
 30
0.0
  0
VERTEX
  5
368
  8
SK1
  6
CONTINUOUS
 10
94.3384670692
 20
70.5614890303
 30
0.0
  0
VERTEX
  5
369
  8
SK1
  6
CONTINUOUS
 10
94.2159967074
 20
70.5554944727
 30
0.0
  0
VERTEX
  5
36A
  8
SK1
  6
CONTINUOUS
 10
94.0935659058
 20
70.5489561723
 30
0.0
  0
VERTEX
  5
36B
  8
SK1
  6
CONTINUOUS
 10
93.9711757119
 20
70.5418843949
 30
0.0
  0
VERTEX
  5
36C
  8
SK1
  6
CONTINUOUS
 10
93.8488271736
 20
70.5342894064
 30
0.0
  0
VERTEX
  5
36D
  8
SK1
  6
CONTINUOUS
 10
93.7265213384
 20
70.5261814729
 30
0.0
  0
VERTEX
  5
36E
  8
SK1
  6
CONTINUOUS
 10
93.6042592542
 20
70.5175708602
 30
0.0
  0
VERTEX
  5
36F
  8
SK1
  6
CONTINUOUS
 10
93.4820419685
 20
70.5084678344
 30
0.0
  0
VERTEX
  5
370
  8
SK1
  6
CONTINUOUS
 10
93.3598705291
 20
70.4988826614
 30
0.0
  0
VERTEX
  5
371
  8
SK1
  6
CONTINUOUS
 10
93.2377459837
 20
70.4888256071
 30
0.0
  0
VERTEX
  5
372
  8
SK1
  6
CONTINUOUS
 10
93.1156693799
 20
70.4783069374
 30
0.0
  0
VERTEX
  5
373
  8
SK1
  6
CONTINUOUS
 10
92.9936417654
 20
70.4673369184
 30
0.0
  0
VERTEX
  5
374
  8
SK1
  6
CONTINUOUS
 10
92.871664188
 20
70.455925816
 30
0.0
  0
VERTEX
  5
375
  8
SK1
  6
CONTINUOUS
 10
92.7497376954
 20
70.4440838961
 30
0.0
  0
VERTEX
  5
376
  8
SK1
  6
CONTINUOUS
 10
92.6278633352
 20
70.4318214247
 30
0.0
  0
VERTEX
  5
377
  8
SK1
  6
CONTINUOUS
 10
92.5060421551
 20
70.4191486678
 30
0.0
  0
VERTEX
  5
378
  8
SK1
  6
CONTINUOUS
 10
92.3842752028
 20
70.4060758912
 30
0.0
  0
VERTEX
  5
379
  8
SK1
  6
CONTINUOUS
 10
92.262563526
 20
70.392613361
 30
0.0
  0
VERTEX
  5
37A
  8
SK1
  6
CONTINUOUS
 10
92.1409081724
 20
70.378771343
 30
0.0
  0
VERTEX
  5
37B
  8
SK1
  6
CONTINUOUS
 10
92.0193101897
 20
70.3645601033
 30
0.0
  0
VERTEX
  5
37C
  8
SK1
  6
CONTINUOUS
 10
91.8977706256
 20
70.3499899078
 30
0.0
  0
VERTEX
  5
37D
  8
SK1
  6
CONTINUOUS
 10
91.7762905278
 20
70.3350710224
 30
0.0
  0
VERTEX
  5
37E
  8
SK1
  6
CONTINUOUS
 10
91.654868648
 20
70.3198124321
 30
0.0
  0
VERTEX
  5
37F
  8
SK1
  6
CONTINUOUS
 10
91.5334674288
 20
70.3041934006
 30
0.0
  0
VERTEX
  5
380
  8
SK1
  6
CONTINUOUS
 10
91.4120806705
 20
70.2881885184
 30
0.0
  0
VERTEX
  5
381
  8
SK1
  6
CONTINUOUS
 10
91.2907180197
 20
70.271778231
 30
0.0
  0
VERTEX
  5
382
  8
SK1
  6
CONTINUOUS
 10
91.1693891229
 20
70.2549429838
 30
0.0
  0
VERTEX
  5
383
  8
SK1
  6
CONTINUOUS
 10
91.0481036265
 20
70.2376632225
 30
0.0
  0
VERTEX
  5
384
  8
SK1
  6
CONTINUOUS
 10
90.9268711772
 20
70.2199193924
 30
0.0
  0
VERTEX
  5
385
  8
SK1
  6
CONTINUOUS
 10
90.8057014215
 20
70.2016919391
 30
0.0
  0
VERTEX
  5
386
  8
SK1
  6
CONTINUOUS
 10
90.6846040058
 20
70.1829613082
 30
0.0
  0
VERTEX
  5
387
  8
SK1
  6
CONTINUOUS
 10
90.5635885767
 20
70.1637079451
 30
0.0
  0
VERTEX
  5
388
  8
SK1
  6
CONTINUOUS
 10
90.4426647807
 20
70.1439122953
 30
0.0
  0
VERTEX
  5
389
  8
SK1
  6
CONTINUOUS
 10
90.3218422644
 20
70.1235548044
 30
0.0
  0
VERTEX
  5
38A
  8
SK1
  6
CONTINUOUS
 10
90.2011306742
 20
70.1026159179
 30
0.0
  0
VERTEX
  5
38B
  8
SK1
  6
CONTINUOUS
 10
90.0805396567
 20
70.0810760812
 30
0.0
  0
VERTEX
  5
38C
  8
SK1
  6
CONTINUOUS
 10
89.9600788584
 20
70.05891574
 30
0.0
  0
VERTEX
  5
38D
  8
SK1
  6
CONTINUOUS
 10
89.8397579259
 20
70.0361153396
 30
0.0
  0
VERTEX
  5
38E
  8
SK1
  6
CONTINUOUS
 10
89.7195865056
 20
70.0126553256
 30
0.0
  0
VERTEX
  5
38F
  8
SK1
  6
CONTINUOUS
 10
89.599574244
 20
69.9885161436
 30
0.0
  0
VERTEX
  5
390
  8
SK1
  6
CONTINUOUS
 10
89.4797307878
 20
69.963678239
 30
0.0
  0
VERTEX
  5
391
  8
SK1
  6
CONTINUOUS
 10
89.3600657834
 20
69.9381220573
 30
0.0
  0
VERTEX
  5
392
  8
SK1
  6
CONTINUOUS
 10
89.2405888773
 20
69.9118280441
 30
0.0
  0
VERTEX
  5
393
  8
SK1
  6
CONTINUOUS
 10
89.121309716
 20
69.8847766449
 30
0.0
  0
VERTEX
  5
394
  8
SK1
  6
CONTINUOUS
 10
89.0022379462
 20
69.8569483051
 30
0.0
  0
VERTEX
  5
395
  8
SK1
  6
CONTINUOUS
 10
88.8833954034
 20
69.8283165101
 30
0.0
  0
VERTEX
  5
396
  8
SK1
  6
CONTINUOUS
 10
88.7648483017
 20
69.7988292194
 30
0.0
  0
VERTEX
  5
397
  8
SK1
  6
CONTINUOUS
 10
88.6466108078
 20
69.7684638579
 30
0.0
  0
VERTEX
  5
398
  8
SK1
  6
CONTINUOUS
 10
88.5286895279
 20
69.7372021529
 30
0.0
  0
VERTEX
  5
399
  8
SK1
  6
CONTINUOUS
 10
88.4110910685
 20
69.7050258315
 30
0.0
  0
VERTEX
  5
39A
  8
SK1
  6
CONTINUOUS
 10
88.2938220359
 20
69.671916621
 30
0.0
  0
VERTEX
  5
39B
  8
SK1
  6
CONTINUOUS
 10
88.1768890365
 20
69.6378562488
 30
0.0
  0
VERTEX
  5
39C
  8
SK1
  6
CONTINUOUS
 10
88.0602986766
 20
69.6028264421
 30
0.0
  0
VERTEX
  5
39D
  8
SK1
  6
CONTINUOUS
 10
87.9440575626
 20
69.5668089282
 30
0.0
  0
VERTEX
  5
39E
  8
SK1
  6
CONTINUOUS
 10
87.8281723007
 20
69.5297854343
 30
0.0
  0
VERTEX
  5
39F
  8
SK1
  6
CONTINUOUS
 10
87.7126494974
 20
69.4917376876
 30
0.0
  0
VERTEX
  5
3A0
  8
SK1
  6
CONTINUOUS
 10
87.5974957591
 20
69.4526474156
 30
0.0
  0
VERTEX
  5
3A1
  8
SK1
  6
CONTINUOUS
 10
87.482717692
 20
69.4124963454
 30
0.0
  0
VERTEX
  5
3A2
  8
SK1
  6
CONTINUOUS
 10
87.3683219025
 20
69.3712662042
 30
0.0
  0
VERTEX
  5
3A3
  8
SK1
  6
CONTINUOUS
 10
87.254314997
 20
69.3289387195
 30
0.0
  0
VERTEX
  5
3A4
  8
SK1
  6
CONTINUOUS
 10
87.1407035818
 20
69.2854956184
 30
0.0
  0
VERTEX
  5
3A5
  8
SK1
  6
CONTINUOUS
 10
87.0274942632
 20
69.2409186282
 30
0.0
  0
VERTEX
  5
3A6
  8
SK1
  6
CONTINUOUS
 10
86.9146936477
 20
69.1951894762
 30
0.0
  0
VERTEX
  5
3A7
  8
SK1
  6
CONTINUOUS
 10
86.8023083415
 20
69.1482898897
 30
0.0
  0
VERTEX
  5
3A8
  8
SK1
  6
CONTINUOUS
 10
86.690344951
 20
69.1002015958
 30
0.0
  0
VERTEX
  5
3A9
  8
SK1
  6
CONTINUOUS
 10
86.5788100826
 20
69.050906322
 30
0.0
  0
VERTEX
  5
3AA
  8
SK1
  6
CONTINUOUS
 10
86.4677103426
 20
69.0003857954
 30
0.0
  0
VERTEX
  5
3AB
  8
SK1
  6
CONTINUOUS
 10
86.3570523374
 20
68.9486217433
 30
0.0
  0
VERTEX
  5
3AC
  8
SK1
  6
CONTINUOUS
 10
86.2468625316
 20
68.8956047969
 30
0.0
  0
VERTEX
  5
3AD
  8
SK1
  6
CONTINUOUS
 10
86.1371901425
 20
68.8413451608
 30
0.0
  0
VERTEX
  5
3AE
  8
SK1
  6
CONTINUOUS
 10
86.028054973
 20
68.7858469911
 30
0.0
  0
VERTEX
  5
3AF
  8
SK1
  6
CONTINUOUS
 10
85.9194761745
 20
68.7291142212
 30
0.0
  0
SEQEND
  5
989
  8
SK1
  6
CONTINUOUS
  0
POLYLINE
  5
AE
  8
SK1
  6
CONTINUOUS
 66
     1
 10
0.0
 20
0.0
 30
0.0
  0
VERTEX
  5
3B0
  8
SK1
  6
CONTINUOUS
 10
85.9194761745
 20
68.7291142212
 30
0.0
  0
VERTEX
  5
3B1
  8
SK1
  6
CONTINUOUS
 10
85.8344735385
 20
68.6836243579
 30
0.0
  0
VERTEX
  5
3B2
  8
SK1
  6
CONTINUOUS
 10
85.7498363046
 20
68.6373749825
 30
0.0
  0
VERTEX
  5
3B3
  8
SK1
  6
CONTINUOUS
 10
85.665573793
 20
68.5903680091
 30
0.0
  0
VERTEX
  5
3B4
  8
SK1
  6
CONTINUOUS
 10
85.5816953243
 20
68.5426053521
 30
0.0
  0
VERTEX
  5
3B5
  8
SK1
  6
CONTINUOUS
 10
85.4982102186
 20
68.4940889257
 30
0.0
  0
VERTEX
  5
3B6
  8
SK1
  6
CONTINUOUS
 10
85.4151277964
 20
68.444820644
 30
0.0
  0
VERTEX
  5
3B7
  8
SK1
  6
CONTINUOUS
 10
85.332457378
 20
68.3948024214
 30
0.0
  0
VERTEX
  5
3B8
  8
SK1
  6
CONTINUOUS
 10
85.2502082838
 20
68.344036172
 30
0.0
  0
VERTEX
  5
3B9
  8
SK1
  6
CONTINUOUS
 10
85.168389834
 20
68.2925238101
 30
0.0
  0
VERTEX
  5
3BA
  8
SK1
  6
CONTINUOUS
 10
85.0870113491
 20
68.2402672499
 30
0.0
  0
VERTEX
  5
3BB
  8
SK1
  6
CONTINUOUS
 10
85.0060821494
 20
68.1872684057
 30
0.0
  0
VERTEX
  5
3BC
  8
SK1
  6
CONTINUOUS
 10
84.9256115551
 20
68.1335291915
 30
0.0
  0
VERTEX
  5
3BD
  8
SK1
  6
CONTINUOUS
 10
84.8456088868
 20
68.0790515218
 30
0.0
  0
VERTEX
  5
3BE
  8
SK1
  6
CONTINUOUS
 10
84.7660834646
 20
68.0238373107
 30
0.0
  0
VERTEX
  5
3BF
  8
SK1
  6
CONTINUOUS
 10
84.687044609
 20
67.9678884724
 30
0.0
  0
VERTEX
  5
3C0
  8
SK1
  6
CONTINUOUS
 10
84.6085016403
 20
67.9112069212
 30
0.0
  0
VERTEX
  5
3C1
  8
SK1
  6
CONTINUOUS
 10
84.5304638789
 20
67.8537945713
 30
0.0
  0
VERTEX
  5
3C2
  8
SK1
  6
CONTINUOUS
 10
84.452940645
 20
67.7956533369
 30
0.0
  0
VERTEX
  5
3C3
  8
SK1
  6
CONTINUOUS
 10
84.3759412591
 20
67.7367851322
 30
0.0
  0
VERTEX
  5
3C4
  8
SK1
  6
CONTINUOUS
 10
84.2994750414
 20
67.6771918715
 30
0.0
  0
VERTEX
  5
3C5
  8
SK1
  6
CONTINUOUS
 10
84.2235513123
 20
67.6168754691
 30
0.0
  0
VERTEX
  5
3C6
  8
SK1
  6
CONTINUOUS
 10
84.1481793923
 20
67.555837839
 30
0.0
  0
VERTEX
  5
3C7
  8
SK1
  6
CONTINUOUS
 10
84.0733686015
 20
67.4940808956
 30
0.0
  0
VERTEX
  5
3C8
  8
SK1
  6
CONTINUOUS
 10
83.9991282603
 20
67.4316065531
 30
0.0
  0
SEQEND
  5
988
  8
SK1
  6
CONTINUOUS
  0
LINE
  5
AF
  8
SK1
  6
CONTINUOUS
 10
94.4609759434
 20
70.5669295789
 30
0.0
 11
94.4609759434
 21
70.8976484928
 31
0.0
  0
LINE
  5
B0
  8
SK1
  6
CONTINUOUS
 10
239.8587273626
 20
70.5669295789
 30
0.0
 11
94.4609759434
 21
70.5669295789
 31
0.0
  0
LINE
  5
B1
  8
SK1
  6
CONTINUOUS
 10
239.8587273626
 20
92.5433998039
 30
0.0
 11
94.4609759433
 21
92.5433998039
 31
0.0
  0
LINE
  5
B2
  8
SK1
  6
CONTINUOUS
 10
239.8587273626
 20
70.5669295789
 30
0.0
 11
239.8587273626
 21
70.8976484928
 31
0.0
  0
ARC
  5
B3
  8
SK1
  6
CONTINUOUS
 10
239.8587273626
 20
81.7205241483
 30
0.0
 40
10.8228756555323
 50
270.0
 51
90.0
  0
LINE
  5
B4
  8
SK1
  6
CONTINUOUS
 10
239.8587273626
 20
70.5669295789
 30
0.0
 11
239.8587273626
 21
69.7205241483
 31
0.0
  0
ARC
  5
B5
  8
SK1
  6
CONTINUOUS
 10
239.8587273626
 20
81.7205241483
 30
0.0
 40
11.15359456941538
 50
270.0
 51
90.0
  0
LINE
  5
B6
  8
SK1
  6
CONTINUOUS
 10
239.8587273626
 20
92.8741187178
 30
0.0
 11
239.8587273626
 21
93.7205241483
 31
0.0
  0
LINE
  5
B7
  8
SK1
  6
CONTINUOUS
 10
239.8587273626
 20
92.8741187178
 30
0.0
 11
239.8587273626
 21
92.5433998039
 31
0.0
  0
POLYLINE
  5
B8
  8
SK1
  6
CONTINUOUS
 66
     1
 10
0.0
 20
0.0
 30
0.0
  0
VERTEX
  5
3C9
  8
SK1
  6
CONTINUOUS
 10
86.9209996487
 20
69.7334288546
 30
0.0
  0
VERTEX
  5
3CA
  8
SK1
  6
CONTINUOUS
 10
87.048664695
 20
69.7823037894
 30
0.0
  0
VERTEX
  5
3CB
  8
SK1
  6
CONTINUOUS
 10
87.1767326171
 20
69.829712945
 30
0.0
  0
VERTEX
  5
3CC
  8
SK1
  6
CONTINUOUS
 10
87.3051960385
 20
69.8756831595
 30
0.0
  0
VERTEX
  5
3CD
  8
SK1
  6
CONTINUOUS
 10
87.4340475827
 20
69.9202412712
 30
0.0
  0
VERTEX
  5
3CE
  8
SK1
  6
CONTINUOUS
 10
87.5632798729
 20
69.9634141184
 30
0.0
  0
VERTEX
  5
3CF
  8
SK1
  6
CONTINUOUS
 10
87.6928855325
 20
70.0052285394
 30
0.0
  0
VERTEX
  5
3D0
  8
SK1
  6
CONTINUOUS
 10
87.822857185
 20
70.0457113724
 30
0.0
  0
VERTEX
  5
3D1
  8
SK1
  6
CONTINUOUS
 10
87.9531874537
 20
70.0848894557
 30
0.0
  0
VERTEX
  5
3D2
  8
SK1
  6
CONTINUOUS
 10
88.0838689621
 20
70.1227896276
 30
0.0
  0
VERTEX
  5
3D3
  8
SK1
  6
CONTINUOUS
 10
88.2148943334
 20
70.1594387262
 30
0.0
  0
VERTEX
  5
3D4
  8
SK1
  6
CONTINUOUS
 10
88.3462561911
 20
70.1948635898
 30
0.0
  0
VERTEX
  5
3D5
  8
SK1
  6
CONTINUOUS
 10
88.4779471586
 20
70.2290910568
 30
0.0
  0
VERTEX
  5
3D6
  8
SK1
  6
CONTINUOUS
 10
88.6099598593
 20
70.2621479654
 30
0.0
  0
VERTEX
  5
3D7
  8
SK1
  6
CONTINUOUS
 10
88.7422869164
 20
70.2940611537
 30
0.0
  0
VERTEX
  5
3D8
  8
SK1
  6
CONTINUOUS
 10
88.8749209535
 20
70.3248574602
 30
0.0
  0
VERTEX
  5
3D9
  8
SK1
  6
CONTINUOUS
 10
89.007854594
 20
70.354563723
 30
0.0
  0
VERTEX
  5
3DA
  8
SK1
  6
CONTINUOUS
 10
89.1410804611
 20
70.3832067804
 30
0.0
  0
VERTEX
  5
3DB
  8
SK1
  6
CONTINUOUS
 10
89.2745911783
 20
70.4108134707
 30
0.0
  0
VERTEX
  5
3DC
  8
SK1
  6
CONTINUOUS
 10
89.408379369
 20
70.4374106321
 30
0.0
  0
VERTEX
  5
3DD
  8
SK1
  6
CONTINUOUS
 10
89.5424376566
 20
70.4630251029
 30
0.0
  0
VERTEX
  5
3DE
  8
SK1
  6
CONTINUOUS
 10
89.6767586643
 20
70.4876837213
 30
0.0
  0
VERTEX
  5
3DF
  8
SK1
  6
CONTINUOUS
 10
89.8113350158
 20
70.5114133256
 30
0.0
  0
VERTEX
  5
3E0
  8
SK1
  6
CONTINUOUS
 10
89.9461593342
 20
70.534240754
 30
0.0
  0
VERTEX
  5
3E1
  8
SK1
  6
CONTINUOUS
 10
90.0812242431
 20
70.5561928449
 30
0.0
  0
VERTEX
  5
3E2
  8
SK1
  6
CONTINUOUS
 10
90.2165223657
 20
70.5772964365
 30
0.0
  0
VERTEX
  5
3E3
  8
SK1
  6
CONTINUOUS
 10
90.3520463255
 20
70.597578367
 30
0.0
  0
VERTEX
  5
3E4
  8
SK1
  6
CONTINUOUS
 10
90.4877887459
 20
70.6170654747
 30
0.0
  0
VERTEX
  5
3E5
  8
SK1
  6
CONTINUOUS
 10
90.6237422502
 20
70.6357845978
 30
0.0
  0
VERTEX
  5
3E6
  8
SK1
  6
CONTINUOUS
 10
90.7598742446
 20
70.6537713805
 30
0.0
  0
VERTEX
  5
3E7
  8
SK1
  6
CONTINUOUS
 10
90.8961491789
 20
70.6710512021
 30
0.0
  0
VERTEX
  5
3E8
  8
SK1
  6
CONTINUOUS
 10
91.0325552421
 20
70.6876355037
 30
0.0
  0
VERTEX
  5
3E9
  8
SK1
  6
CONTINUOUS
 10
91.1690806231
 20
70.7035357264
 30
0.0
  0
VERTEX
  5
3EA
  8
SK1
  6
CONTINUOUS
 10
91.3057135109
 20
70.7187633114
 30
0.0
  0
VERTEX
  5
3EB
  8
SK1
  6
CONTINUOUS
 10
91.4424420945
 20
70.7333296996
 30
0.0
  0
VERTEX
  5
3EC
  8
SK1
  6
CONTINUOUS
 10
91.5792545627
 20
70.7472463322
 30
0.0
  0
VERTEX
  5
3ED
  8
SK1
  6
CONTINUOUS
 10
91.7161391045
 20
70.7605246503
 30
0.0
  0
VERTEX
  5
3EE
  8
SK1
  6
CONTINUOUS
 10
91.853083909
 20
70.7731760951
 30
0.0
  0
VERTEX
  5
3EF
  8
SK1
  6
CONTINUOUS
 10
91.9900771649
 20
70.7852121074
 30
0.0
  0
VERTEX
  5
3F0
  8
SK1
  6
CONTINUOUS
 10
92.1271070614
 20
70.7966441286
 30
0.0
  0
VERTEX
  5
3F1
  8
SK1
  6
CONTINUOUS
 10
92.2641617873
 20
70.8074835996
 30
0.0
  0
VERTEX
  5
3F2
  8
SK1
  6
CONTINUOUS
 10
92.4012295316
 20
70.8177419617
 30
0.0
  0
VERTEX
  5
3F3
  8
SK1
  6
CONTINUOUS
 10
92.5382984832
 20
70.8274306557
 30
0.0
  0
VERTEX
  5
3F4
  8
SK1
  6
CONTINUOUS
 10
92.6753807513
 20
70.8365659581
 30
0.0
  0
VERTEX
  5
3F5
  8
SK1
  6
CONTINUOUS
 10
92.8124970968
 20
70.8451437943
 30
0.0
  0
VERTEX
  5
3F6
  8
SK1
  6
CONTINUOUS
 10
92.9496486864
 20
70.8531450791
 30
0.0
  0
VERTEX
  5
3F7
  8
SK1
  6
CONTINUOUS
 10
93.0868366867
 20
70.8605507274
 30
0.0
  0
VERTEX
  5
3F8
  8
SK1
  6
CONTINUOUS
 10
93.2240622644
 20
70.8673416544
 30
0.0
  0
VERTEX
  5
3F9
  8
SK1
  6
CONTINUOUS
 10
93.3613265861
 20
70.8734987747
 30
0.0
  0
VERTEX
  5
3FA
  8
SK1
  6
CONTINUOUS
 10
93.4986308185
 20
70.8790030035
 30
0.0
  0
VERTEX
  5
3FB
  8
SK1
  6
CONTINUOUS
 10
93.6359761283
 20
70.8838352555
 30
0.0
  0
VERTEX
  5
3FC
  8
SK1
  6
CONTINUOUS
 10
93.773363682
 20
70.8879764457
 30
0.0
  0
VERTEX
  5
3FD
  8
SK1
  6
CONTINUOUS
 10
93.9107946464
 20
70.8914074892
 30
0.0
  0
VERTEX
  5
3FE
  8
SK1
  6
CONTINUOUS
 10
94.048270188
 20
70.8941093006
 30
0.0
  0
VERTEX
  5
3FF
  8
SK1
  6
CONTINUOUS
 10
94.1857914737
 20
70.8960627951
 30
0.0
  0
VERTEX
  5
400
  8
SK1
  6
CONTINUOUS
 10
94.3233596699
 20
70.8972488875
 30
0.0
  0
VERTEX
  5
401
  8
SK1
  6
CONTINUOUS
 10
94.4609759434
 20
70.8976484928
 30
0.0
  0
SEQEND
  5
987
  8
SK1
  6
CONTINUOUS
  0
ARC
  5
B9
  8
SK1
  6
CONTINUOUS
 10
128.9672117512
 20
13.355713162
 30
0.0
 40
70.33015554428263
 50
126.7153876015
 51
129.7460149621
  0
ARC
  5
BA
  8
SK1
  6
CONTINUOUS
 10
128.9672117457
 20
150.0853351279
 30
0.0
 40
70.33015553562117
 50
230.2539850379
 51
233.2846123988
  0
ARC
  5
BB
  8
SK1
  6
CONTINUOUS
 10
71.8587273626
 20
81.7205241483
 30
0.0
 40
19.25000000001148
 50
321.4859704371
 51
38.5140295628
  0
LINE
  5
BC
  8
SK1
  6
CONTINUOUS
 10
86.9209996487
 20
93.707619442
 30
0.0
 11
86.5297717971
 21
93.3962663175
 31
0.0
  0
LINE
  5
BD
  8
SK1
  6
CONTINUOUS
 10
86.9209996487
 20
69.7334288546
 30
0.0
 11
86.5297717971
 21
70.0447819792
 31
0.0
  0
ARC
  5
BE
  8
SK1
  6
CONTINUOUS
 10
71.8587273626
 20
81.7205241483
 30
0.0
 40
18.75
 50
4.2415566703
 51
25.7584433297
  0
ARC
  5
BF
  8
SK1
  6
CONTINUOUS
 10
71.8587273626
 20
81.7205241483
 30
0.0
 40
13.55
 50
3.9061256833
 51
26.0938743167
  0
ARC
  5
C0
  8
SK1
  6
CONTINUOUS
 10
71.8587273626
 20
81.7205241483
 30
0.0
 40
18.75
 50
25.7584433297
 51
64.2415566703
  0
ARC
  5
C1
  8
SK1
  6
CONTINUOUS
 10
71.8587273626
 20
81.7205241483
 30
0.0
 40
13.55
 50
26.0938743167
 51
63.9061256833
  0
ARC
  5
C2
  8
SK1
  6
CONTINUOUS
 10
71.8587273626
 20
81.7205241483
 30
0.0
 40
18.75
 50
304.2415566703
 51
325.7584433297
  0
ARC
  5
C3
  8
SK1
  6
CONTINUOUS
 10
71.8587273626
 20
81.7205241483
 30
0.0
 40
18.75
 50
325.7584433297
 51
4.2415566703
  0
ARC
  5
C4
  8
SK1
  6
CONTINUOUS
 10
71.8587273626
 20
81.7205241483
 30
0.0
 40
13.54999999999999
 50
303.9061256833
 51
326.0938743167
  0
ARC
  5
C5
  8
SK1
  6
CONTINUOUS
 10
71.8587273626
 20
81.7205241483
 30
0.0
 40
13.55
 50
326.0938743167
 51
3.9061256833
  0
ARC
  5
C6
  8
SK1
  6
CONTINUOUS
 10
105.0587273626
 20
48.5205241483
 30
0.0
 40
44.45
 50
111.5306606931
 51
118.2383380867
  0
ARC
  5
C7
  8
SK1
  6
CONTINUOUS
 10
84.0107707683
 20
127.072567554
 30
0.0
 40
44.45
 50
271.7616619133
 51
278.4693393069
  0
ARC
  5
C8
  8
SK1
  6
CONTINUOUS
 10
59.706683957
 20
36.3684807427
 30
0.0
 40
44.45
 50
51.5306606931
 51
58.2383380867
  0
ARC
  5
C9
  8
SK1
  6
CONTINUOUS
 10
71.8587273626
 20
81.7205241483
 30
0.0
 40
18.75
 50
244.2415566703
 51
265.7584433297
  0
ARC
  5
CA
  8
SK1
  6
CONTINUOUS
 10
71.8587273626
 20
81.7205241483
 30
0.0
 40
18.75
 50
265.7584433297
 51
304.2415566703
  0
ARC
  5
CB
  8
SK1
  6
CONTINUOUS
 10
71.8587273626
 20
81.7205241483
 30
0.0
 40
13.55
 50
243.9061256833
 51
266.0938743167
  0
ARC
  5
CC
  8
SK1
  6
CONTINUOUS
 10
71.8587273626
 20
81.7205241483
 30
0.0
 40
13.55
 50
266.0938743167
 51
303.9061256833
  0
ARC
  5
CD
  8
SK1
  6
CONTINUOUS
 10
26.506683957
 20
69.5684807427
 30
0.0
 40
44.45000000000001
 50
351.5306606931
 51
358.2383380867
  0
ARC
  5
CE
  8
SK1
  6
CONTINUOUS
 10
71.8587273626
 20
81.7205241483
 30
0.0
 40
13.54999999999999
 50
146.0938743167
 51
146.1693182431
  0
ARC
  5
CF
  8
SK1
  6
CONTINUOUS
 10
71.8587273626
 20
81.7205241483
 30
0.0
 40
18.75
 50
145.7584433297
 51
150.0
  0
ARC
  5
D0
  8
SK1
  6
CONTINUOUS
 10
84.0107707683
 20
127.072567554
 30
0.0
 40
44.45000000000001
 50
231.5306606931
 51
238.2383380867
  0
ARC
  5
D1
  8
SK1
  6
CONTINUOUS
 10
71.8587273626
 20
81.7205241483
 30
0.0
 40
18.75
 50
64.2415566703
 51
85.7584433297
  0
ARC
  5
D2
  8
SK1
  6
CONTINUOUS
 10
71.8587273626
 20
81.7205241483
 30
0.0
 40
13.54999999999999
 50
63.9061256833
 51
86.0938743167
  0
ARC
  5
D3
  8
SK1
  6
CONTINUOUS
 10
71.8587273626
 20
81.7205241483
 30
0.0
 40
18.75
 50
85.7584433297
 51
124.2415566703
  0
ARC
  5
D4
  8
SK1
  6
CONTINUOUS
 10
71.8587273626
 20
81.7205241483
 30
0.0
 40
13.55
 50
86.0938743167
 51
123.9061256833
  0
ARC
  5
D5
  8
SK1
  6
CONTINUOUS
 10
117.2107707683
 20
93.872567554
 30
0.0
 40
44.45
 50
171.5306606931
 51
178.2383380867
  0
ARC
  5
D6
  8
SK1
  6
CONTINUOUS
 10
117.2107707683
 20
93.872567554
 30
0.0
 40
44.45
 50
211.7616619133
 51
218.4693393069
  0
LINE
  5
D7
  8
SK1
  6
CONTINUOUS
 10
62.4837273626
 20
65.4825478274
 30
0.0
 11
64.6462381945
 21
69.2281264601
 31
0.0
  0
ARC
  5
D8
  8
SK1
  6
CONTINUOUS
 10
71.8587273626
 20
81.7205241483
 30
0.0
 40
18.75
 50
240.0
 51
244.2415566703
  0
ARC
  5
D9
  8
SK1
  6
CONTINUOUS
 10
105.0587273626
 20
48.5205241483
 30
0.0
 40
44.45
 50
151.7616619133
 51
158.4693393069
  0
ARC
  5
DA
  8
SK1
  6
CONTINUOUS
 10
26.506683957
 20
69.5684807427
 30
0.0
 40
44.45
 50
31.7616619133
 51
38.4693393069
  0
ARC
  5
DB
  8
SK1
  6
CONTINUOUS
 10
38.6587273626
 20
114.9205241483
 30
0.0
 40
44.45
 50
331.7616619133
 51
338.4693393069
  0
CIRCLE
  5
DC
  8
SK1
  6
CONTINUOUS
 10
239.8587273626
 20
81.7205241483
 30
0.0
 40
3.0
  0
CIRCLE
  5
DD
  8
SK1
  6
CONTINUOUS
 10
239.8587273626
 20
81.7205241483
 30
0.0
 40
3.500000000000003
  0
ARC
  5
DE
  8
SK1
  6
CONTINUOUS
 10
71.8587273626
 20
81.7205241483
 30
0.0
 40
13.55
 50
243.8306817569
 51
243.9061256833
  0
LINE
  5
DF
  8
SK1
  6
CONTINUOUS
 10
65.8828344157
 20
69.559471419
 30
0.0
 11
64.6462381945
 21
69.2281264601
 31
0.0
  0
LINE
  5
E0
  8
SK1
  6
CONTINUOUS
 10
59.3663296744
 20
88.9330133164
 30
0.0
 11
55.6207510417
 21
91.0955241483
 31
0.0
  0
LINE
  5
E1
  8
SK1
  6
CONTINUOUS
 10
59.3663296744
 20
88.9330133164
 30
0.0
 11
60.6029258956
 21
89.2643582753
 31
0.0
  0
LINE
  5
E2
  8
SK1
  6
CONTINUOUS
 10
90.3691078545
 20
69.7205241483
 30
0.0
 11
239.8587273626
 21
69.7205241483
 31
0.0
  0
ARC
  5
E3
  8
SK1
  6
CONTINUOUS
 10
90.3624802212
 20
103.7076472644
 30
0.0
 40
9.98654355324254
 50
234.059237081
 51
270.0606291626
  0
ARC
  5
E4
  8
SK1
  6
CONTINUOUS
 10
90.3624802212
 20
103.7076472644
 30
0.0
 40
9.98654355324254
 50
230.2558139557
 51
230.6001155585
  0
ARC
  5
E5
  8
SK1
  6
CONTINUOUS
 10
90.3561823265
 20
59.7448751203
 30
0.0
 40
9.973691133358832
 50
129.4245151992
 51
129.7600581858
  0
ARC
  5
E6
  8
SK1
  6
CONTINUOUS
 10
90.3561823265
 20
59.7448751203
 30
0.0
 40
9.973691133358832
 50
89.9030195354
 51
125.712985477
  0
LINE
  5
E7
  8
SK1
  6
CONTINUOUS
 10
239.8587273626
 20
93.7205241483
 30
0.0
 11
90.3691078545
 21
93.7205241483
 31
0.0
  0
ARC
  5
E8
  8
SK1
  6
CONTINUOUS
 10
239.8587273626
 20
81.7205241483
 30
0.0
 40
12.00000000000008
 50
270.0
 51
0.0
  0
ARC
  5
E9
  8
SK1
  6
CONTINUOUS
 10
239.8587273626
 20
81.7205241483
 30
0.0
 40
12.00000000000007
 50
0.0
 51
90.0
  0
LINE
  5
EC
  8
SK4
 10
241.6087274166
 20
81.7205241483
 30
0.0
 11
238.1087273086
 21
81.7205241483
 31
0.0
  0
LINE
  5
ED
  8
SK4
 10
239.8587273626
 20
83.4705242024
 30
0.0
 11
239.8587273626
 21
79.9705240943
 31
0.0
  0
LINE
  5
EE
  8
SK4
 10
243.3587274707
 20
81.7205241483
 30
0.0
 11
253.8587273626
 21
81.7205241483
 31
0.0
  0
LINE
  5
EF
  8
SK4
 10
239.8587273626
 20
85.2205242564
 30
0.0
 11
239.8587273626
 21
95.7205241483
 31
0.0
  0
LINE
  5
F0
  8
SK4
 10
236.3587272546
 20
81.7205241483
 30
0.0
 11
225.8587273626
 21
81.7205241483
 31
0.0
  0
LINE
  5
F1
  8
SK4
 10
239.8587273626
 20
78.2205240403
 30
0.0
 11
239.8587273626
 21
67.7205241483
 31
0.0
  0
LINE
  5
F2
  8
SK4
 10
253.8587273626
 20
81.7205241483
 30
0.0
 11
69.8587273626
 21
81.7205241483
 31
0.0
  0
LINE
  5
F3
  8
SK4
 10
73.6087274166
 20
81.7205241483
 30
0.0
 11
70.1087273086
 21
81.7205241483
 31
0.0
  0
LINE
  5
F4
  8
SK4
 10
71.8587273626
 20
83.4705242024
 30
0.0
 11
71.8587273626
 21
79.9705240943
 31
0.0
  0
LINE
  5
F5
  8
SK4
 10
75.3587274707
 20
81.7205241483
 30
0.0
 11
92.6087273626
 21
81.7205241483
 31
0.0
  0
LINE
  5
F6
  8
SK4
 10
71.8587273626
 20
85.2205242564
 30
0.0
 11
71.8587273626
 21
102.4705241483
 31
0.0
  0
LINE
  5
F7
  8
SK4
 10
68.3587272546
 20
81.7205241483
 30
0.0
 11
51.1087273626
 21
81.7205241483
 31
0.0
  0
LINE
  5
F8
  8
SK4
 10
71.8587273626
 20
78.2205240403
 30
0.0
 11
71.8587273626
 21
60.9705241483
 31
0.0
  0
ENDBLK
  5
FA
  8
0
  0
BLOCK
  8
0
  2
GDIMGGROUP
 70
     0
 10
0.0
 20
0.0
 30
0.0
  3
GDIMGGROUP
  1

  0
POLYLINE
  5
FD
  8
SK2
  6
CONTINUOUS
 62
   136
 66
     1
 10
0.0
 20
0.0
 30
0.0
  0
VERTEX
  5
402
  8
SK2
  6
CONTINUOUS
 62
   136
 10
59.1207511497
 20
162.3558532463
 30
0.0
  0
VERTEX
  5
403
  8
SK2
  6
CONTINUOUS
 62
   136
 10
59.1207511497
 20
161.1891865436
 30
0.0
  0
VERTEX
  5
404
  8
SK2
  6
CONTINUOUS
 62
   136
 10
55.6207510417
 20
161.7725198949
 30
0.0
  0
VERTEX
  5
405
  8
SK2
  6
CONTINUOUS
 62
   136
 10
59.1207511497
 20
162.3558532463
 30
0.0
  0
SEQEND
  5
986
  8
SK2
  6
CONTINUOUS
 62
   136
  0
POLYLINE
  5
FE
  8
SK2
  6
CONTINUOUS
 62
   136
 66
     1
 10
0.0
 20
0.0
 30
0.0
  0
VERTEX
  5
406
  8
SK2
  6
CONTINUOUS
 62
   136
 10
248.3587322531
 20
162.3558532463
 30
0.0
  0
VERTEX
  5
407
  8
SK2
  6
CONTINUOUS
 62
   136
 10
248.3587322531
 20
161.1891865436
 30
0.0
  0
VERTEX
  5
408
  8
SK2
  6
CONTINUOUS
 62
   136
 10
251.8587323611
 20
161.7725198949
 30
0.0
  0
VERTEX
  5
409
  8
SK2
  6
CONTINUOUS
 62
   136
 10
248.3587322531
 20
162.3558532463
 30
0.0
  0
SEQEND
  5
985
  8
SK2
  6
CONTINUOUS
 62
   136
  0
LINE
  5
FF
  8
SK2
  6
CONTINUOUS
 62
   136
 10
55.6207510417
 20
148.1778692315
 30
0.0
 11
55.6207510417
 21
163.5225199489
 31
0.0
  0
LINE
  5
100
  8
SK2
  6
CONTINUOUS
 62
   136
 10
251.8587273589
 20
143.1780059202
 30
0.0
 11
251.8587273589
 21
163.5225199489
 31
0.0
  0
LINE
  5
101
  8
SK2
  6
CONTINUOUS
 62
   136
 10
55.6207510417
 20
161.7725198949
 30
0.0
 11
251.8587323611
 21
161.7725198949
 31
0.0
  0
TEXT
  5
103
  8
SK2
  6
CONTINUOUS
 62
   136
 10
150.8761053377
 20
162.6475198949
 30
0.0
 40
3.5
  1
196
  7
SEACAD_SOLID_EDGE_ISO
 11
150.8761053377
 21
166.1475198949
 31
0.0
 73
     3
  0
ENDBLK
  5
105
  8
0
  0
BLOCK
  8
0
  2
GDIMGGROUP1
 70
     0
 10
0.0
 20
0.0
 30
0.0
  3
GDIMGGROUP1
  1

  0
POLYLINE
  5
108
  8
SK2
  6
CONTINUOUS
 62
   136
 66
     1
 10
0.0
 20
0.0
 30
0.0
  0
VERTEX
  5
40A
  8
SK2
  6
CONTINUOUS
 62
   136
 10
267.4869194975
 20
73.2205242564
 30
0.0
  0
VERTEX
  5
40B
  8
SK2
  6
CONTINUOUS
 62
   136
 10
266.3202527948
 20
73.2205242564
 30
0.0
  0
VERTEX
  5
40C
  8
SK2
  6
CONTINUOUS
 62
   136
 10
266.9035861461
 20
69.7205241483
 30
0.0
  0
VERTEX
  5
40D
  8
SK2
  6
CONTINUOUS
 62
   136
 10
267.4869194975
 20
73.2205242564
 30
0.0
  0
SEQEND
  5
984
  8
SK2
  6
CONTINUOUS
 62
   136
  0
POLYLINE
  5
109
  8
SK2
  6
CONTINUOUS
 62
   136
 66
     1
 10
0.0
 20
0.0
 30
0.0
  0
VERTEX
  5
40E
  8
SK2
  6
CONTINUOUS
 62
   136
 10
267.4869194975
 20
90.2205242489
 30
0.0
  0
VERTEX
  5
40F
  8
SK2
  6
CONTINUOUS
 62
   136
 10
266.3202527948
 20
90.2205242489
 30
0.0
  0
VERTEX
  5
410
  8
SK2
  6
CONTINUOUS
 62
   136
 10
266.9035861461
 20
93.720524357
 30
0.0
  0
VERTEX
  5
411
  8
SK2
  6
CONTINUOUS
 62
   136
 10
267.4869194975
 20
90.2205242489
 30
0.0
  0
SEQEND
  5
983
  8
SK2
  6
CONTINUOUS
 62
   136
  0
LINE
  5
10A
  8
SK2
  6
CONTINUOUS
 62
   136
 10
239.8587273626
 20
69.7205241483
 30
0.0
 11
268.6535862001
 21
69.7205241483
 31
0.0
  0
LINE
  5
10B
  8
SK2
  6
CONTINUOUS
 62
   136
 10
239.8587273626
 20
93.7205241483
 30
0.0
 11
268.6535862001
 21
93.7205241483
 31
0.0
  0
LINE
  5
10C
  8
SK2
  6
CONTINUOUS
 62
   136
 10
266.9035861461
 20
69.7205241483
 30
0.0
 11
266.9035861461
 21
93.720524357
 31
0.0
  0
TEXT
  5
10D
  8
SK2
  6
CONTINUOUS
 62
   136
 10
266.0285861461
 20
79.6125697072
 30
0.0
 40
3.5
  1
24
 50
90.0
  7
SEACAD_SOLID_EDGE_ISO
 11
262.5285861461
 21
79.6125697072
 31
0.0
 73
     3
  0
ENDBLK
  5
10F
  8
0
  0
BLOCK
  8
0
  2
GDIMGGROUP2
 70
     0
 10
0.0
 20
0.0
 30
0.0
  3
GDIMGGROUP2
  1

  0
POLYLINE
  5
112
  8
SK2
  6
CONTINUOUS
 62
   136
 66
     1
 10
0.0
 20
0.0
 30
0.0
  0
VERTEX
  5
412
  8
SK2
  6
CONTINUOUS
 62
   136
 10
35.5296242721
 20
66.4705242564
 30
0.0
  0
VERTEX
  5
413
  8
SK2
  6
CONTINUOUS
 62
   136
 10
36.6962909748
 20
66.4705242564
 30
0.0
  0
VERTEX
  5
414
  8
SK2
  6
CONTINUOUS
 62
   136
 10
36.1129576235
 20
62.9705241483
 30
0.0
  0
VERTEX
  5
415
  8
SK2
  6
CONTINUOUS
 62
   136
 10
35.5296242721
 20
66.4705242564
 30
0.0
  0
SEQEND
  5
982
  8
SK2
  6
CONTINUOUS
 62
   136
  0
POLYLINE
  5
113
  8
SK2
  6
CONTINUOUS
 62
   136
 66
     1
 10
0.0
 20
0.0
 30
0.0
  0
VERTEX
  5
416
  8
SK2
  6
CONTINUOUS
 62
   136
 10
35.5296242721
 20
96.9705255304
 30
0.0
  0
VERTEX
  5
417
  8
SK2
  6
CONTINUOUS
 62
   136
 10
36.6962909748
 20
96.9705255304
 30
0.0
  0
VERTEX
  5
418
  8
SK2
  6
CONTINUOUS
 62
   136
 10
36.1129576235
 20
100.4705256385
 30
0.0
  0
VERTEX
  5
419
  8
SK2
  6
CONTINUOUS
 62
   136
 10
35.5296242721
 20
96.9705255304
 30
0.0
  0
SEQEND
  5
981
  8
SK2
  6
CONTINUOUS
 62
   136
  0
LINE
  5
114
  8
SK2
  6
CONTINUOUS
 62
   136
 10
71.8587273626
 20
62.9705241483
 30
0.0
 11
34.3629575695
 21
62.9705241483
 31
0.0
  0
LINE
  5
115
  8
SK2
  6
CONTINUOUS
 62
   136
 10
71.8587273626
 20
100.4705241483
 30
0.0
 11
34.3629575695
 21
100.4705241483
 31
0.0
  0
LINE
  5
116
  8
SK2
  6
CONTINUOUS
 62
   136
 10
36.1129576235
 20
62.9705241483
 30
0.0
 11
36.1129576235
 21
100.4705256385
 31
0.0
  0
TEXT
  5
118
  8
SK2
  6
CONTINUOUS
 62
   136
 10
35.2379576235
 20
75.3340017674
 30
0.0
 40
3.5
  1
O
 50
90.0
  7
SEACAD_SOLID_EDGE_ISO1_SYM
 11
31.7379576235
 21
75.3340017674
 31
0.0
 73
     3
  0
TEXT
  5
119
  8
SK2
  6
CONTINUOUS
 62
   136
 10
35.2379576235
 20
81.4252298376
 30
0.0
 40
3.5
  1
37,5
 50
90.0
  7
SEACAD_SOLID_EDGE_ISO
 11
31.7379576235
 21
81.4252298376
 31
0.0
 73
     3
  0
ENDBLK
  5
11B
  8
0
  0
BLOCK
  8
0
  2
GDIMGGROUP3
 70
     0
 10
0.0
 20
0.0
 30
0.0
  3
GDIMGGROUP3
  1

  0
POLYLINE
  5
11E
  8
SK2
  6
CONTINUOUS
 62
   136
 66
     1
 10
0.0
 20
0.0
 30
0.0
  0
VERTEX
  5
41A
  8
SK2
  6
CONTINUOUS
 62
   136
 10
43.9296249039
 20
71.6705242564
 30
0.0
  0
VERTEX
  5
41B
  8
SK2
  6
CONTINUOUS
 62
   136
 10
45.0962916066
 20
71.6705242564
 30
0.0
  0
VERTEX
  5
41C
  8
SK2
  6
CONTINUOUS
 62
   136
 10
44.5129582553
 20
68.1705241483
 30
0.0
  0
VERTEX
  5
41D
  8
SK2
  6
CONTINUOUS
 62
   136
 10
43.9296249039
 20
71.6705242564
 30
0.0
  0
SEQEND
  5
980
  8
SK2
  6
CONTINUOUS
 62
   136
  0
POLYLINE
  5
11F
  8
SK2
  6
CONTINUOUS
 62
   136
 66
     1
 10
0.0
 20
0.0
 30
0.0
  0
VERTEX
  5
41E
  8
SK2
  6
CONTINUOUS
 62
   136
 10
43.9296249039
 20
91.7705245708
 30
0.0
  0
VERTEX
  5
41F
  8
SK2
  6
CONTINUOUS
 62
   136
 10
45.0962916066
 20
91.7705245708
 30
0.0
  0
VERTEX
  5
420
  8
SK2
  6
CONTINUOUS
 62
   136
 10
44.5129582553
 20
95.2705246788
 30
0.0
  0
VERTEX
  5
421
  8
SK2
  6
CONTINUOUS
 62
   136
 10
43.9296249039
 20
91.7705245708
 30
0.0
  0
SEQEND
  5
97F
  8
SK2
  6
CONTINUOUS
 62
   136
  0
LINE
  5
120
  8
SK2
  6
CONTINUOUS
 62
   136
 10
71.8587273626
 20
68.1705241483
 30
0.0
 11
42.7629582013
 21
68.1705241483
 31
0.0
  0
LINE
  5
121
  8
SK2
  6
CONTINUOUS
 62
   136
 10
71.8587273626
 20
95.2705241483
 30
0.0
 11
42.7629582013
 21
95.2705241483
 31
0.0
  0
LINE
  5
122
  8
SK2
  6
CONTINUOUS
 62
   136
 10
44.5129582553
 20
68.1705241483
 30
0.0
 11
44.5129582553
 21
95.2705246788
 31
0.0
  0
TEXT
  5
123
  8
SK2
  6
CONTINUOUS
 62
   136
 10
43.6379582553
 20
76.4874103785
 30
0.0
 40
3.5
  1
O
 50
90.0
  7
SEACAD_SOLID_EDGE_ISO1_SYM
 11
40.1379582553
 21
76.4874103785
 31
0.0
 73
     3
  0
TEXT
  5
124
  8
SK2
  6
CONTINUOUS
 62
   136
 10
43.6379582553
 20
82.5786384487
 30
0.0
 40
3.5
  1
27
 50
90.0
  7
SEACAD_SOLID_EDGE_ISO
 11
40.1379582553
 21
82.5786384487
 31
0.0
 73
     3
  0
ENDBLK
  5
126
  8
0
  0
BLOCK
  8
0
  2
GDIMGGROUP4
 70
     0
 10
0.0
 20
0.0
 30
0.0
  3
GDIMGGROUP4
  1

  0
POLYLINE
  5
129
  8
SK2
  6
CONTINUOUS
 62
   136
 66
     1
 10
0.0
 20
0.0
 30
0.0
  0
VERTEX
  5
422
  8
SK2
  6
CONTINUOUS
 62
   136
 10
46.1952063651
 20
139.6778693395
 30
0.0
  0
VERTEX
  5
423
  8
SK2
  6
CONTINUOUS
 62
   136
 10
47.3618730678
 20
139.6778693395
 30
0.0
  0
VERTEX
  5
424
  8
SK2
  6
CONTINUOUS
 62
   136
 10
46.7785397165
 20
136.1778692315
 30
0.0
  0
VERTEX
  5
425
  8
SK2
  6
CONTINUOUS
 62
   136
 10
46.1952063651
 20
139.6778693395
 30
0.0
  0
SEQEND
  5
97E
  8
SK2
  6
CONTINUOUS
 62
   136
  0
POLYLINE
  5
12A
  8
SK2
  6
CONTINUOUS
 62
   136
 66
     1
 10
0.0
 20
0.0
 30
0.0
  0
VERTEX
  5
426
  8
SK2
  6
CONTINUOUS
 62
   136
 10
46.1952063651
 20
146.6778695556
 30
0.0
  0
VERTEX
  5
427
  8
SK2
  6
CONTINUOUS
 62
   136
 10
47.3618730678
 20
146.6778695556
 30
0.0
  0
VERTEX
  5
428
  8
SK2
  6
CONTINUOUS
 62
   136
 10
46.7785397165
 20
150.1778696636
 30
0.0
  0
VERTEX
  5
429
  8
SK2
  6
CONTINUOUS
 62
   136
 10
46.1952063651
 20
146.6778695556
 30
0.0
  0
SEQEND
  5
97D
  8
SK2
  6
CONTINUOUS
 62
   136
  0
LINE
  5
12B
  8
SK2
  6
CONTINUOUS
 62
   136
 10
63.7103901796
 20
136.1778692315
 30
0.0
 11
45.0285396624
 21
136.1778692315
 31
0.0
  0
LINE
  5
12C
  8
SK2
  6
CONTINUOUS
 62
   136
 10
67.0911694207
 20
150.1778692315
 30
0.0
 11
45.0285396624
 21
150.1778692315
 31
0.0
  0
LINE
  5
12D
  8
SK2
  6
CONTINUOUS
 62
   136
 10
46.7785397165
 20
136.1778692315
 30
0.0
 11
46.7785397165
 21
150.1778696636
 31
0.0
  0
TEXT
  5
12E
  8
SK2
  6
CONTINUOUS
 62
   136
 10
45.9035397165
 20
141.4278694475
 30
0.0
 40
3.5
  1
14
 50
90.0
  7
SEACAD_SOLID_EDGE_ISO
 11
42.4035397165
 21
141.4278694475
 31
0.0
 73
     3
  0
ENDBLK
  5
130
  8
0
  0
BLOCK
  8
0
  2
SEANNOT_GROUP
 70
     0
 10
0.0
 20
0.0
 30
0.0
  3
SEANNOT_GROUP
  1

  0
TEXT
  5
133
  8
SK2
  6
CONTINUOUS
 62
     7
 10
243.1483969886
 20
25.7525109624
 30
0.0
 40
3.5
  1
711732000
  7
SEACAD_SOLID_EDGE_ISOB
 11
243.1483969886
 21
29.2525109624
 31
0.0
 73
     3
  0
TEXT
  5
134
  8
SK2
  6
CONTINUOUS
 62
     7
 10
260.6483969886
 20
25.7525109624
 30
0.0
 40
3.5
  1
 
  7
SEACAD_SOLID_EDGE_ISOB
 11
260.6483969886
 21
29.2525109624
 31
0.0
 73
     3
  0
ENDBLK
  5
136
  8
0
  0
BLOCK
  8
0
  2
SEANNOT_GROUP1
 70
     0
 10
0.0
 20
0.0
 30
0.0
  3
SEANNOT_GROUP1
  1

  0
TEXT
  5
138
  8
SK2
  6
CONTINUOUS
 62
     7
 10
243.1477357349
 20
20.0537100543
 30
0.0
 40
3.5
  1
08.12.2014
  7
SEACAD_SOLID_EDGE_ISO
 11
243.1477357349
 21
23.5537100543
 31
0.0
 73
     3
  0
ENDBLK
  5
13A
  8
0
  0
BLOCK
  8
0
  2
SEANNOT_GROUP2
 70
     0
 10
0.0
 20
0.0
 30
0.0
  3
SEANNOT_GROUP2
  1

  0
TEXT
  5
13C
  8
SK2
  6
CONTINUOUS
 62
     7
 10
243.1795282745
 20
31.5598894014
 30
0.0
 40
3.5
  1
E 32 AX
  7
SEACAD_SOLID_EDGE_ISOB
 11
243.1795282745
 21
35.0598894014
 31
0.0
 73
     3
  0
TEXT
  5
13D
  8
SK2
  6
CONTINUOUS
 62
     7
 10
255.8272555472
 20
31.5598894014
 30
0.0
 40
3.5
  1
 
  7
SEACAD_SOLID_EDGE_ISOB
 11
255.8272555472
 21
35.0598894014
 31
0.0
 73
     3
  0
ENDBLK
  5
13F
  8
0
  0
BLOCK
  8
0
  2
SEANNOT_GROUP3
 70
     0
 10
0.0
 20
0.0
 30
0.0
  3
SEANNOT_GROUP3
  1

  0
TEXT
  5
141
  8
SK2
  6
CONTINUOUS
 62
     7
 10
243.2357917511
 20
14.1955389783
 30
0.0
 40
3.5
  1
1:1
  7
SEACAD_SOLID_EDGE_ISO
 11
243.2357917511
 21
17.6955389783
 31
0.0
 73
     3
  0
ENDBLK
  5
143
  8
0
  0
BLOCK
  8
0
  2
RF-MASSBLATT_ZR
 70
     0
 10
0.0
 20
0.0
 30
0.0
  3
RF-MASSBLATT_ZR
  1

  0
INSERT
  5
145
  8
SK2
  2
*X13
 10
0.0
 20
0.0
 30
0.0
  0
INSERT
  5
146
  8
SK2
  2
*X14
 10
0.0
 20
0.0
 30
0.0
  0
INSERT
  5
147
  8
SK2
  2
SEANNOT_GROUP
 10
0.0
 20
0.0
 30
0.0
  0
INSERT
  5
148
  8
SK2
  2
SEANNOT_GROUP1
 10
0.0
 20
0.0
 30
0.0
  0
INSERT
  5
149
  8
SK2
  2
*X15
 10
0.0
 20
0.0
 30
0.0
  0
LINE
  5
14A
  8
SK2
  6
CONTINUOUS
 62
     7
 10
42.3215148765
 20
194.9385447651
 30
0.0
 11
42.3215148765
 21
185.7546855318
 31
0.0
  0
LINE
  5
14B
  8
SK2
  6
CONTINUOUS
 62
     7
 10
42.3215148765
 20
185.7546855318
 30
0.0
 11
44.7134936776
 21
185.7546855318
 31
0.0
  0
LINE
  5
14C
  8
SK2
  6
CONTINUOUS
 62
     7
 10
44.7134936776
 20
185.7546855318
 30
0.0
 11
44.7134936776
 21
189.328289944
 31
0.0
  0
LINE
  5
14D
  8
SK2
  6
CONTINUOUS
 62
     7
 10
44.7134936776
 20
189.328289944
 30
0.0
 11
47.004485953
 21
185.7478114002
 31
0.0
  0
LINE
  5
14E
  8
SK2
  6
CONTINUOUS
 62
     7
 10
47.004485953
 20
185.7478114002
 30
0.0
 11
49.9729156609
 21
185.7478114002
 31
0.0
  0
LINE
  5
14F
  8
SK2
  6
CONTINUOUS
 62
     7
 10
49.9729156609
 20
185.7478114002
 30
0.0
 11
47.1020457187
 21
189.5154994518
 31
0.0
  0
POLYLINE
  5
150
  8
SK2
  6
CONTINUOUS
 62
     7
 66
     1
 10
0.0
 20
0.0
 30
0.0
  0
VERTEX
  5
43E
  8
SK2
  6
CONTINUOUS
 62
     7
 10
45.9858060265
 20
194.9385447651
 30
0.0
  0
VERTEX
  5
43F
  8
SK2
  6
CONTINUOUS
 62
     7
 10
46.125446592
 20
194.937115703
 30
0.0
  0
VERTEX
  5
440
  8
SK2
  6
CONTINUOUS
 62
     7
 10
46.2632924432
 20
194.9326475273
 30
0.0
  0
VERTEX
  5
441
  8
SK2
  6
CONTINUOUS
 62
     7
 10
46.3993735004
 20
194.9248687547
 30
0.0
  0
VERTEX
  5
442
  8
SK2
  6
CONTINUOUS
 62
     7
 10
46.5337196841
 20
194.9135079016
 30
0.0
  0
VERTEX
  5
443
  8
SK2
  6
CONTINUOUS
 62
     7
 10
46.6663609148
 20
194.8982934843
 30
0.0
  0
VERTEX
  5
444
  8
SK2
  6
CONTINUOUS
 62
     7
 10
46.7973271129
 20
194.8789540194
 30
0.0
  0
VERTEX
  5
445
  8
SK2
  6
CONTINUOUS
 62
     7
 10
46.9266481989
 20
194.8552180233
 30
0.0
  0
VERTEX
  5
446
  8
SK2
  6
CONTINUOUS
 62
     7
 10
47.0543540932
 20
194.8268140124
 30
0.0
  0
VERTEX
  5
447
  8
SK2
  6
CONTINUOUS
 62
     7
 10
47.1804747164
 20
194.7934705032
 30
0.0
  0
VERTEX
  5
448
  8
SK2
  6
CONTINUOUS
 62
     7
 10
47.3050399887
 20
194.754916012
 30
0.0
  0
VERTEX
  5
449
  8
SK2
  6
CONTINUOUS
 62
     7
 10
47.4280793388
 20
194.7108793502
 30
0.0
  0
VERTEX
  5
44A
  8
SK2
  6
CONTINUOUS
 62
     7
 10
47.5494706032
 20
194.6611801566
 30
0.0
  0
VERTEX
  5
44B
  8
SK2
  6
CONTINUOUS
 62
     7
 10
47.6687265419
 20
194.6058568087
 30
0.0
  0
VERTEX
  5
44C
  8
SK2
  6
CONTINUOUS
 62
     7
 10
47.7853060681
 20
194.5449799471
 30
0.0
  0
VERTEX
  5
44D
  8
SK2
  6
CONTINUOUS
 62
     7
 10
47.8986680952
 20
194.478620212
 30
0.0
  0
VERTEX
  5
44E
  8
SK2
  6
CONTINUOUS
 62
     7
 10
48.0082715363
 20
194.4068482439
 30
0.0
  0
VERTEX
  5
44F
  8
SK2
  6
CONTINUOUS
 62
     7
 10
48.113575305
 20
194.3297346831
 30
0.0
  0
VERTEX
  5
450
  8
SK2
  6
CONTINUOUS
 62
     7
 10
48.2140383144
 20
194.24735017
 30
0.0
  0
VERTEX
  5
451
  8
SK2
  6
CONTINUOUS
 62
     7
 10
48.3091308599
 20
194.1597706591
 30
0.0
  0
VERTEX
  5
452
  8
SK2
  6
CONTINUOUS
 62
     7
 10
48.3985995688
 20
194.0672011211
 30
0.0
  0
VERTEX
  5
453
  8
SK2
  6
CONTINUOUS
 62
     7
 10
48.4824757302
 20
193.9699794318
 30
0.0
  0
VERTEX
  5
454
  8
SK2
  6
CONTINUOUS
 62
     7
 10
48.5608036818
 20
193.8684495596
 30
0.0
  0
VERTEX
  5
455
  8
SK2
  6
CONTINUOUS
 62
     7
 10
48.6336277613
 20
193.7629554724
 30
0.0
  0
VERTEX
  5
456
  8
SK2
  6
CONTINUOUS
 62
     7
 10
48.7009923064
 20
193.6538411384
 30
0.0
  0
VERTEX
  5
457
  8
SK2
  6
CONTINUOUS
 62
     7
 10
48.7629416547
 20
193.5414505258
 30
0.0
  0
VERTEX
  5
458
  8
SK2
  6
CONTINUOUS
 62
     7
 10
48.8195201439
 20
193.4261276028
 30
0.0
  0
VERTEX
  5
459
  8
SK2
  6
CONTINUOUS
 62
     7
 10
48.8707721118
 20
193.3082163374
 30
0.0
  0
VERTEX
  5
45A
  8
SK2
  6
CONTINUOUS
 62
     7
 10
48.916741896
 20
193.1880606978
 30
0.0
  0
VERTEX
  5
45B
  8
SK2
  6
CONTINUOUS
 62
     7
 10
48.957473291
 20
193.0660024654
 30
0.0
  0
VERTEX
  5
45C
  8
SK2
  6
CONTINUOUS
 62
     7
 10
48.9929944632
 20
192.9423204876
 30
0.0
  0
VERTEX
  5
45D
  8
SK2
  6
CONTINUOUS
 62
     7
 10
49.0233159779
 20
192.817222737
 30
0.0
  0
VERTEX
  5
45E
  8
SK2
  6
CONTINUOUS
 62
     7
 10
49.0484474617
 20
192.690913404
 30
0.0
  0
VERTEX
  5
45F
  8
SK2
  6
CONTINUOUS
 62
     7
 10
49.0683985408
 20
192.5635966789
 30
0.0
  0
VERTEX
  5
460
  8
SK2
  6
CONTINUOUS
 62
     7
 10
49.0831788416
 20
192.4354767523
 30
0.0
  0
VERTEX
  5
461
  8
SK2
  6
CONTINUOUS
 62
     7
 10
49.0927979905
 20
192.3067578144
 30
0.0
  0
VERTEX
  5
462
  8
SK2
  6
CONTINUOUS
 62
     7
 10
49.0972656138
 20
192.1776440558
 30
0.0
  0
VERTEX
  5
463
  8
SK2
  6
CONTINUOUS
 62
     7
 10
49.0965913379
 20
192.0483396668
 30
0.0
  0
VERTEX
  5
464
  8
SK2
  6
CONTINUOUS
 62
     7
 10
49.0907847892
 20
191.9190488378
 30
0.0
  0
VERTEX
  5
465
  8
SK2
  6
CONTINUOUS
 62
     7
 10
49.079855594
 20
191.7899757592
 30
0.0
  0
VERTEX
  5
466
  8
SK2
  6
CONTINUOUS
 62
     7
 10
49.0638133787
 20
191.6613246214
 30
0.0
  0
VERTEX
  5
467
  8
SK2
  6
CONTINUOUS
 62
     7
 10
49.0426677696
 20
191.5332996149
 30
0.0
  0
VERTEX
  5
468
  8
SK2
  6
CONTINUOUS
 62
     7
 10
49.0164283931
 20
191.4061049301
 30
0.0
  0
VERTEX
  5
469
  8
SK2
  6
CONTINUOUS
 62
     7
 10
48.9851048756
 20
191.2799447572
 30
0.0
  0
VERTEX
  5
46A
  8
SK2
  6
CONTINUOUS
 62
     7
 10
48.9487068435
 20
191.1550232869
 30
0.0
  0
VERTEX
  5
46B
  8
SK2
  6
CONTINUOUS
 62
     7
 10
48.9072281877
 20
191.0315876706
 30
0.0
  0
VERTEX
  5
46C
  8
SK2
  6
CONTINUOUS
 62
     7
 10
48.8605829973
 20
190.9101029406
 30
0.0
  0
VERTEX
  5
46D
  8
SK2
  6
CONTINUOUS
 62
     7
 10
48.8086601233
 20
190.7911030345
 30
0.0
  0
VERTEX
  5
46E
  8
SK2
  6
CONTINUOUS
 62
     7
 10
48.751348407
 20
190.6751219168
 30
0.0
  0
VERTEX
  5
46F
  8
SK2
  6
CONTINUOUS
 62
     7
 10
48.6885366897
 20
190.5626935519
 30
0.0
  0
VERTEX
  5
470
  8
SK2
  6
CONTINUOUS
 62
     7
 10
48.6201138127
 20
190.4543519044
 30
0.0
  0
VERTEX
  5
471
  8
SK2
  6
CONTINUOUS
 62
     7
 10
48.5459686172
 20
190.3506309388
 30
0.0
  0
VERTEX
  5
472
  8
SK2
  6
CONTINUOUS
 62
     7
 10
48.4659899446
 20
190.2520646196
 30
0.0
  0
VERTEX
  5
473
  8
SK2
  6
CONTINUOUS
 62
     7
 10
48.3800666361
 20
190.1591869113
 30
0.0
  0
VERTEX
  5
474
  8
SK2
  6
CONTINUOUS
 62
     7
 10
48.2881205828
 20
190.072477393
 30
0.0
  0
VERTEX
  5
475
  8
SK2
  6
CONTINUOUS
 62
     7
 10
48.1903451689
 20
189.9919688857
 30
0.0
  0
VERTEX
  5
476
  8
SK2
  6
CONTINUOUS
 62
     7
 10
48.0870670017
 20
189.9174749846
 30
0.0
  0
VERTEX
  5
477
  8
SK2
  6
CONTINUOUS
 62
     7
 10
47.9786136074
 20
189.8488077717
 30
0.0
  0
VERTEX
  5
478
  8
SK2
  6
CONTINUOUS
 62
     7
 10
47.8653125127
 20
189.7857793293
 30
0.0
  0
VERTEX
  5
479
  8
SK2
  6
CONTINUOUS
 62
     7
 10
47.7474912441
 20
189.7282017393
 30
0.0
  0
VERTEX
  5
47A
  8
SK2
  6
CONTINUOUS
 62
     7
 10
47.625477328
 20
189.675887084
 30
0.0
  0
VERTEX
  5
47B
  8
SK2
  6
CONTINUOUS
 62
     7
 10
47.4995982909
 20
189.6286474455
 30
0.0
  0
VERTEX
  5
47C
  8
SK2
  6
CONTINUOUS
 62
     7
 10
47.3701816593
 20
189.5862949058
 30
0.0
  0
VERTEX
  5
47D
  8
SK2
  6
CONTINUOUS
 62
     7
 10
47.2375549598
 20
189.5486415472
 30
0.0
  0
VERTEX
  5
47E
  8
SK2
  6
CONTINUOUS
 62
     7
 10
47.1020457187
 20
189.5154994518
 30
0.0
  0
SEQEND
  5
97C
  8
SK2
  6
CONTINUOUS
 62
     7
  0
LINE
  5
151
  8
SK2
  6
CONTINUOUS
 62
     7
 10
42.3215148765
 20
194.9385447651
 30
0.0
 11
45.9858060265
 21
194.9385447651
 31
0.0
  0
LINE
  5
152
  8
SK2
  6
CONTINUOUS
 62
     7
 10
44.7134936776
 20
190.8092449516
 30
0.0
 11
44.7134936776
 21
193.1018851123
 31
0.0
  0
LINE
  5
153
  8
SK2
  6
CONTINUOUS
 62
     7
 10
44.7134936776
 20
193.1018851123
 30
0.0
 11
45.4499577767
 21
193.1018851123
 31
0.0
  0
POLYLINE
  5
154
  8
SK2
  6
CONTINUOUS
 62
     7
 66
     1
 10
0.0
 20
0.0
 30
0.0
  0
VERTEX
  5
47F
  8
SK2
  6
CONTINUOUS
 62
     7
 10
45.4499577767
 20
193.1018851123
 30
0.0
  0
VERTEX
  5
480
  8
SK2
  6
CONTINUOUS
 62
     7
 10
45.520609659
 20
193.0999633716
 30
0.0
  0
VERTEX
  5
481
  8
SK2
  6
CONTINUOUS
 62
     7
 10
45.5910309646
 20
193.0942577852
 30
0.0
  0
VERTEX
  5
482
  8
SK2
  6
CONTINUOUS
 62
     7
 10
45.6609203921
 20
193.084857806
 30
0.0
  0
VERTEX
  5
483
  8
SK2
  6
CONTINUOUS
 62
     7
 10
45.7299766399
 20
193.0718528871
 30
0.0
  0
VERTEX
  5
484
  8
SK2
  6
CONTINUOUS
 62
     7
 10
45.7978984066
 20
193.0553324815
 30
0.0
  0
VERTEX
  5
485
  8
SK2
  6
CONTINUOUS
 62
     7
 10
45.8643843909
 20
193.0353860424
 30
0.0
  0
VERTEX
  5
486
  8
SK2
  6
CONTINUOUS
 62
     7
 10
45.9291332913
 20
193.0121030228
 30
0.0
  0
VERTEX
  5
487
  8
SK2
  6
CONTINUOUS
 62
     7
 10
45.9918438064
 20
192.9855728758
 30
0.0
  0
VERTEX
  5
488
  8
SK2
  6
CONTINUOUS
 62
     7
 10
46.0522146347
 20
192.9558850545
 30
0.0
  0
VERTEX
  5
489
  8
SK2
  6
CONTINUOUS
 62
     7
 10
46.1099444748
 20
192.9231290119
 30
0.0
  0
VERTEX
  5
48A
  8
SK2
  6
CONTINUOUS
 62
     7
 10
46.1647320253
 20
192.8873942011
 30
0.0
  0
VERTEX
  5
48B
  8
SK2
  6
CONTINUOUS
 62
     7
 10
46.2162759847
 20
192.8487700752
 30
0.0
  0
VERTEX
  5
48C
  8
SK2
  6
CONTINUOUS
 62
     7
 10
46.2642842083
 20
192.8073475278
 30
0.0
  0
VERTEX
  5
48D
  8
SK2
  6
CONTINUOUS
 62
     7
 10
46.308654495
 20
192.7632473357
 30
0.0
  0
VERTEX
  5
48E
  8
SK2
  6
CONTINUOUS
 62
     7
 10
46.3494637748
 20
192.7166184577
 30
0.0
  0
VERTEX
  5
48F
  8
SK2
  6
CONTINUOUS
 62
     7
 10
46.3867959689
 20
192.6676109526
 30
0.0
  0
VERTEX
  5
490
  8
SK2
  6
CONTINUOUS
 62
     7
 10
46.4207349988
 20
192.6163748791
 30
0.0
  0
VERTEX
  5
491
  8
SK2
  6
CONTINUOUS
 62
     7
 10
46.4513647859
 20
192.5630602959
 30
0.0
  0
VERTEX
  5
492
  8
SK2
  6
CONTINUOUS
 62
     7
 10
46.4787692515
 20
192.5078172618
 30
0.0
  0
VERTEX
  5
493
  8
SK2
  6
CONTINUOUS
 62
     7
 10
46.503032317
 20
192.4507958355
 30
0.0
  0
VERTEX
  5
494
  8
SK2
  6
CONTINUOUS
 62
     7
 10
46.5242379039
 20
192.3921460758
 30
0.0
  0
VERTEX
  5
495
  8
SK2
  6
CONTINUOUS
 62
     7
 10
46.5424699336
 20
192.3320180414
 30
0.0
  0
VERTEX
  5
496
  8
SK2
  6
CONTINUOUS
 62
     7
 10
46.5578123273
 20
192.270561791
 30
0.0
  0
VERTEX
  5
497
  8
SK2
  6
CONTINUOUS
 62
     7
 10
46.5703372392
 20
192.2079390735
 30
0.0
  0
VERTEX
  5
498
  8
SK2
  6
CONTINUOUS
 62
     7
 10
46.580053351
 20
192.1443746929
 30
0.0
  0
VERTEX
  5
499
  8
SK2
  6
CONTINUOUS
 62
     7
 10
46.5869480389
 20
192.0801146189
 30
0.0
  0
VERTEX
  5
49A
  8
SK2
  6
CONTINUOUS
 62
     7
 10
46.5910086637
 20
192.0154048364
 30
0.0
  0
VERTEX
  5
49B
  8
SK2
  6
CONTINUOUS
 62
     7
 10
46.592222586
 20
191.9504913306
 30
0.0
  0
VERTEX
  5
49C
  8
SK2
  6
CONTINUOUS
 62
     7
 10
46.5905771665
 20
191.8856200866
 30
0.0
  0
VERTEX
  5
49D
  8
SK2
  6
CONTINUOUS
 62
     7
 10
46.5860597658
 20
191.8210370894
 30
0.0
  0
VERTEX
  5
49E
  8
SK2
  6
CONTINUOUS
 62
     7
 10
46.5786577447
 20
191.7569883242
 30
0.0
  0
VERTEX
  5
49F
  8
SK2
  6
CONTINUOUS
 62
     7
 10
46.5683584638
 20
191.693719776
 30
0.0
  0
VERTEX
  5
4A0
  8
SK2
  6
CONTINUOUS
 62
     7
 10
46.5551492521
 20
191.631477377
 30
0.0
  0
VERTEX
  5
4A1
  8
SK2
  6
CONTINUOUS
 62
     7
 10
46.5390014573
 20
191.5704804391
 30
0.0
  0
VERTEX
  5
4A2
  8
SK2
  6
CONTINUOUS
 62
     7
 10
46.5198445489
 20
191.5108785154
 30
0.0
  0
VERTEX
  5
4A3
  8
SK2
  6
CONTINUOUS
 62
     7
 10
46.4976012199
 20
191.4528098713
 30
0.0
  0
VERTEX
  5
4A4
  8
SK2
  6
CONTINUOUS
 62
     7
 10
46.4721941634
 20
191.3964127723
 30
0.0
  0
VERTEX
  5
4A5
  8
SK2
  6
CONTINUOUS
 62
     7
 10
46.4435460723
 20
191.3418254841
 30
0.0
  0
VERTEX
  5
4A6
  8
SK2
  6
CONTINUOUS
 62
     7
 10
46.4115796399
 20
191.2891862721
 30
0.0
  0
VERTEX
  5
4A7
  8
SK2
  6
CONTINUOUS
 62
     7
 10
46.3762175591
 20
191.2386334018
 30
0.0
  0
VERTEX
  5
4A8
  8
SK2
  6
CONTINUOUS
 62
     7
 10
46.3373825229
 20
191.1903051388
 30
0.0
  0
VERTEX
  5
4A9
  8
SK2
  6
CONTINUOUS
 62
     7
 10
46.2949972246
 20
191.1443397485
 30
0.0
  0
VERTEX
  5
4AA
  8
SK2
  6
CONTINUOUS
 62
     7
 10
46.2489890068
 20
191.1008750128
 30
0.0
  0
VERTEX
  5
4AB
  8
SK2
  6
CONTINUOUS
 62
     7
 10
46.1994572049
 20
191.060030816
 30
0.0
  0
VERTEX
  5
4AC
  8
SK2
  6
CONTINUOUS
 62
     7
 10
46.1467196346
 20
191.021904308
 30
0.0
  0
VERTEX
  5
4AD
  8
SK2
  6
CONTINUOUS
 62
     7
 10
46.0911082265
 20
190.9865911697
 30
0.0
  0
VERTEX
  5
4AE
  8
SK2
  6
CONTINUOUS
 62
     7
 10
46.0329549111
 20
190.9541870822
 30
0.0
  0
VERTEX
  5
4AF
  8
SK2
  6
CONTINUOUS
 62
     7
 10
45.9725916189
 20
190.9247877266
 30
0.0
  0
VERTEX
  5
4B0
  8
SK2
  6
CONTINUOUS
 62
     7
 10
45.9103502804
 20
190.8984887838
 30
0.0
  0
VERTEX
  5
4B1
  8
SK2
  6
CONTINUOUS
 62
     7
 10
45.8465628261
 20
190.8753859349
 30
0.0
  0
VERTEX
  5
4B2
  8
SK2
  6
CONTINUOUS
 62
     7
 10
45.7815611865
 20
190.855574861
 30
0.0
  0
VERTEX
  5
4B3
  8
SK2
  6
CONTINUOUS
 62
     7
 10
45.7156772921
 20
190.839151243
 30
0.0
  0
VERTEX
  5
4B4
  8
SK2
  6
CONTINUOUS
 62
     7
 10
45.6492430734
 20
190.8262107621
 30
0.0
  0
VERTEX
  5
4B5
  8
SK2
  6
CONTINUOUS
 62
     7
 10
45.5825904609
 20
190.8168490992
 30
0.0
  0
VERTEX
  5
4B6
  8
SK2
  6
CONTINUOUS
 62
     7
 10
45.5160513852
 20
190.8111619353
 30
0.0
  0
VERTEX
  5
4B7
  8
SK2
  6
CONTINUOUS
 62
     7
 10
45.4499577767
 20
190.8092449516
 30
0.0
  0
SEQEND
  5
97B
  8
SK2
  6
CONTINUOUS
 62
     7
  0
LINE
  5
155
  8
SK2
  6
CONTINUOUS
 62
     7
 10
45.4499577767
 20
190.8092449516
 30
0.0
 11
44.7134936776
 21
190.8092449516
 31
0.0
  0
LINE
  5
156
  8
SK2
  6
CONTINUOUS
 62
     7
 10
52.6036222119
 20
189.3556342129
 30
0.0
 11
52.6036222119
 21
187.7987305594
 31
0.0
  0
LINE
  5
157
  8
SK2
  6
CONTINUOUS
 62
     7
 10
55.2809797956
 20
189.3556342129
 30
0.0
 11
52.6036222119
 21
189.3556342129
 31
0.0
  0
LINE
  5
158
  8
SK2
  6
CONTINUOUS
 62
     7
 10
55.2809797956
 20
191.3941140266
 30
0.0
 11
55.2809797956
 21
189.3556342129
 31
0.0
  0
LINE
  5
159
  8
SK2
  6
CONTINUOUS
 62
     7
 10
55.2809797956
 20
191.3941140266
 30
0.0
 11
52.5967803419
 21
191.3941140266
 31
0.0
  0
LINE
  5
15A
  8
SK2
  6
CONTINUOUS
 62
     7
 10
52.5967803419
 20
191.3941140266
 30
0.0
 11
52.5967803419
 21
192.8944997376
 31
0.0
  0
LINE
  5
15B
  8
SK2
  6
CONTINUOUS
 62
     7
 10
55.4161311986
 20
192.8944997376
 30
0.0
 11
52.5967803419
 21
192.8944997376
 31
0.0
  0
LINE
  5
15C
  8
SK2
  6
CONTINUOUS
 62
     7
 10
55.4161311986
 20
194.9385447651
 30
0.0
 11
55.4161311986
 21
192.8944997376
 31
0.0
  0
LINE
  5
15D
  8
SK2
  6
CONTINUOUS
 62
     7
 10
50.2139862307
 20
194.9385447651
 30
0.0
 11
55.4161311986
 21
194.9385447651
 31
0.0
  0
LINE
  5
15E
  8
SK2
  6
CONTINUOUS
 62
     7
 10
50.2139862307
 20
194.9385447651
 30
0.0
 11
50.2139862307
 21
185.7546855318
 31
0.0
  0
LINE
  5
15F
  8
SK2
  6
CONTINUOUS
 62
     7
 10
50.2139862307
 20
185.7546855318
 30
0.0
 11
55.4161311986
 21
185.7546855318
 31
0.0
  0
LINE
  5
160
  8
SK2
  6
CONTINUOUS
 62
     7
 10
55.4161311986
 20
187.7987305594
 30
0.0
 11
55.4161311986
 21
185.7546855318
 31
0.0
  0
LINE
  5
161
  8
SK2
  6
CONTINUOUS
 62
     7
 10
52.6036222119
 20
187.7987305594
 30
0.0
 11
55.4161311986
 21
187.7987305594
 31
0.0
  0
POLYLINE
  5
162
  8
SK2
  6
CONTINUOUS
 62
     7
 66
     1
 10
0.0
 20
0.0
 30
0.0
  0
VERTEX
  5
4B8
  8
SK2
  6
CONTINUOUS
 62
     7
 10
62.6425442991
 20
191.7092922682
 30
0.0
  0
VERTEX
  5
4B9
  8
SK2
  6
CONTINUOUS
 62
     7
 10
62.5612731307
 20
191.8980638285
 30
0.0
  0
VERTEX
  5
4BA
  8
SK2
  6
CONTINUOUS
 62
     7
 10
62.4802294596
 20
192.0666921079
 30
0.0
  0
VERTEX
  5
4BB
  8
SK2
  6
CONTINUOUS
 62
     7
 10
62.3984314354
 20
192.2168581542
 30
0.0
  0
VERTEX
  5
4BC
  8
SK2
  6
CONTINUOUS
 62
     7
 10
62.3148972074
 20
192.350243015
 30
0.0
  0
VERTEX
  5
4BD
  8
SK2
  6
CONTINUOUS
 62
     7
 10
62.2286449248
 20
192.4685277383
 30
0.0
  0
VERTEX
  5
4BE
  8
SK2
  6
CONTINUOUS
 62
     7
 10
62.138692737
 20
192.5733933718
 30
0.0
  0
VERTEX
  5
4BF
  8
SK2
  6
CONTINUOUS
 62
     7
 10
62.0440587935
 20
192.6665209633
 30
0.0
  0
VERTEX
  5
4C0
  8
SK2
  6
CONTINUOUS
 62
     7
 10
61.9437612435
 20
192.7495915605
 30
0.0
  0
VERTEX
  5
4C1
  8
SK2
  6
CONTINUOUS
 62
     7
 10
61.8368182363
 20
192.8242862114
 30
0.0
  0
VERTEX
  5
4C2
  8
SK2
  6
CONTINUOUS
 62
     7
 10
61.7223082772
 20
192.8922183016
 30
0.0
  0
VERTEX
  5
4C3
  8
SK2
  6
CONTINUOUS
 62
     7
 10
61.6003366841
 20
192.9538501054
 30
0.0
  0
VERTEX
  5
4C4
  8
SK2
  6
CONTINUOUS
 62
     7
 10
61.4718676899
 20
193.0086810082
 30
0.0
  0
VERTEX
  5
4C5
  8
SK2
  6
CONTINUOUS
 62
     7
 10
61.3378919677
 20
193.0561807544
 30
0.0
  0
VERTEX
  5
4C6
  8
SK2
  6
CONTINUOUS
 62
     7
 10
61.1994001906
 20
193.0958190886
 30
0.0
  0
VERTEX
  5
4C7
  8
SK2
  6
CONTINUOUS
 62
     7
 10
61.0573830316
 20
193.1270657551
 30
0.0
  0
VERTEX
  5
4C8
  8
SK2
  6
CONTINUOUS
 62
     7
 10
60.9128311637
 20
193.1493904985
 30
0.0
  0
VERTEX
  5
4C9
  8
SK2
  6
CONTINUOUS
 62
     7
 10
60.7667352602
 20
193.1622630633
 30
0.0
  0
VERTEX
  5
4CA
  8
SK2
  6
CONTINUOUS
 62
     7
 10
60.6200859941
 20
193.1651531939
 30
0.0
  0
VERTEX
  5
4CB
  8
SK2
  6
CONTINUOUS
 62
     7
 10
60.4738302827
 20
193.1576269857
 30
0.0
  0
VERTEX
  5
4CC
  8
SK2
  6
CONTINUOUS
 62
     7
 10
60.3286376287
 20
193.1398614068
 30
0.0
  0
VERTEX
  5
4CD
  8
SK2
  6
CONTINUOUS
 62
     7
 10
60.185069151
 20
193.112272088
 30
0.0
  0
VERTEX
  5
4CE
  8
SK2
  6
CONTINUOUS
 62
     7
 10
60.0436857195
 20
193.0752752088
 30
0.0
  0
VERTEX
  5
4CF
  8
SK2
  6
CONTINUOUS
 62
     7
 10
59.905048204
 20
193.0292869487
 30
0.0
  0
VERTEX
  5
4D0
  8
SK2
  6
CONTINUOUS
 62
     7
 10
59.7697174744
 20
192.9747234871
 30
0.0
  0
VERTEX
  5
4D1
  8
SK2
  6
CONTINUOUS
 62
     7
 10
59.6382544005
 20
192.9120010036
 30
0.0
  0
VERTEX
  5
4D2
  8
SK2
  6
CONTINUOUS
 62
     7
 10
59.5112198521
 20
192.8415356775
 30
0.0
  0
VERTEX
  5
4D3
  8
SK2
  6
CONTINUOUS
 62
     7
 10
59.3891746991
 20
192.7637436886
 30
0.0
  0
VERTEX
  5
4D4
  8
SK2
  6
CONTINUOUS
 62
     7
 10
59.2726798113
 20
192.6790412161
 30
0.0
  0
VERTEX
  5
4D5
  8
SK2
  6
CONTINUOUS
 62
     7
 10
59.1622960586
 20
192.5878444396
 30
0.0
  0
VERTEX
  5
4D6
  8
SK2
  6
CONTINUOUS
 62
     7
 10
59.0585843108
 20
192.4905695387
 30
0.0
  0
VERTEX
  5
4D7
  8
SK2
  6
CONTINUOUS
 62
     7
 10
58.9621054377
 20
192.3876326927
 30
0.0
  0
VERTEX
  5
4D8
  8
SK2
  6
CONTINUOUS
 62
     7
 10
58.8733344978
 20
192.2794490922
 30
0.0
  0
VERTEX
  5
4D9
  8
SK2
  6
CONTINUOUS
 62
     7
 10
58.7921705982
 20
192.1664272898
 30
0.0
  0
VERTEX
  5
4DA
  8
SK2
  6
CONTINUOUS
 62
     7
 10
58.7182758549
 20
192.0489731068
 30
0.0
  0
VERTEX
  5
4DB
  8
SK2
  6
CONTINUOUS
 62
     7
 10
58.6513116514
 20
191.927492356
 30
0.0
  0
VERTEX
  5
4DC
  8
SK2
  6
CONTINUOUS
 62
     7
 10
58.590939371
 20
191.8023908502
 30
0.0
  0
VERTEX
  5
4DD
  8
SK2
  6
CONTINUOUS
 62
     7
 10
58.5368203971
 20
191.6740744022
 30
0.0
  0
VERTEX
  5
4DE
  8
SK2
  6
CONTINUOUS
 62
     7
 10
58.4886161131
 20
191.5429488249
 30
0.0
  0
VERTEX
  5
4DF
  8
SK2
  6
CONTINUOUS
 62
     7
 10
58.4459879023
 20
191.4094199311
 30
0.0
  0
VERTEX
  5
4E0
  8
SK2
  6
CONTINUOUS
 62
     7
 10
58.4085971483
 20
191.2738935335
 30
0.0
  0
VERTEX
  5
4E1
  8
SK2
  6
CONTINUOUS
 62
     7
 10
58.3761052343
 20
191.1367754451
 30
0.0
  0
VERTEX
  5
4E2
  8
SK2
  6
CONTINUOUS
 62
     7
 10
58.3482364752
 20
190.9984458361
 30
0.0
  0
VERTEX
  5
4E3
  8
SK2
  6
CONTINUOUS
 62
     7
 10
58.3249985993
 20
190.859169395
 30
0.0
  0
VERTEX
  5
4E4
  8
SK2
  6
CONTINUOUS
 62
     7
 10
58.306479082
 20
190.7191783161
 30
0.0
  0
VERTEX
  5
4E5
  8
SK2
  6
CONTINUOUS
 62
     7
 10
58.2927654032
 20
190.5787047915
 30
0.0
  0
VERTEX
  5
4E6
  8
SK2
  6
CONTINUOUS
 62
     7
 10
58.2839450429
 20
190.4379810135
 30
0.0
  0
VERTEX
  5
4E7
  8
SK2
  6
CONTINUOUS
 62
     7
 10
58.280105481
 20
190.2972391746
 30
0.0
  0
VERTEX
  5
4E8
  8
SK2
  6
CONTINUOUS
 62
     7
 10
58.2813341973
 20
190.1567114671
 30
0.0
  0
VERTEX
  5
4E9
  8
SK2
  6
CONTINUOUS
 62
     7
 10
58.2877186718
 20
190.0166300831
 30
0.0
  0
VERTEX
  5
4EA
  8
SK2
  6
CONTINUOUS
 62
     7
 10
58.2993463844
 20
189.8772272152
 30
0.0
  0
VERTEX
  5
4EB
  8
SK2
  6
CONTINUOUS
 62
     7
 10
58.316304815
 20
189.7387350555
 30
0.0
  0
VERTEX
  5
4EC
  8
SK2
  6
CONTINUOUS
 62
     7
 10
58.3386814436
 20
189.6013857963
 30
0.0
  0
VERTEX
  5
4ED
  8
SK2
  6
CONTINUOUS
 62
     7
 10
58.3665637499
 20
189.4654116301
 30
0.0
  0
VERTEX
  5
4EE
  8
SK2
  6
CONTINUOUS
 62
     7
 10
58.4000392141
 20
189.3310447491
 30
0.0
  0
VERTEX
  5
4EF
  8
SK2
  6
CONTINUOUS
 62
     7
 10
58.4391878546
 20
189.1985212238
 30
0.0
  0
VERTEX
  5
4F0
  8
SK2
  6
CONTINUOUS
 62
     7
 10
58.4840299572
 20
189.0681081724
 30
0.0
  0
VERTEX
  5
4F1
  8
SK2
  6
CONTINUOUS
 62
     7
 10
58.5345571279
 20
188.9400876201
 30
0.0
  0
VERTEX
  5
4F2
  8
SK2
  6
CONTINUOUS
 62
     7
 10
58.5907607911
 20
188.8147416863
 30
0.0
  0
VERTEX
  5
4F3
  8
SK2
  6
CONTINUOUS
 62
     7
 10
58.6526323713
 20
188.6923524906
 30
0.0
  0
VERTEX
  5
4F4
  8
SK2
  6
CONTINUOUS
 62
     7
 10
58.7201632928
 20
188.5732021526
 30
0.0
  0
VERTEX
  5
4F5
  8
SK2
  6
CONTINUOUS
 62
     7
 10
58.7933449801
 20
188.4575727919
 30
0.0
  0
VERTEX
  5
4F6
  8
SK2
  6
CONTINUOUS
 62
     7
 10
58.8721688575
 20
188.3457465279
 30
0.0
  0
VERTEX
  5
4F7
  8
SK2
  6
CONTINUOUS
 62
     7
 10
58.9566263494
 20
188.2380054802
 30
0.0
  0
VERTEX
  5
4F8
  8
SK2
  6
CONTINUOUS
 62
     7
 10
59.0467057192
 20
188.1346521516
 30
0.0
  0
VERTEX
  5
4F9
  8
SK2
  6
CONTINUOUS
 62
     7
 10
59.1423714038
 20
188.0361426739
 30
0.0
  0
VERTEX
  5
4FA
  8
SK2
  6
CONTINUOUS
 62
     7
 10
59.2435769774
 20
187.9430032218
 30
0.0
  0
VERTEX
  5
4FB
  8
SK2
  6
CONTINUOUS
 62
     7
 10
59.3502759589
 20
187.8557603265
 30
0.0
  0
VERTEX
  5
4FC
  8
SK2
  6
CONTINUOUS
 62
     7
 10
59.4624218673
 20
187.7749405192
 30
0.0
  0
VERTEX
  5
4FD
  8
SK2
  6
CONTINUOUS
 62
     7
 10
59.5799682215
 20
187.7010703312
 30
0.0
  0
VERTEX
  5
4FE
  8
SK2
  6
CONTINUOUS
 62
     7
 10
59.7028685403
 20
187.6346762936
 30
0.0
  0
VERTEX
  5
4FF
  8
SK2
  6
CONTINUOUS
 62
     7
 10
59.8310763426
 20
187.5762849377
 30
0.0
  0
VERTEX
  5
500
  8
SK2
  6
CONTINUOUS
 62
     7
 10
59.9645081068
 20
187.5263988997
 30
0.0
  0
VERTEX
  5
501
  8
SK2
  6
CONTINUOUS
 62
     7
 10
60.1026522527
 20
187.4852446749
 30
0.0
  0
VERTEX
  5
502
  8
SK2
  6
CONTINUOUS
 62
     7
 10
60.2447222349
 20
187.4528713777
 30
0.0
  0
VERTEX
  5
503
  8
SK2
  6
CONTINUOUS
 62
     7
 10
60.3899269785
 20
187.4293252011
 30
0.0
  0
VERTEX
  5
504
  8
SK2
  6
CONTINUOUS
 62
     7
 10
60.537475409
 20
187.4146523377
 30
0.0
  0
VERTEX
  5
505
  8
SK2
  6
CONTINUOUS
 62
     7
 10
60.6865764516
 20
187.4088989803
 30
0.0
  0
VERTEX
  5
506
  8
SK2
  6
CONTINUOUS
 62
     7
 10
60.8364390315
 20
187.4121113218
 30
0.0
  0
VERTEX
  5
507
  8
SK2
  6
CONTINUOUS
 62
     7
 10
60.9862720742
 20
187.424335555
 30
0.0
  0
VERTEX
  5
508
  8
SK2
  6
CONTINUOUS
 62
     7
 10
61.1352845049
 20
187.4456178726
 30
0.0
  0
VERTEX
  5
509
  8
SK2
  6
CONTINUOUS
 62
     7
 10
61.282685249
 20
187.4760044674
 30
0.0
  0
VERTEX
  5
50A
  8
SK2
  6
CONTINUOUS
 62
     7
 10
61.4276832316
 20
187.5155415323
 30
0.0
  0
VERTEX
  5
50B
  8
SK2
  6
CONTINUOUS
 62
     7
 10
61.56940339
 20
187.5642495037
 30
0.0
  0
VERTEX
  5
50C
  8
SK2
  6
CONTINUOUS
 62
     7
 10
61.7066425662
 20
187.6220482026
 30
0.0
  0
VERTEX
  5
50D
  8
SK2
  6
CONTINUOUS
 62
     7
 10
61.8381174971
 20
187.6888328844
 30
0.0
  0
VERTEX
  5
50E
  8
SK2
  6
CONTINUOUS
 62
     7
 10
61.9625449194
 20
187.7644988047
 30
0.0
  0
VERTEX
  5
50F
  8
SK2
  6
CONTINUOUS
 62
     7
 10
62.07864157
 20
187.8489412188
 30
0.0
  0
VERTEX
  5
510
  8
SK2
  6
CONTINUOUS
 62
     7
 10
62.1851241858
 20
187.9420553823
 30
0.0
  0
VERTEX
  5
511
  8
SK2
  6
CONTINUOUS
 62
     7
 10
62.2807291651
 20
188.0437445491
 30
0.0
  0
VERTEX
  5
512
  8
SK2
  6
CONTINUOUS
 62
     7
 10
62.3646386632
 20
188.154093317
 30
0.0
  0
VERTEX
  5
513
  8
SK2
  6
CONTINUOUS
 62
     7
 10
62.4364770347
 20
188.2733661794
 30
0.0
  0
VERTEX
  5
514
  8
SK2
  6
CONTINUOUS
 62
     7
 10
62.4958875841
 20
188.401835339
 30
0.0
  0
VERTEX
  5
515
  8
SK2
  6
CONTINUOUS
 62
     7
 10
62.542513616
 20
188.5397729988
 30
0.0
  0
VERTEX
  5
516
  8
SK2
  6
CONTINUOUS
 62
     7
 10
62.5759984349
 20
188.6874513614
 30
0.0
  0
VERTEX
  5
517
  8
SK2
  6
CONTINUOUS
 62
     7
 10
62.5959853452
 20
188.8451426295
 30
0.0
  0
VERTEX
  5
518
  8
SK2
  6
CONTINUOUS
 62
     7
 10
62.6021176516
 20
189.013119006
 30
0.0
  0
SEQEND
  5
97A
  8
SK2
  6
CONTINUOUS
 62
     7
  0
LINE
  5
163
  8
SK2
  6
CONTINUOUS
 62
     7
 10
62.6425442991
 20
191.7092922682
 30
0.0
 11
64.9049961085
 21
192.6489136255
 31
0.0
  0
POLYLINE
  5
164
  8
SK2
  6
CONTINUOUS
 62
     7
 66
     1
 10
0.0
 20
0.0
 30
0.0
  0
VERTEX
  5
519
  8
SK2
  6
CONTINUOUS
 62
     7
 10
65.395323693
 20
190.8766363853
 30
0.0
  0
VERTEX
  5
51A
  8
SK2
  6
CONTINUOUS
 62
     7
 10
65.3968312269
 20
190.6475621987
 30
0.0
  0
VERTEX
  5
51B
  8
SK2
  6
CONTINUOUS
 62
     7
 10
65.3959494418
 20
190.4249454979
 30
0.0
  0
VERTEX
  5
51C
  8
SK2
  6
CONTINUOUS
 62
     7
 10
65.3918931285
 20
190.2079364514
 30
0.0
  0
VERTEX
  5
51D
  8
SK2
  6
CONTINUOUS
 62
     7
 10
65.3838770779
 20
189.9956852278
 30
0.0
  0
VERTEX
  5
51E
  8
SK2
  6
CONTINUOUS
 62
     7
 10
65.3711160809
 20
189.7873419958
 30
0.0
  0
VERTEX
  5
51F
  8
SK2
  6
CONTINUOUS
 62
     7
 10
65.3528249285
 20
189.5820569239
 30
0.0
  0
VERTEX
  5
520
  8
SK2
  6
CONTINUOUS
 62
     7
 10
65.3282184116
 20
189.3789801808
 30
0.0
  0
VERTEX
  5
521
  8
SK2
  6
CONTINUOUS
 62
     7
 10
65.296511321
 20
189.177261935
 30
0.0
  0
VERTEX
  5
522
  8
SK2
  6
CONTINUOUS
 62
     7
 10
65.2569184476
 20
188.9760523551
 30
0.0
  0
VERTEX
  5
523
  8
SK2
  6
CONTINUOUS
 62
     7
 10
65.2086903019
 20
188.7745810811
 30
0.0
  0
VERTEX
  5
524
  8
SK2
  6
CONTINUOUS
 62
     7
 10
65.1515143812
 20
188.5730499938
 30
0.0
  0
VERTEX
  5
525
  8
SK2
  6
CONTINUOUS
 62
     7
 10
65.0853707923
 20
188.3723119934
 30
0.0
  0
VERTEX
  5
526
  8
SK2
  6
CONTINUOUS
 62
     7
 10
65.0102450224
 20
188.1732319502
 30
0.0
  0
VERTEX
  5
527
  8
SK2
  6
CONTINUOUS
 62
     7
 10
64.9261225584
 20
187.9766747344
 30
0.0
  0
VERTEX
  5
528
  8
SK2
  6
CONTINUOUS
 62
     7
 10
64.8329888873
 20
187.7835052163
 30
0.0
  0
VERTEX
  5
529
  8
SK2
  6
CONTINUOUS
 62
     7
 10
64.7308294962
 20
187.594588266
 30
0.0
  0
VERTEX
  5
52A
  8
SK2
  6
CONTINUOUS
 62
     7
 10
64.619629872
 20
187.4107887539
 30
0.0
  0
VERTEX
  5
52B
  8
SK2
  6
CONTINUOUS
 62
     7
 10
64.4993755017
 20
187.23297155
 30
0.0
  0
VERTEX
  5
52C
  8
SK2
  6
CONTINUOUS
 62
     7
 10
64.3700734626
 20
187.0619781452
 30
0.0
  0
VERTEX
  5
52D
  8
SK2
  6
CONTINUOUS
 62
     7
 10
64.2320129143
 20
186.8983445695
 30
0.0
  0
VERTEX
  5
52E
  8
SK2
  6
CONTINUOUS
 62
     7
 10
64.0856809491
 20
186.7423925169
 30
0.0
  0
VERTEX
  5
52F
  8
SK2
  6
CONTINUOUS
 62
     7
 10
63.9315687544
 20
186.5944392463
 30
0.0
  0
VERTEX
  5
530
  8
SK2
  6
CONTINUOUS
 62
     7
 10
63.7701675176
 20
186.454802017
 30
0.0
  0
VERTEX
  5
531
  8
SK2
  6
CONTINUOUS
 62
     7
 10
63.6019684263
 20
186.323798088
 30
0.0
  0
VERTEX
  5
532
  8
SK2
  6
CONTINUOUS
 62
     7
 10
63.4274626677
 20
186.2017447184
 30
0.0
  0
VERTEX
  5
533
  8
SK2
  6
CONTINUOUS
 62
     7
 10
63.2471414295
 20
186.0889591673
 30
0.0
  0
VERTEX
  5
534
  8
SK2
  6
CONTINUOUS
 62
     7
 10
63.061495899
 20
185.9857586938
 30
0.0
  0
VERTEX
  5
535
  8
SK2
  6
CONTINUOUS
 62
     7
 10
62.8710118672
 20
185.8924243754
 30
0.0
  0
VERTEX
  5
536
  8
SK2
  6
CONTINUOUS
 62
     7
 10
62.6761231832
 20
185.8088890395
 30
0.0
  0
VERTEX
  5
537
  8
SK2
  6
CONTINUOUS
 62
     7
 10
62.477234687
 20
185.7348910172
 30
0.0
  0
VERTEX
  5
538
  8
SK2
  6
CONTINUOUS
 62
     7
 10
62.2747509022
 20
185.6701665192
 30
0.0
  0
VERTEX
  5
539
  8
SK2
  6
CONTINUOUS
 62
     7
 10
62.0690763523
 20
185.6144517561
 30
0.0
  0
VERTEX
  5
53A
  8
SK2
  6
CONTINUOUS
 62
     7
 10
61.8606155611
 20
185.5674829387
 30
0.0
  0
VERTEX
  5
53B
  8
SK2
  6
CONTINUOUS
 62
     7
 10
61.649773052
 20
185.5289962775
 30
0.0
  0
VERTEX
  5
53C
  8
SK2
  6
CONTINUOUS
 62
     7
 10
61.4369533489
 20
185.4987279833
 30
0.0
  0
VERTEX
  5
53D
  8
SK2
  6
CONTINUOUS
 62
     7
 10
61.2225609752
 20
185.4764142667
 30
0.0
  0
VERTEX
  5
53E
  8
SK2
  6
CONTINUOUS
 62
     7
 10
61.0070004547
 20
185.4617913385
 30
0.0
  0
VERTEX
  5
53F
  8
SK2
  6
CONTINUOUS
 62
     7
 10
60.7906763108
 20
185.4545954091
 30
0.0
  0
VERTEX
  5
540
  8
SK2
  6
CONTINUOUS
 62
     7
 10
60.5739934004
 20
185.4545660131
 30
0.0
  0
VERTEX
  5
541
  8
SK2
  6
CONTINUOUS
 62
     7
 10
60.3573738523
 20
185.4616150351
 30
0.0
  0
VERTEX
  5
542
  8
SK2
  6
CONTINUOUS
 62
     7
 10
60.1412651139
 20
185.4759070043
 30
0.0
  0
VERTEX
  5
543
  8
SK2
  6
CONTINUOUS
 62
     7
 10
59.9261166494
 20
185.4976265718
 30
0.0
  0
VERTEX
  5
544
  8
SK2
  6
CONTINUOUS
 62
     7
 10
59.7123779228
 20
185.526958389
 30
0.0
  0
VERTEX
  5
545
  8
SK2
  6
CONTINUOUS
 62
     7
 10
59.5004983983
 20
185.5640871072
 30
0.0
  0
VERTEX
  5
546
  8
SK2
  6
CONTINUOUS
 62
     7
 10
59.2909275399
 20
185.6091973777
 30
0.0
  0
VERTEX
  5
547
  8
SK2
  6
CONTINUOUS
 62
     7
 10
59.0841148118
 20
185.6624738518
 30
0.0
  0
VERTEX
  5
548
  8
SK2
  6
CONTINUOUS
 62
     7
 10
58.8805096779
 20
185.7241011806
 30
0.0
  0
VERTEX
  5
549
  8
SK2
  6
CONTINUOUS
 62
     7
 10
58.6805616025
 20
185.7942640157
 30
0.0
  0
VERTEX
  5
54A
  8
SK2
  6
CONTINUOUS
 62
     7
 10
58.4847200495
 20
185.8731470081
 30
0.0
  0
VERTEX
  5
54B
  8
SK2
  6
CONTINUOUS
 62
     7
 10
58.2934325925
 20
185.9609208212
 30
0.0
  0
VERTEX
  5
54C
  8
SK2
  6
CONTINUOUS
 62
     7
 10
58.1071172289
 20
186.0575373013
 30
0.0
  0
VERTEX
  5
54D
  8
SK2
  6
CONTINUOUS
 62
     7
 10
57.9261685126
 20
186.1627748464
 30
0.0
  0
VERTEX
  5
54E
  8
SK2
  6
CONTINUOUS
 62
     7
 10
57.7509803538
 20
186.2764070941
 30
0.0
  0
VERTEX
  5
54F
  8
SK2
  6
CONTINUOUS
 62
     7
 10
57.581946663
 20
186.398207682
 30
0.0
  0
VERTEX
  5
550
  8
SK2
  6
CONTINUOUS
 62
     7
 10
57.4194613505
 20
186.5279502477
 30
0.0
  0
VERTEX
  5
551
  8
SK2
  6
CONTINUOUS
 62
     7
 10
57.2639183266
 20
186.6654084288
 30
0.0
  0
VERTEX
  5
552
  8
SK2
  6
CONTINUOUS
 62
     7
 10
57.1157115018
 20
186.8103558629
 30
0.0
  0
VERTEX
  5
553
  8
SK2
  6
CONTINUOUS
 62
     7
 10
56.975229098
 20
186.9625630679
 30
0.0
  0
VERTEX
  5
554
  8
SK2
  6
CONTINUOUS
 62
     7
 10
56.8426976685
 20
187.1217118961
 30
0.0
  0
VERTEX
  5
555
  8
SK2
  6
CONTINUOUS
 62
     7
 10
56.7181628457
 20
187.2873849757
 30
0.0
  0
VERTEX
  5
556
  8
SK2
  6
CONTINUOUS
 62
     7
 10
56.6016607084
 20
187.4591596952
 30
0.0
  0
VERTEX
  5
557
  8
SK2
  6
CONTINUOUS
 62
     7
 10
56.4932273351
 20
187.6366134431
 30
0.0
  0
VERTEX
  5
558
  8
SK2
  6
CONTINUOUS
 62
     7
 10
56.3928988047
 20
187.819323608
 30
0.0
  0
VERTEX
  5
559
  8
SK2
  6
CONTINUOUS
 62
     7
 10
56.3007111957
 20
188.0068675783
 30
0.0
  0
VERTEX
  5
55A
  8
SK2
  6
CONTINUOUS
 62
     7
 10
56.2167005869
 20
188.1988227427
 30
0.0
  0
VERTEX
  5
55B
  8
SK2
  6
CONTINUOUS
 62
     7
 10
56.140903057
 20
188.3947664895
 30
0.0
  0
VERTEX
  5
55C
  8
SK2
  6
CONTINUOUS
 62
     7
 10
56.0733331285
 20
188.5942922601
 30
0.0
  0
VERTEX
  5
55D
  8
SK2
  6
CONTINUOUS
 62
     7
 10
56.0138782273
 20
188.7970881443
 30
0.0
  0
VERTEX
  5
55E
  8
SK2
  6
CONTINUOUS
 62
     7
 10
55.9623793581
 20
189.0028768016
 30
0.0
  0
VERTEX
  5
55F
  8
SK2
  6
CONTINUOUS
 62
     7
 10
55.9186774569
 20
189.2113809424
 30
0.0
  0
VERTEX
  5
560
  8
SK2
  6
CONTINUOUS
 62
     7
 10
55.8826134601
 20
189.4223232773
 30
0.0
  0
VERTEX
  5
561
  8
SK2
  6
CONTINUOUS
 62
     7
 10
55.8540283038
 20
189.6354265166
 30
0.0
  0
VERTEX
  5
562
  8
SK2
  6
CONTINUOUS
 62
     7
 10
55.8327629243
 20
189.8504133708
 30
0.0
  0
VERTEX
  5
563
  8
SK2
  6
CONTINUOUS
 62
     7
 10
55.8186582578
 20
190.0670065505
 30
0.0
  0
VERTEX
  5
564
  8
SK2
  6
CONTINUOUS
 62
     7
 10
55.8115552405
 20
190.284928766
 30
0.0
  0
VERTEX
  5
565
  8
SK2
  6
CONTINUOUS
 62
     7
 10
55.8113792134
 20
190.5038697054
 30
0.0
  0
VERTEX
  5
566
  8
SK2
  6
CONTINUOUS
 62
     7
 10
55.8184284736
 20
190.7233731428
 30
0.0
  0
VERTEX
  5
567
  8
SK2
  6
CONTINUOUS
 62
     7
 10
55.8331042963
 20
190.9429425629
 30
0.0
  0
VERTEX
  5
568
  8
SK2
  6
CONTINUOUS
 62
     7
 10
55.8558079604
 20
191.1620814493
 30
0.0
  0
VERTEX
  5
569
  8
SK2
  6
CONTINUOUS
 62
     7
 10
55.8869407448
 20
191.3802932855
 30
0.0
  0
VERTEX
  5
56A
  8
SK2
  6
CONTINUOUS
 62
     7
 10
55.9269039282
 20
191.597081555
 30
0.0
  0
VERTEX
  5
56B
  8
SK2
  6
CONTINUOUS
 62
     7
 10
55.9760987895
 20
191.8119497415
 30
0.0
  0
VERTEX
  5
56C
  8
SK2
  6
CONTINUOUS
 62
     7
 10
56.0349266074
 20
192.0244013284
 30
0.0
  0
VERTEX
  5
56D
  8
SK2
  6
CONTINUOUS
 62
     7
 10
56.1037886609
 20
192.2339397993
 30
0.0
  0
VERTEX
  5
56E
  8
SK2
  6
CONTINUOUS
 62
     7
 10
56.1830862286
 20
192.4400686376
 30
0.0
  0
VERTEX
  5
56F
  8
SK2
  6
CONTINUOUS
 62
     7
 10
56.2732204916
 20
192.6422913154
 30
0.0
  0
VERTEX
  5
570
  8
SK2
  6
CONTINUOUS
 62
     7
 10
56.3743590243
 20
192.8400834383
 30
0.0
  0
VERTEX
  5
571
  8
SK2
  6
CONTINUOUS
 62
     7
 10
56.485935054
 20
193.0328330144
 30
0.0
  0
VERTEX
  5
572
  8
SK2
  6
CONTINUOUS
 62
     7
 10
56.6072378823
 20
193.2199108835
 30
0.0
  0
VERTEX
  5
573
  8
SK2
  6
CONTINUOUS
 62
     7
 10
56.7375568109
 20
193.4006878853
 30
0.0
  0
VERTEX
  5
574
  8
SK2
  6
CONTINUOUS
 62
     7
 10
56.8761811413
 20
193.5745348594
 30
0.0
  0
VERTEX
  5
575
  8
SK2
  6
CONTINUOUS
 62
     7
 10
57.0224001754
 20
193.7408226456
 30
0.0
  0
VERTEX
  5
576
  8
SK2
  6
CONTINUOUS
 62
     7
 10
57.1755032146
 20
193.8989220836
 30
0.0
  0
VERTEX
  5
577
  8
SK2
  6
CONTINUOUS
 62
     7
 10
57.3347867242
 20
194.0482178304
 30
0.0
  0
VERTEX
  5
578
  8
SK2
  6
CONTINUOUS
 62
     7
 10
57.4997096168
 20
194.1884078837
 30
0.0
  0
VERTEX
  5
579
  8
SK2
  6
CONTINUOUS
 62
     7
 10
57.6698919803
 20
194.3195011274
 30
0.0
  0
VERTEX
  5
57A
  8
SK2
  6
CONTINUOUS
 62
     7
 10
57.8449608112
 20
194.4415197714
 30
0.0
  0
VERTEX
  5
57B
  8
SK2
  6
CONTINUOUS
 62
     7
 10
58.0245431061
 20
194.5544860255
 30
0.0
  0
VERTEX
  5
57C
  8
SK2
  6
CONTINUOUS
 62
     7
 10
58.2082658616
 20
194.6584220996
 30
0.0
  0
VERTEX
  5
57D
  8
SK2
  6
CONTINUOUS
 62
     7
 10
58.3957560744
 20
194.7533502038
 30
0.0
  0
VERTEX
  5
57E
  8
SK2
  6
CONTINUOUS
 62
     7
 10
58.5866407408
 20
194.8392925479
 30
0.0
  0
VERTEX
  5
57F
  8
SK2
  6
CONTINUOUS
 62
     7
 10
58.7805468577
 20
194.9162713417
 30
0.0
  0
VERTEX
  5
580
  8
SK2
  6
CONTINUOUS
 62
     7
 10
58.977118444
 20
194.9843440522
 30
0.0
  0
VERTEX
  5
581
  8
SK2
  6
CONTINUOUS
 62
     7
 10
59.1760872995
 20
195.0437499558
 30
0.0
  0
VERTEX
  5
582
  8
SK2
  6
CONTINUOUS
 62
     7
 10
59.3772134374
 20
195.0947867643
 30
0.0
  0
VERTEX
  5
583
  8
SK2
  6
CONTINUOUS
 62
     7
 10
59.5802568841
 20
195.1377522168
 30
0.0
  0
VERTEX
  5
584
  8
SK2
  6
CONTINUOUS
 62
     7
 10
59.7849776658
 20
195.1729440526
 30
0.0
  0
VERTEX
  5
585
  8
SK2
  6
CONTINUOUS
 62
     7
 10
59.9911358092
 20
195.2006600109
 30
0.0
  0
VERTEX
  5
586
  8
SK2
  6
CONTINUOUS
 62
     7
 10
60.1984913404
 20
195.2211978308
 30
0.0
  0
VERTEX
  5
587
  8
SK2
  6
CONTINUOUS
 62
     7
 10
60.4068042861
 20
195.2348552516
 30
0.0
  0
VERTEX
  5
588
  8
SK2
  6
CONTINUOUS
 62
     7
 10
60.6158346725
 20
195.2419300126
 30
0.0
  0
VERTEX
  5
589
  8
SK2
  6
CONTINUOUS
 62
     7
 10
60.8253423252
 20
195.2427191187
 30
0.0
  0
VERTEX
  5
58A
  8
SK2
  6
CONTINUOUS
 62
     7
 10
61.0350309562
 20
195.2373145326
 30
0.0
  0
VERTEX
  5
58B
  8
SK2
  6
CONTINUOUS
 62
     7
 10
61.2444716831
 20
195.2253237064
 30
0.0
  0
VERTEX
  5
58C
  8
SK2
  6
CONTINUOUS
 62
     7
 10
61.4532164769
 20
195.2062841288
 30
0.0
  0
VERTEX
  5
58D
  8
SK2
  6
CONTINUOUS
 62
     7
 10
61.6608173083
 20
195.1797332888
 30
0.0
  0
VERTEX
  5
58E
  8
SK2
  6
CONTINUOUS
 62
     7
 10
61.8668261483
 20
195.1452086753
 30
0.0
  0
VERTEX
  5
58F
  8
SK2
  6
CONTINUOUS
 62
     7
 10
62.0707949678
 20
195.1022477772
 30
0.0
  0
VERTEX
  5
590
  8
SK2
  6
CONTINUOUS
 62
     7
 10
62.2722757377
 20
195.0503880834
 30
0.0
  0
VERTEX
  5
591
  8
SK2
  6
CONTINUOUS
 62
     7
 10
62.4708204289
 20
194.9891670829
 30
0.0
  0
VERTEX
  5
592
  8
SK2
  6
CONTINUOUS
 62
     7
 10
62.6659810124
 20
194.9181222645
 30
0.0
  0
VERTEX
  5
593
  8
SK2
  6
CONTINUOUS
 62
     7
 10
62.8573094589
 20
194.8367911171
 30
0.0
  0
VERTEX
  5
594
  8
SK2
  6
CONTINUOUS
 62
     7
 10
63.0443325451
 20
194.7448426718
 30
0.0
  0
VERTEX
  5
595
  8
SK2
  6
CONTINUOUS
 62
     7
 10
63.2264216009
 20
194.6427575546
 30
0.0
  0
VERTEX
  5
596
  8
SK2
  6
CONTINUOUS
 62
     7
 10
63.4028887294
 20
194.53132562
 30
0.0
  0
VERTEX
  5
597
  8
SK2
  6
CONTINUOUS
 62
     7
 10
63.5730459172
 20
194.41133733
 30
0.0
  0
VERTEX
  5
598
  8
SK2
  6
CONTINUOUS
 62
     7
 10
63.736205151
 20
194.2835831469
 30
0.0
  0
VERTEX
  5
599
  8
SK2
  6
CONTINUOUS
 62
     7
 10
63.8916789066
 20
194.1488525233
 30
0.0
  0
VERTEX
  5
59A
  8
SK2
  6
CONTINUOUS
 62
     7
 10
64.0391209844
 20
194.0072303522
 30
0.0
  0
VERTEX
  5
59B
  8
SK2
  6
CONTINUOUS
 62
     7
 10
64.1791233009
 20
193.8568650772
 30
0.0
  0
VERTEX
  5
59C
  8
SK2
  6
CONTINUOUS
 62
     7
 10
64.3124375327
 20
193.6955753659
 30
0.0
  0
VERTEX
  5
59D
  8
SK2
  6
CONTINUOUS
 62
     7
 10
64.4398153566
 20
193.5211798856
 30
0.0
  0
VERTEX
  5
59E
  8
SK2
  6
CONTINUOUS
 62
     7
 10
64.5620084494
 20
193.331497304
 30
0.0
  0
VERTEX
  5
59F
  8
SK2
  6
CONTINUOUS
 62
     7
 10
64.6797684878
 20
193.1243462884
 30
0.0
  0
VERTEX
  5
5A0
  8
SK2
  6
CONTINUOUS
 62
     7
 10
64.7938471486
 20
192.8975455064
 30
0.0
  0
VERTEX
  5
5A1
  8
SK2
  6
CONTINUOUS
 62
     7
 10
64.9049961085
 20
192.6489136255
 30
0.0
  0
SEQEND
  5
979
  8
SK2
  6
CONTINUOUS
 62
     7
  0
LINE
  5
165
  8
SK2
  6
CONTINUOUS
 62
     7
 10
60.6775074844
 20
190.8766363853
 30
0.0
 11
65.395323693
 21
190.8766363853
 31
0.0
  0
LINE
  5
166
  8
SK2
  6
CONTINUOUS
 62
     7
 10
60.6775074844
 20
189.013119006
 30
0.0
 11
60.6775074844
 21
190.8766363853
 31
0.0
  0
LINE
  5
167
  8
SK2
  6
CONTINUOUS
 62
     7
 10
62.6021176516
 20
189.013119006
 30
0.0
 11
60.6775074844
 21
189.013119006
 31
0.0
  0
POLYLINE
  5
168
  8
SK2
  6
CONTINUOUS
 62
     7
 66
     1
 10
0.0
 20
0.0
 30
0.0
  0
VERTEX
  5
5A2
  8
SK2
  6
CONTINUOUS
 62
     7
 10
70.9604946132
 20
185.470644977
 30
0.0
  0
VERTEX
  5
5A3
  8
SK2
  6
CONTINUOUS
 62
     7
 10
70.6835682724
 20
185.4783475885
 30
0.0
  0
VERTEX
  5
5A4
  8
SK2
  6
CONTINUOUS
 62
     7
 10
70.3990528835
 20
185.5017571317
 30
0.0
  0
VERTEX
  5
5A5
  8
SK2
  6
CONTINUOUS
 62
     7
 10
70.1080656771
 20
185.5421820866
 30
0.0
  0
VERTEX
  5
5A6
  8
SK2
  6
CONTINUOUS
 62
     7
 10
69.8119462432
 20
185.6008677367
 30
0.0
  0
VERTEX
  5
5A7
  8
SK2
  6
CONTINUOUS
 62
     7
 10
69.5122601605
 20
185.6789585571
 30
0.0
  0
VERTEX
  5
5A8
  8
SK2
  6
CONTINUOUS
 62
     7
 10
69.2107954679
 20
185.7774573263
 30
0.0
  0
VERTEX
  5
5A9
  8
SK2
  6
CONTINUOUS
 62
     7
 10
68.9095506764
 20
185.8971823107
 30
0.0
  0
VERTEX
  5
5AA
  8
SK2
  6
CONTINUOUS
 62
     7
 10
68.6107132896
 20
186.0387243088
 30
0.0
  0
VERTEX
  5
5AB
  8
SK2
  6
CONTINUOUS
 62
     7
 10
68.3166282303
 20
186.2024057389
 30
0.0
  0
VERTEX
  5
5AC
  8
SK2
  6
CONTINUOUS
 62
     7
 10
68.0297561517
 20
186.3882442451
 30
0.0
  0
VERTEX
  5
5AD
  8
SK2
  6
CONTINUOUS
 62
     7
 10
67.7526223234
 20
186.5959234275
 30
0.0
  0
VERTEX
  5
5AE
  8
SK2
  6
CONTINUOUS
 62
     7
 10
67.4877575681
 20
186.8247732189
 30
0.0
  0
VERTEX
  5
5AF
  8
SK2
  6
CONTINUOUS
 62
     7
 10
67.2376335123
 20
187.0737620975
 30
0.0
  0
VERTEX
  5
5B0
  8
SK2
  6
CONTINUOUS
 62
     7
 10
67.0045951026
 20
187.3415027416
 30
0.0
  0
VERTEX
  5
5B1
  8
SK2
  6
CONTINUOUS
 62
     7
 10
66.7907938543
 20
187.6262719166
 30
0.0
  0
VERTEX
  5
5B2
  8
SK2
  6
CONTINUOUS
 62
     7
 10
66.5981255251
 20
187.9260444164
 30
0.0
  0
VERTEX
  5
5B3
  8
SK2
  6
CONTINUOUS
 62
     7
 10
66.4281758221
 20
188.2385398444
 30
0.0
  0
VERTEX
  5
5B4
  8
SK2
  6
CONTINUOUS
 62
     7
 10
66.2821773131
 20
188.5612800382
 30
0.0
  0
VERTEX
  5
5B5
  8
SK2
  6
CONTINUOUS
 62
     7
 10
66.1609799728
 20
188.8916541303
 30
0.0
  0
VERTEX
  5
5B6
  8
SK2
  6
CONTINUOUS
 62
     7
 10
66.0650368196
 20
189.2269876908
 30
0.0
  0
VERTEX
  5
5B7
  8
SK2
  6
CONTINUOUS
 62
     7
 10
65.9944050048
 20
189.5646121823
 30
0.0
  0
VERTEX
  5
5B8
  8
SK2
  6
CONTINUOUS
 62
     7
 10
65.9487616239
 20
189.9019310847
 30
0.0
  0
VERTEX
  5
5B9
  8
SK2
  6
CONTINUOUS
 62
     7
 10
65.9274325546
 20
190.2364794911
 30
0.0
  0
VERTEX
  5
5BA
  8
SK2
  6
CONTINUOUS
 62
     7
 10
65.9294318787
 20
190.5659746598
 30
0.0
  0
VERTEX
  5
5BB
  8
SK2
  6
CONTINUOUS
 62
     7
 10
65.9535089797
 20
190.8883558425
 30
0.0
  0
VERTEX
  5
5BC
  8
SK2
  6
CONTINUOUS
 62
     7
 10
65.9982002292
 20
191.2018125855
 30
0.0
  0
VERTEX
  5
5BD
  8
SK2
  6
CONTINUOUS
 62
     7
 10
66.061882282
 20
191.5048015284
 30
0.0
  0
VERTEX
  5
5BE
  8
SK2
  6
CONTINUOUS
 62
     7
 10
66.1428243126
 20
191.7960524275
 30
0.0
  0
VERTEX
  5
5BF
  8
SK2
  6
CONTINUOUS
 62
     7
 10
66.2392370032
 20
192.0745646634
 30
0.0
  0
VERTEX
  5
5C0
  8
SK2
  6
CONTINUOUS
 62
     7
 10
66.3493166447
 20
192.3395958361
 30
0.0
  0
VERTEX
  5
5C1
  8
SK2
  6
CONTINUOUS
 62
     7
 10
66.4712832766
 20
192.5906442124
 30
0.0
  0
VERTEX
  5
5C2
  8
SK2
  6
CONTINUOUS
 62
     7
 10
66.6034123207
 20
192.8274267973
 30
0.0
  0
VERTEX
  5
5C3
  8
SK2
  6
CONTINUOUS
 62
     7
 10
66.7487207275
 20
193.056791257
 30
0.0
  0
VERTEX
  5
5C4
  8
SK2
  6
CONTINUOUS
 62
     7
 10
66.9118113462
 20
193.2846926203
 30
0.0
  0
VERTEX
  5
5C5
  8
SK2
  6
CONTINUOUS
 62
     7
 10
67.0932909096
 20
193.5095356923
 30
0.0
  0
VERTEX
  5
5C6
  8
SK2
  6
CONTINUOUS
 62
     7
 10
67.2935987018
 20
193.7295696176
 30
0.0
  0
VERTEX
  5
5C7
  8
SK2
  6
CONTINUOUS
 62
     7
 10
67.5129712475
 20
193.942903632
 30
0.0
  0
VERTEX
  5
5C8
  8
SK2
  6
CONTINUOUS
 62
     7
 10
67.7514076627
 20
194.1475304798
 30
0.0
  0
VERTEX
  5
5C9
  8
SK2
  6
CONTINUOUS
 62
     7
 10
68.0086375179
 20
194.3413579198
 30
0.0
  0
VERTEX
  5
5CA
  8
SK2
  6
CONTINUOUS
 62
     7
 10
68.2840933214
 20
194.5222482949
 30
0.0
  0
VERTEX
  5
5CB
  8
SK2
  6
CONTINUOUS
 62
     7
 10
68.5768898694
 20
194.6880655799
 30
0.0
  0
VERTEX
  5
5CC
  8
SK2
  6
CONTINUOUS
 62
     7
 10
68.8858126771
 20
194.8367286893
 30
0.0
  0
VERTEX
  5
5CD
  8
SK2
  6
CONTINUOUS
 62
     7
 10
69.2093174663
 20
194.9662691595
 30
0.0
  0
VERTEX
  5
5CE
  8
SK2
  6
CONTINUOUS
 62
     7
 10
69.5455422172
 20
195.0748907025
 30
0.0
  0
VERTEX
  5
5CF
  8
SK2
  6
CONTINUOUS
 62
     7
 10
69.8923326063
 20
195.1610276293
 30
0.0
  0
VERTEX
  5
5D0
  8
SK2
  6
CONTINUOUS
 62
     7
 10
70.2472807787
 20
195.2233988538
 30
0.0
  0
VERTEX
  5
5D1
  8
SK2
  6
CONTINUOUS
 62
     7
 10
70.6077764323
 20
195.2610541642
 30
0.0
  0
VERTEX
  5
5D2
  8
SK2
  6
CONTINUOUS
 62
     7
 10
70.9710682043
 20
195.2734097388
 30
0.0
  0
VERTEX
  5
5D3
  8
SK2
  6
CONTINUOUS
 62
     7
 10
71.3343324767
 20
195.2602704765
 30
0.0
  0
VERTEX
  5
5D4
  8
SK2
  6
CONTINUOUS
 62
     7
 10
71.694746059
 20
195.2218375692
 30
0.0
  0
VERTEX
  5
5D5
  8
SK2
  6
CONTINUOUS
 62
     7
 10
72.0495588542
 20
195.1587007727
 30
0.0
  0
VERTEX
  5
5D6
  8
SK2
  6
CONTINUOUS
 62
     7
 10
72.3961626162
 20
195.0718159277
 30
0.0
  0
VERTEX
  5
5D7
  8
SK2
  6
CONTINUOUS
 62
     7
 10
72.7321522594
 20
194.9624693117
 30
0.0
  0
VERTEX
  5
5D8
  8
SK2
  6
CONTINUOUS
 62
     7
 10
73.0553768427
 20
194.8322312574
 30
0.0
  0
VERTEX
  5
5D9
  8
SK2
  6
CONTINUOUS
 62
     7
 10
73.363978226
 20
194.6829020658
 30
0.0
  0
VERTEX
  5
5DA
  8
SK2
  6
CONTINUOUS
 62
     7
 10
73.6564163809
 20
194.516453527
 30
0.0
  0
VERTEX
  5
5DB
  8
SK2
  6
CONTINUOUS
 62
     7
 10
73.931481315
 20
194.3349693417
 30
0.0
  0
VERTEX
  5
5DC
  8
SK2
  6
CONTINUOUS
 62
     7
 10
74.1882924345
 20
194.1405874398
 30
0.0
  0
VERTEX
  5
5DD
  8
SK2
  6
CONTINUOUS
 62
     7
 10
74.4262868607
 20
193.9354466978
 30
0.0
  0
VERTEX
  5
5DE
  8
SK2
  6
CONTINUOUS
 62
     7
 10
74.645198678
 20
193.7216399352
 30
0.0
  0
VERTEX
  5
5DF
  8
SK2
  6
CONTINUOUS
 62
     7
 10
74.8450313327
 20
193.5011744049
 30
0.0
  0
VERTEX
  5
5E0
  8
SK2
  6
CONTINUOUS
 62
     7
 10
75.0260254278
 20
193.2759403567
 30
0.0
  0
VERTEX
  5
5E1
  8
SK2
  6
CONTINUOUS
 62
     7
 10
75.1886240235
 20
193.0476876941
 30
0.0
  0
VERTEX
  5
5E2
  8
SK2
  6
CONTINUOUS
 62
     7
 10
75.3334372924
 20
192.8180102994
 30
0.0
  0
VERTEX
  5
5E3
  8
SK2
  6
CONTINUOUS
 62
     7
 10
75.4650552263
 20
192.5809432281
 30
0.0
  0
VERTEX
  5
5E4
  8
SK2
  6
CONTINUOUS
 62
     7
 10
75.5864799966
 20
192.3296323217
 30
0.0
  0
VERTEX
  5
5E5
  8
SK2
  6
CONTINUOUS
 62
     7
 10
75.6959876396
 20
192.0643642948
 30
0.0
  0
VERTEX
  5
5E6
  8
SK2
  6
CONTINUOUS
 62
     7
 10
75.7917992813
 20
191.7856447193
 30
0.0
  0
VERTEX
  5
5E7
  8
SK2
  6
CONTINUOUS
 62
     7
 10
75.8721128183
 20
191.4942198845
 30
0.0
  0
VERTEX
  5
5E8
  8
SK2
  6
CONTINUOUS
 62
     7
 10
75.9351410956
 20
191.1910942676
 30
0.0
  0
VERTEX
  5
5E9
  8
SK2
  6
CONTINUOUS
 62
     7
 10
75.979156032
 20
190.8775418431
 30
0.0
  0
VERTEX
  5
5EA
  8
SK2
  6
CONTINUOUS
 62
     7
 10
76.0025376154
 20
190.5551094699
 30
0.0
  0
VERTEX
  5
5EB
  8
SK2
  6
CONTINUOUS
 62
     7
 10
76.0038261266
 20
190.2256107548
 30
0.0
  0
VERTEX
  5
5EC
  8
SK2
  6
CONTINUOUS
 62
     7
 10
75.9817753974
 20
189.8911091393
 30
0.0
  0
VERTEX
  5
5ED
  8
SK2
  6
CONTINUOUS
 62
     7
 10
75.9354044367
 20
189.5538894867
 30
0.0
  0
VERTEX
  5
5EE
  8
SK2
  6
CONTINUOUS
 62
     7
 10
75.8640444409
 20
189.2164181523
 30
0.0
  0
VERTEX
  5
5EF
  8
SK2
  6
CONTINUOUS
 62
     7
 10
75.7673781077
 20
188.8812923469
 30
0.0
  0
VERTEX
  5
5F0
  8
SK2
  6
CONTINUOUS
 62
     7
 10
75.645468345
 20
188.5511804783
 30
0.0
  0
VERTEX
  5
5F1
  8
SK2
  6
CONTINUOUS
 62
     7
 10
75.4987739397
 20
188.2287559929
 30
0.0
  0
VERTEX
  5
5F2
  8
SK2
  6
CONTINUOUS
 62
     7
 10
75.3281504969
 20
187.9166279185
 30
0.0
  0
VERTEX
  5
5F3
  8
SK2
  6
CONTINUOUS
 62
     7
 10
75.1348359274
 20
187.6172717528
 30
0.0
  0
VERTEX
  5
5F4
  8
SK2
  6
CONTINUOUS
 62
     7
 10
74.9204208542
 20
187.3329644663
 30
0.0
  0
VERTEX
  5
5F5
  8
SK2
  6
CONTINUOUS
 62
     7
 10
74.6868053993
 20
187.0657271707
 30
0.0
  0
VERTEX
  5
5F6
  8
SK2
  6
CONTINUOUS
 62
     7
 10
74.4361447905
 20
186.8172784552
 30
0.0
  0
VERTEX
  5
5F7
  8
SK2
  6
CONTINUOUS
 62
     7
 10
74.1707869621
 20
186.5890005798
 30
0.0
  0
VERTEX
  5
5F8
  8
SK2
  6
CONTINUOUS
 62
     7
 10
73.8932057596
 20
186.3819197316
 30
0.0
  0
VERTEX
  5
5F9
  8
SK2
  6
CONTINUOUS
 62
     7
 10
73.6059334457
 20
186.1967005168
 30
0.0
  0
VERTEX
  5
5FA
  8
SK2
  6
CONTINUOUS
 62
     7
 10
73.3114959666
 20
186.0336538869
 30
0.0
  0
VERTEX
  5
5FB
  8
SK2
  6
CONTINUOUS
 62
     7
 10
73.0123539316
 20
185.8927568894
 30
0.0
  0
VERTEX
  5
5FC
  8
SK2
  6
CONTINUOUS
 62
     7
 10
72.7108515626
 20
185.7736820483
 30
0.0
  0
VERTEX
  5
5FD
  8
SK2
  6
CONTINUOUS
 62
     7
 10
72.4091750836
 20
185.6758338475
 30
0.0
  0
VERTEX
  5
5FE
  8
SK2
  6
CONTINUOUS
 62
     7
 10
72.1093212357
 20
185.598389711
 30
0.0
  0
VERTEX
  5
5FF
  8
SK2
  6
CONTINUOUS
 62
     7
 10
71.8130758903
 20
185.5403430054
 30
0.0
  0
VERTEX
  5
600
  8
SK2
  6
CONTINUOUS
 62
     7
 10
71.5220021537
 20
185.500545881
 30
0.0
  0
VERTEX
  5
601
  8
SK2
  6
CONTINUOUS
 62
     7
 10
71.2374369262
 20
185.4777501672
 30
0.0
  0
VERTEX
  5
602
  8
SK2
  6
CONTINUOUS
 62
     7
 10
70.9604946132
 20
185.470644977
 30
0.0
  0
SEQEND
  5
978
  8
SK2
  6
CONTINUOUS
 62
     7
  0
CIRCLE
  5
169
  8
SK2
  6
CONTINUOUS
 62
     7
 10
70.9657814088
 20
190.3720273579
 30
0.0
 40
2.592775394041936
  0
LINE
  5
16A
  8
SK2
  6
CONTINUOUS
 62
     7
 10
80.3697086051
 20
188.7418183147
 30
0.0
 11
76.8306784491
 21
188.7418183147
 31
0.0
  0
LINE
  5
16B
  8
SK2
  6
CONTINUOUS
 62
     7
 10
80.3697086051
 20
190.6481551185
 30
0.0
 11
80.3697086051
 21
188.7418183147
 31
0.0
  0
LINE
  5
16C
  8
SK2
  6
CONTINUOUS
 62
     7
 10
76.8306784491
 20
190.6481551185
 30
0.0
 11
80.3697086051
 21
190.6481551185
 31
0.0
  0
LINE
  5
16D
  8
SK2
  6
CONTINUOUS
 62
     7
 10
76.8306784491
 20
188.7418183147
 30
0.0
 11
76.8306784491
 21
190.6481551185
 31
0.0
  0
LINE
  5
16E
  8
SK2
  6
CONTINUOUS
 62
     7
 10
83.7770394595
 20
189.3540948097
 30
0.0
 11
83.7770394595
 21
185.7546855318
 31
0.0
  0
LINE
  5
16F
  8
SK2
  6
CONTINUOUS
 62
     7
 10
86.3867855275
 20
189.3540948097
 30
0.0
 11
83.7770394595
 21
189.3540948097
 31
0.0
  0
LINE
  5
170
  8
SK2
  6
CONTINUOUS
 62
     7
 10
86.3867855275
 20
191.398589555
 30
0.0
 11
86.3867855275
 21
189.3540948097
 31
0.0
  0
LINE
  5
171
  8
SK2
  6
CONTINUOUS
 62
     7
 10
86.3867855275
 20
191.398589555
 30
0.0
 11
83.7821627728
 21
191.398589555
 31
0.0
  0
LINE
  5
172
  8
SK2
  6
CONTINUOUS
 62
     7
 10
83.7821627728
 20
191.398589555
 30
0.0
 11
83.7821627728
 21
192.8889055286
 31
0.0
  0
LINE
  5
173
  8
SK2
  6
CONTINUOUS
 62
     7
 10
86.6347545427
 20
192.8889055286
 30
0.0
 11
83.7821627728
 21
192.8889055286
 31
0.0
  0
LINE
  5
174
  8
SK2
  6
CONTINUOUS
 62
     7
 10
86.6347545427
 20
194.9385447651
 30
0.0
 11
86.6347545427
 21
192.8889055286
 31
0.0
  0
LINE
  5
175
  8
SK2
  6
CONTINUOUS
 62
     7
 10
81.3837824571
 20
194.9385447651
 30
0.0
 11
86.6347545427
 21
194.9385447651
 31
0.0
  0
LINE
  5
176
  8
SK2
  6
CONTINUOUS
 62
     7
 10
81.3837824571
 20
194.9385447651
 30
0.0
 11
81.3837824571
 21
185.7546855318
 31
0.0
  0
LINE
  5
177
  8
SK2
  6
CONTINUOUS
 62
     7
 10
81.3837824571
 20
185.7546855318
 30
0.0
 11
83.7770394595
 21
185.7546855318
 31
0.0
  0
LINE
  5
178
  8
SK2
  6
CONTINUOUS
 62
     7
 10
89.9718599034
 20
194.9385447651
 30
0.0
 11
89.9718599034
 21
185.7546855318
 31
0.0
  0
LINE
  5
179
  8
SK2
  6
CONTINUOUS
 62
     7
 10
87.5892808382
 20
194.9385447651
 30
0.0
 11
89.9718599034
 21
194.9385447651
 31
0.0
  0
LINE
  5
17A
  8
SK2
  6
CONTINUOUS
 62
     7
 10
87.5892808382
 20
194.9551488259
 30
0.0
 11
87.5892808382
 21
185.7546855318
 31
0.0
  0
LINE
  5
17B
  8
SK2
  6
CONTINUOUS
 62
     7
 10
87.5892808382
 20
185.7546855318
 30
0.0
 11
89.9718599034
 21
185.7546855318
 31
0.0
  0
LINE
  5
17C
  8
SK2
  6
CONTINUOUS
 62
     7
 10
93.8656517085
 20
190.6771667977
 30
0.0
 11
90.9399231233
 21
194.9385447651
 31
0.0
  0
LINE
  5
17D
  8
SK2
  6
CONTINUOUS
 62
     7
 10
90.2354467706
 20
185.7546855318
 30
0.0
 11
93.8656517085
 21
190.6771667977
 31
0.0
  0
LINE
  5
17E
  8
SK2
  6
CONTINUOUS
 62
     7
 10
90.2354467706
 20
185.7546855318
 30
0.0
 11
93.1808857212
 21
185.7546855318
 31
0.0
  0
LINE
  5
17F
  8
SK2
  6
CONTINUOUS
 62
     7
 10
95.2668839774
 20
188.7463643586
 30
0.0
 11
93.1808857212
 21
185.7546855318
 31
0.0
  0
LINE
  5
180
  8
SK2
  6
CONTINUOUS
 62
     7
 10
97.1585700673
 20
185.7546855318
 30
0.0
 11
95.2668839774
 21
188.7463643586
 31
0.0
  0
LINE
  5
181
  8
SK2
  6
CONTINUOUS
 62
     7
 10
97.1585700673
 20
185.7546855318
 30
0.0
 11
100.0991694138
 21
185.7546855318
 31
0.0
  0
LINE
  5
182
  8
SK2
  6
CONTINUOUS
 62
     7
 10
96.6945344596
 20
190.6423625766
 30
0.0
 11
100.0991694138
 21
185.7546855318
 31
0.0
  0
LINE
  5
183
  8
SK2
  6
CONTINUOUS
 62
     7
 10
99.620301955
 20
194.9385447651
 30
0.0
 11
96.6945344596
 21
190.6423625766
 31
0.0
  0
LINE
  5
184
  8
SK2
  6
CONTINUOUS
 62
     7
 10
96.6588152907
 20
194.9385447651
 30
0.0
 11
99.620301955
 21
194.9385447651
 31
0.0
  0
LINE
  5
185
  8
SK2
  6
CONTINUOUS
 62
     7
 10
95.2589953943
 20
192.5894803754
 30
0.0
 11
96.6588152907
 21
194.9385447651
 31
0.0
  0
LINE
  5
186
  8
SK2
  6
CONTINUOUS
 62
     7
 10
93.8788566676
 20
194.9385447651
 30
0.0
 11
95.2589953943
 21
192.5894803754
 31
0.0
  0
LINE
  5
187
  8
SK2
  6
CONTINUOUS
 62
     7
 10
90.9399231233
 20
194.9385447651
 30
0.0
 11
93.8788566676
 21
194.9385447651
 31
0.0
  0
CIRCLE
  5
188
  8
SK2
  6
CONTINUOUS
 62
     7
 10
101.0869246934
 20
193.2418092973
 30
0.0
 40
1.751245468585817
  0
CIRCLE
  5
189
  8
SK2
  6
CONTINUOUS
 62
     7
 10
101.0869246934
 20
193.2418092973
 30
0.0
 40
1.36406508544596
  0
LINE
  5
18A
  8
SK2
  6
CONTINUOUS
 62
     7
 10
100.780693683
 20
193.1428885624
 30
0.0
 11
100.780693683
 21
192.3666640537
 31
0.0
  0
LINE
  5
18B
  8
SK2
  6
CONTINUOUS
 62
     7
 10
101.1022199045
 20
193.1428885624
 30
0.0
 11
100.780693683
 21
193.1428885624
 31
0.0
  0
LINE
  5
18C
  8
SK2
  6
CONTINUOUS
 62
     7
 10
101.5047712885
 20
192.3666640537
 30
0.0
 11
101.1022199045
 21
193.1428885624
 31
0.0
  0
LINE
  5
18D
  8
SK2
  6
CONTINUOUS
 62
     7
 10
101.5047712885
 20
192.3666640537
 30
0.0
 11
101.8764087918
 21
192.3666640537
 31
0.0
  0
LINE
  5
18E
  8
SK2
  6
CONTINUOUS
 62
     7
 10
101.4738574078
 20
193.1428885624
 30
0.0
 11
101.8764087918
 21
192.3666640537
 31
0.0
  0
POLYLINE
  5
18F
  8
SK2
  6
CONTINUOUS
 62
     7
 66
     1
 10
0.0
 20
0.0
 30
0.0
  0
VERTEX
  5
603
  8
SK2
  6
CONTINUOUS
 62
     7
 10
101.4738574078
 20
194.1353674977
 30
0.0
  0
VERTEX
  5
604
  8
SK2
  6
CONTINUOUS
 62
     7
 10
101.5055782704
 20
194.1354696097
 30
0.0
  0
VERTEX
  5
605
  8
SK2
  6
CONTINUOUS
 62
     7
 10
101.5368339923
 20
194.1320479736
 30
0.0
  0
VERTEX
  5
606
  8
SK2
  6
CONTINUOUS
 62
     7
 10
101.5674737187
 20
194.1253692204
 30
0.0
  0
VERTEX
  5
607
  8
SK2
  6
CONTINUOUS
 62
     7
 10
101.5973465947
 20
194.1156999811
 30
0.0
  0
VERTEX
  5
608
  8
SK2
  6
CONTINUOUS
 62
     7
 10
101.6263017657
 20
194.1033068868
 30
0.0
  0
VERTEX
  5
609
  8
SK2
  6
CONTINUOUS
 62
     7
 10
101.6541883767
 20
194.0884565686
 30
0.0
  0
VERTEX
  5
60A
  8
SK2
  6
CONTINUOUS
 62
     7
 10
101.6808555729
 20
194.0714156576
 30
0.0
  0
VERTEX
  5
60B
  8
SK2
  6
CONTINUOUS
 62
     7
 10
101.7061524997
 20
194.0524507847
 30
0.0
  0
VERTEX
  5
60C
  8
SK2
  6
CONTINUOUS
 62
     7
 10
101.7299283021
 20
194.0318285811
 30
0.0
  0
VERTEX
  5
60D
  8
SK2
  6
CONTINUOUS
 62
     7
 10
101.7520321254
 20
194.0098156778
 30
0.0
  0
VERTEX
  5
60E
  8
SK2
  6
CONTINUOUS
 62
     7
 10
101.772336994
 20
193.9866591334
 30
0.0
  0
VERTEX
  5
60F
  8
SK2
  6
CONTINUOUS
 62
     7
 10
101.7908466638
 20
193.9624988522
 30
0.0
  0
VERTEX
  5
610
  8
SK2
  6
CONTINUOUS
 62
     7
 10
101.8076094019
 20
193.9374382553
 30
0.0
  0
VERTEX
  5
611
  8
SK2
  6
CONTINUOUS
 62
     7
 10
101.8226735125
 20
193.9115807331
 30
0.0
  0
VERTEX
  5
612
  8
SK2
  6
CONTINUOUS
 62
     7
 10
101.8360872998
 20
193.8850296763
 30
0.0
  0
VERTEX
  5
613
  8
SK2
  6
CONTINUOUS
 62
     7
 10
101.8478990682
 20
193.8578884751
 30
0.0
  0
VERTEX
  5
614
  8
SK2
  6
CONTINUOUS
 62
     7
 10
101.8581571218
 20
193.8302605203
 30
0.0
  0
VERTEX
  5
615
  8
SK2
  6
CONTINUOUS
 62
     7
 10
101.8669097649
 20
193.8022492022
 30
0.0
  0
VERTEX
  5
616
  8
SK2
  6
CONTINUOUS
 62
     7
 10
101.8742053017
 20
193.7739579113
 30
0.0
  0
VERTEX
  5
617
  8
SK2
  6
CONTINUOUS
 62
     7
 10
101.8800920365
 20
193.7454900382
 30
0.0
  0
VERTEX
  5
618
  8
SK2
  6
CONTINUOUS
 62
     7
 10
101.8846182735
 20
193.7169489733
 30
0.0
  0
VERTEX
  5
619
  8
SK2
  6
CONTINUOUS
 62
     7
 10
101.887832317
 20
193.6884381072
 30
0.0
  0
VERTEX
  5
61A
  8
SK2
  6
CONTINUOUS
 62
     7
 10
101.8897824712
 20
193.6600608303
 30
0.0
  0
VERTEX
  5
61B
  8
SK2
  6
CONTINUOUS
 62
     7
 10
101.8905168374
 20
193.6319202544
 30
0.0
  0
VERTEX
  5
61C
  8
SK2
  6
CONTINUOUS
 62
     7
 10
101.8900637906
 20
193.6040924079
 30
0.0
  0
VERTEX
  5
61D
  8
SK2
  6
CONTINUOUS
 62
     7
 10
101.8884157527
 20
193.5766039566
 30
0.0
  0
VERTEX
  5
61E
  8
SK2
  6
CONTINUOUS
 62
     7
 10
101.8855613258
 20
193.5494763218
 30
0.0
  0
VERTEX
  5
61F
  8
SK2
  6
CONTINUOUS
 62
     7
 10
101.8814891121
 20
193.5227309252
 30
0.0
  0
VERTEX
  5
620
  8
SK2
  6
CONTINUOUS
 62
     7
 10
101.8761877137
 20
193.496389188
 30
0.0
  0
VERTEX
  5
621
  8
SK2
  6
CONTINUOUS
 62
     7
 10
101.8696457328
 20
193.4704725319
 30
0.0
  0
VERTEX
  5
622
  8
SK2
  6
CONTINUOUS
 62
     7
 10
101.8618517717
 20
193.4450023783
 30
0.0
  0
VERTEX
  5
623
  8
SK2
  6
CONTINUOUS
 62
     7
 10
101.8527944323
 20
193.4200001486
 30
0.0
  0
VERTEX
  5
624
  8
SK2
  6
CONTINUOUS
 62
     7
 10
101.842462317
 20
193.3954872643
 30
0.0
  0
VERTEX
  5
625
  8
SK2
  6
CONTINUOUS
 62
     7
 10
101.8308440278
 20
193.371485147
 30
0.0
  0
VERTEX
  5
626
  8
SK2
  6
CONTINUOUS
 62
     7
 10
101.817928167
 20
193.348015218
 30
0.0
  0
VERTEX
  5
627
  8
SK2
  6
CONTINUOUS
 62
     7
 10
101.8037033367
 20
193.3250988988
 30
0.0
  0
VERTEX
  5
628
  8
SK2
  6
CONTINUOUS
 62
     7
 10
101.7881581263
 20
193.3027576211
 30
0.0
  0
VERTEX
  5
629
  8
SK2
  6
CONTINUOUS
 62
     7
 10
101.7712335453
 20
193.2810504187
 30
0.0
  0
VERTEX
  5
62A
  8
SK2
  6
CONTINUOUS
 62
     7
 10
101.7527156451
 20
193.260158789
 30
0.0
  0
VERTEX
  5
62B
  8
SK2
  6
CONTINUOUS
 62
     7
 10
101.7323589849
 20
193.2402891178
 30
0.0
  0
VERTEX
  5
62C
  8
SK2
  6
CONTINUOUS
 62
     7
 10
101.7099181234
 20
193.221647791
 30
0.0
  0
VERTEX
  5
62D
  8
SK2
  6
CONTINUOUS
 62
     7
 10
101.6851476196
 20
193.2044411945
 30
0.0
  0
VERTEX
  5
62E
  8
SK2
  6
CONTINUOUS
 62
     7
 10
101.6578020324
 20
193.1888757143
 30
0.0
  0
VERTEX
  5
62F
  8
SK2
  6
CONTINUOUS
 62
     7
 10
101.6276359208
 20
193.1751577361
 30
0.0
  0
VERTEX
  5
630
  8
SK2
  6
CONTINUOUS
 62
     7
 10
101.5944038436
 20
193.1634936459
 30
0.0
  0
VERTEX
  5
631
  8
SK2
  6
CONTINUOUS
 62
     7
 10
101.5578603598
 20
193.1540898297
 30
0.0
  0
VERTEX
  5
632
  8
SK2
  6
CONTINUOUS
 62
     7
 10
101.5177600282
 20
193.1471526732
 30
0.0
  0
VERTEX
  5
633
  8
SK2
  6
CONTINUOUS
 62
     7
 10
101.4738574078
 20
193.1428885624
 30
0.0
  0
SEQEND
  5
977
  8
SK2
  6
CONTINUOUS
 62
     7
  0
LINE
  5
190
  8
SK2
  6
CONTINUOUS
 62
     7
 10
100.4255103887
 20
194.1353674977
 30
0.0
 11
101.4738574078
 21
194.1353674977
 31
0.0
  0
LINE
  5
191
  8
SK2
  6
CONTINUOUS
 62
     7
 10
100.4255103887
 20
192.3666640537
 30
0.0
 11
100.4255103887
 21
194.1353674977
 31
0.0
  0
LINE
  5
192
  8
SK2
  6
CONTINUOUS
 62
     7
 10
100.4255103887
 20
192.3666640537
 30
0.0
 11
100.780693683
 21
192.3666640537
 31
0.0
  0
LINE
  5
193
  8
SK2
  6
CONTINUOUS
 62
     7
 10
100.7767023937
 20
193.4808824588
 30
0.0
 11
100.7767023937
 21
193.8536779351
 31
0.0
  0
LINE
  5
194
  8
SK2
  6
CONTINUOUS
 62
     7
 10
100.7767023937
 20
193.8536779351
 30
0.0
 11
101.3189503594
 21
193.8536779351
 31
0.0
  0
POLYLINE
  5
195
  8
SK2
  6
CONTINUOUS
 62
     7
 66
     1
 10
0.0
 20
0.0
 30
0.0
  0
VERTEX
  5
634
  8
SK2
  6
CONTINUOUS
 62
     7
 10
101.3189503594
 20
193.8536779351
 30
0.0
  0
VERTEX
  5
635
  8
SK2
  6
CONTINUOUS
 62
     7
 10
101.3391754222
 20
193.8533713258
 30
0.0
  0
VERTEX
  5
636
  8
SK2
  6
CONTINUOUS
 62
     7
 10
101.3569390378
 20
193.8524789069
 30
0.0
  0
VERTEX
  5
637
  8
SK2
  6
CONTINUOUS
 62
     7
 10
101.3725705467
 20
193.8510237495
 30
0.0
  0
VERTEX
  5
638
  8
SK2
  6
CONTINUOUS
 62
     7
 10
101.3863992894
 20
193.8490289243
 30
0.0
  0
VERTEX
  5
639
  8
SK2
  6
CONTINUOUS
 62
     7
 10
101.3987546065
 20
193.8465175024
 30
0.0
  0
VERTEX
  5
63A
  8
SK2
  6
CONTINUOUS
 62
     7
 10
101.4099658384
 20
193.8435125547
 30
0.0
  0
VERTEX
  5
63B
  8
SK2
  6
CONTINUOUS
 62
     7
 10
101.4203623258
 20
193.8400371521
 30
0.0
  0
VERTEX
  5
63C
  8
SK2
  6
CONTINUOUS
 62
     7
 10
101.4302733146
 20
193.8361143577
 30
0.0
  0
VERTEX
  5
63D
  8
SK2
  6
CONTINUOUS
 62
     7
 10
101.4399453506
 20
193.8317605109
 30
0.0
  0
VERTEX
  5
63E
  8
SK2
  6
CONTINUOUS
 62
     7
 10
101.4493908527
 20
193.8269729149
 30
0.0
  0
VERTEX
  5
63F
  8
SK2
  6
CONTINUOUS
 62
     7
 10
101.458581096
 20
193.8217455278
 30
0.0
  0
VERTEX
  5
640
  8
SK2
  6
CONTINUOUS
 62
     7
 10
101.4674873555
 20
193.8160723076
 30
0.0
  0
VERTEX
  5
641
  8
SK2
  6
CONTINUOUS
 62
     7
 10
101.4760809063
 20
193.8099472123
 30
0.0
  0
VERTEX
  5
642
  8
SK2
  6
CONTINUOUS
 62
     7
 10
101.4843330236
 20
193.8033642001
 30
0.0
  0
VERTEX
  5
643
  8
SK2
  6
CONTINUOUS
 62
     7
 10
101.4922149824
 20
193.796317229
 30
0.0
  0
VERTEX
  5
644
  8
SK2
  6
CONTINUOUS
 62
     7
 10
101.4996980578
 20
193.788800257
 30
0.0
  0
VERTEX
  5
645
  8
SK2
  6
CONTINUOUS
 62
     7
 10
101.5067535249
 20
193.7808072423
 30
0.0
  0
VERTEX
  5
646
  8
SK2
  6
CONTINUOUS
 62
     7
 10
101.5133526588
 20
193.7723321428
 30
0.0
  0
VERTEX
  5
647
  8
SK2
  6
CONTINUOUS
 62
     7
 10
101.5194667346
 20
193.7633689166
 30
0.0
  0
VERTEX
  5
648
  8
SK2
  6
CONTINUOUS
 62
     7
 10
101.5250670274
 20
193.7539115217
 30
0.0
  0
VERTEX
  5
649
  8
SK2
  6
CONTINUOUS
 62
     7
 10
101.5301248122
 20
193.7439539163
 30
0.0
  0
VERTEX
  5
64A
  8
SK2
  6
CONTINUOUS
 62
     7
 10
101.5346113642
 20
193.7334900584
 30
0.0
  0
VERTEX
  5
64B
  8
SK2
  6
CONTINUOUS
 62
     7
 10
101.5384979584
 20
193.722513906
 30
0.0
  0
VERTEX
  5
64C
  8
SK2
  6
CONTINUOUS
 62
     7
 10
101.5417559187
 20
193.7110197247
 30
0.0
  0
VERTEX
  5
64D
  8
SK2
  6
CONTINUOUS
 62
     7
 10
101.5443613666
 20
193.699032103
 30
0.0
  0
VERTEX
  5
64E
  8
SK2
  6
CONTINUOUS
 62
     7
 10
101.5462992072
 20
193.6866311405
 30
0.0
  0
VERTEX
  5
64F
  8
SK2
  6
CONTINUOUS
 62
     7
 10
101.5475552837
 20
193.6739028668
 30
0.0
  0
VERTEX
  5
650
  8
SK2
  6
CONTINUOUS
 62
     7
 10
101.5481154396
 20
193.6609333113
 30
0.0
  0
VERTEX
  5
651
  8
SK2
  6
CONTINUOUS
 62
     7
 10
101.5479655182
 20
193.6478085038
 30
0.0
  0
VERTEX
  5
652
  8
SK2
  6
CONTINUOUS
 62
     7
 10
101.5470913626
 20
193.6346144737
 30
0.0
  0
VERTEX
  5
653
  8
SK2
  6
CONTINUOUS
 62
     7
 10
101.5454788163
 20
193.6214372506
 30
0.0
  0
VERTEX
  5
654
  8
SK2
  6
CONTINUOUS
 62
     7
 10
101.5431137226
 20
193.6083628642
 30
0.0
  0
VERTEX
  5
655
  8
SK2
  6
CONTINUOUS
 62
     7
 10
101.5399819248
 20
193.595477344
 30
0.0
  0
VERTEX
  5
656
  8
SK2
  6
CONTINUOUS
 62
     7
 10
101.5360692661
 20
193.5828667195
 30
0.0
  0
VERTEX
  5
657
  8
SK2
  6
CONTINUOUS
 62
     7
 10
101.53136159
 20
193.5706170203
 30
0.0
  0
VERTEX
  5
658
  8
SK2
  6
CONTINUOUS
 62
     7
 10
101.5258447397
 20
193.558814276
 30
0.0
  0
VERTEX
  5
659
  8
SK2
  6
CONTINUOUS
 62
     7
 10
101.5195045585
 20
193.5475445163
 30
0.0
  0
VERTEX
  5
65A
  8
SK2
  6
CONTINUOUS
 62
     7
 10
101.5123269022
 20
193.5368937599
 30
0.0
  0
VERTEX
  5
65B
  8
SK2
  6
CONTINUOUS
 62
     7
 10
101.504301928
 20
193.5269443386
 30
0.0
  0
VERTEX
  5
65C
  8
SK2
  6
CONTINUOUS
 62
     7
 10
101.4954303802
 20
193.517769509
 30
0.0
  0
VERTEX
  5
65D
  8
SK2
  6
CONTINUOUS
 62
     7
 10
101.4857146023
 20
193.509441157
 30
0.0
  0
VERTEX
  5
65E
  8
SK2
  6
CONTINUOUS
 62
     7
 10
101.4751569378
 20
193.5020311681
 30
0.0
  0
VERTEX
  5
65F
  8
SK2
  6
CONTINUOUS
 62
     7
 10
101.4637597305
 20
193.495611428
 30
0.0
  0
VERTEX
  5
660
  8
SK2
  6
CONTINUOUS
 62
     7
 10
101.4515253239
 20
193.4902538225
 30
0.0
  0
VERTEX
  5
661
  8
SK2
  6
CONTINUOUS
 62
     7
 10
101.4384560617
 20
193.4860302371
 30
0.0
  0
VERTEX
  5
662
  8
SK2
  6
CONTINUOUS
 62
     7
 10
101.4245542873
 20
193.4830125576
 30
0.0
  0
VERTEX
  5
663
  8
SK2
  6
CONTINUOUS
 62
     7
 10
101.4098223445
 20
193.4812726695
 30
0.0
  0
VERTEX
  5
664
  8
SK2
  6
CONTINUOUS
 62
     7
 10
101.3942625768
 20
193.4808824588
 30
0.0
  0
SEQEND
  5
976
  8
SK2
  6
CONTINUOUS
 62
     7
  0
LINE
  5
196
  8
SK2
  6
CONTINUOUS
 62
     7
 10
100.7767023937
 20
193.4808824588
 30
0.0
 11
101.3942625768
 21
193.4808824588
 31
0.0
  0
TEXT
  5
197
  8
SK2
  6
CONTINUOUS
 62
     7
 10
29.421892683
 20
191.6482410873
 30
0.0
 40
1.562478211
  1
Swiss
  0
TEXT
  5
198
  8
SK2
  6
CONTINUOUS
 62
     7
 10
29.3615006097
 20
189.5324537563
 30
0.0
 40
1.555658846
  1
Precision
  0
TEXT
  5
199
  8
SK2
  6
CONTINUOUS
 62
     7
 10
30.5334253534
 20
187.3619518951
 30
0.0
 40
1.555658846
  1
ools
  0
TEXT
  5
19A
  8
SK2
  6
CONTINUOUS
 62
     7
 10
29.4781750232
 20
187.3619518951
 30
0.0
 40
1.555658846
  1
T
  0
LINE
  5
19B
  8
SK2
  6
CONTINUOUS
 62
     7
 10
14.99878275
 20
185.8256208127
 30
0.0
 11
14.99878275
 21
194.9748906896
 31
0.0
  0
LINE
  5
19C
  8
SK2
  6
CONTINUOUS
 62
     7
 10
27.1772645759
 20
185.8256208127
 30
0.0
 11
14.99878275
 21
185.8256208127
 31
0.0
  0
LINE
  5
19D
  8
SK2
  6
CONTINUOUS
 62
     7
 10
27.1772645759
 20
194.9748906896
 30
0.0
 11
27.1772645759
 21
185.8256208127
 31
0.0
  0
LINE
  5
19E
  8
SK2
  6
CONTINUOUS
 62
     7
 10
14.99878275
 20
194.9748906896
 30
0.0
 11
27.1772645759
 21
194.9748906896
 31
0.0
  0
LINE
  5
19F
  8
SK2
  6
CONTINUOUS
 62
     7
 10
15.2027506548
 20
186.0257023597
 30
0.0
 11
15.2027506548
 21
194.7736155142
 31
0.0
  0
LINE
  5
1A0
  8
SK2
  6
CONTINUOUS
 62
     7
 10
15.2027506548
 20
194.7736155142
 30
0.0
 11
26.9684076836
 21
194.7736155142
 31
0.0
  0
LINE
  5
1A1
  8
SK2
  6
CONTINUOUS
 62
     7
 10
26.9684076836
 20
186.0257023597
 30
0.0
 11
26.9684076836
 21
194.7736155142
 31
0.0
  0
LINE
  5
1A2
  8
SK2
  6
CONTINUOUS
 62
     7
 10
26.9684076836
 20
186.0257023597
 30
0.0
 11
15.2027506548
 21
186.0257023597
 31
0.0
  0
LINE
  5
1A3
  8
SK2
  6
CONTINUOUS
 62
     7
 10
28.1737113848
 20
185.8256208127
 30
0.0
 11
28.1737113848
 21
194.9748906896
 31
0.0
  0
LINE
  5
1A4
  8
SK2
  6
CONTINUOUS
 62
     7
 10
40.3396364356
 20
185.8256208127
 30
0.0
 11
28.1737113848
 21
185.8256208127
 31
0.0
  0
LINE
  5
1A5
  8
SK2
  6
CONTINUOUS
 62
     7
 10
40.3396364356
 20
194.9748906896
 30
0.0
 11
40.3396364356
 21
185.8256208127
 31
0.0
  0
LINE
  5
1A6
  8
SK2
  6
CONTINUOUS
 62
     7
 10
28.1737113848
 20
194.9748906896
 30
0.0
 11
40.3396364356
 21
194.9748906896
 31
0.0
  0
LINE
  5
1A7
  8
SK2
  6
CONTINUOUS
 62
     7
 10
28.3742523953
 20
194.7736155142
 30
0.0
 11
28.3742523953
 21
186.0257023597
 31
0.0
  0
LINE
  5
1A8
  8
SK2
  6
CONTINUOUS
 62
     7
 10
28.3742523953
 20
194.7736155142
 30
0.0
 11
40.1352889741
 21
194.7736155142
 31
0.0
  0
LINE
  5
1A9
  8
SK2
  6
CONTINUOUS
 62
     7
 10
40.1352889741
 20
194.7736155142
 30
0.0
 11
40.1352889741
 21
186.0257023597
 31
0.0
  0
LINE
  5
1AA
  8
SK2
  6
CONTINUOUS
 62
     7
 10
40.1352889741
 20
186.0257023597
 30
0.0
 11
28.3742523953
 21
186.0257023597
 31
0.0
  0
LINE
  5
1AB
  8
SK2
  6
CONTINUOUS
 62
     7
 10
15.8199688727
 20
186.971670437
 30
0.0
 11
26.4161298297
 21
186.971670437
 31
0.0
  0
LINE
  5
1AC
  8
SK2
  6
CONTINUOUS
 62
     7
 10
26.4161298297
 20
186.971670437
 30
0.0
 11
21.1180493512
 21
193.8440734706
 31
0.0
  0
LINE
  5
1AD
  8
SK2
  6
CONTINUOUS
 62
     7
 10
21.1180493512
 20
193.8440734706
 30
0.0
 11
15.8199688727
 21
186.971670437
 31
0.0
  0
LINE
  5
1AE
  8
SK2
  6
CONTINUOUS
 62
     7
 10
20.4615630789
 20
188.3232248946
 30
0.0
 11
20.6473639144
 21
188.3232248946
 31
0.0
  0
LINE
  5
1AF
  8
SK2
  6
CONTINUOUS
 62
     7
 10
20.4615630789
 20
188.5801526124
 30
0.0
 11
20.4615630789
 21
188.3232248946
 31
0.0
  0
LINE
  5
1B0
  8
SK2
  6
CONTINUOUS
 62
     7
 10
20.6473639144
 20
188.5801526124
 30
0.0
 11
20.4615630789
 21
188.5801526124
 31
0.0
  0
POLYLINE
  5
1B1
  8
SK2
  6
CONTINUOUS
 62
     7
 66
     1
 10
0.0
 20
0.0
 30
0.0
  0
VERTEX
  5
665
  8
SK2
  6
CONTINUOUS
 62
     7
 10
20.6473639144
 20
188.5801526124
 30
0.0
  0
VERTEX
  5
666
  8
SK2
  6
CONTINUOUS
 62
     7
 10
20.6476008995
 20
188.5997526142
 30
0.0
  0
VERTEX
  5
667
  8
SK2
  6
CONTINUOUS
 62
     7
 10
20.6477383221
 20
188.6184084371
 30
0.0
  0
VERTEX
  5
668
  8
SK2
  6
CONTINUOUS
 62
     7
 10
20.6478037331
 20
188.6361896269
 30
0.0
  0
VERTEX
  5
669
  8
SK2
  6
CONTINUOUS
 62
     7
 10
20.647824683
 20
188.6531657291
 30
0.0
  0
VERTEX
  5
66A
  8
SK2
  6
CONTINUOUS
 62
     7
 10
20.6478287224
 20
188.6694062894
 30
0.0
  0
VERTEX
  5
66B
  8
SK2
  6
CONTINUOUS
 62
     7
 10
20.647843402
 20
188.6849808533
 30
0.0
  0
VERTEX
  5
66C
  8
SK2
  6
CONTINUOUS
 62
     7
 10
20.6478962725
 20
188.6999589666
 30
0.0
  0
VERTEX
  5
66D
  8
SK2
  6
CONTINUOUS
 62
     7
 10
20.6480148846
 20
188.7144101747
 30
0.0
  0
VERTEX
  5
66E
  8
SK2
  6
CONTINUOUS
 62
     7
 10
20.6482267888
 20
188.7284040235
 30
0.0
  0
VERTEX
  5
66F
  8
SK2
  6
CONTINUOUS
 62
     7
 10
20.6485595358
 20
188.7420100584
 30
0.0
  0
VERTEX
  5
670
  8
SK2
  6
CONTINUOUS
 62
     7
 10
20.6490406763
 20
188.7552978252
 30
0.0
  0
VERTEX
  5
671
  8
SK2
  6
CONTINUOUS
 62
     7
 10
20.6496977609
 20
188.7683368694
 30
0.0
  0
VERTEX
  5
672
  8
SK2
  6
CONTINUOUS
 62
     7
 10
20.6505583403
 20
188.7811967366
 30
0.0
  0
VERTEX
  5
673
  8
SK2
  6
CONTINUOUS
 62
     7
 10
20.6516499651
 20
188.7939469725
 30
0.0
  0
VERTEX
  5
674
  8
SK2
  6
CONTINUOUS
 62
     7
 10
20.653000186
 20
188.8066571228
 30
0.0
  0
VERTEX
  5
675
  8
SK2
  6
CONTINUOUS
 62
     7
 10
20.6546365536
 20
188.819396733
 30
0.0
  0
VERTEX
  5
676
  8
SK2
  6
CONTINUOUS
 62
     7
 10
20.6565872219
 20
188.8322336101
 30
0.0
  0
VERTEX
  5
677
  8
SK2
  6
CONTINUOUS
 62
     7
 10
20.6589022195
 20
188.8451725267
 30
0.0
  0
VERTEX
  5
678
  8
SK2
  6
CONTINUOUS
 62
     7
 10
20.6616591083
 20
188.8581389134
 30
0.0
  0
VERTEX
  5
679
  8
SK2
  6
CONTINUOUS
 62
     7
 10
20.6649372043
 20
188.8710531466
 30
0.0
  0
VERTEX
  5
67A
  8
SK2
  6
CONTINUOUS
 62
     7
 10
20.6688158236
 20
188.8838356028
 30
0.0
  0
VERTEX
  5
67B
  8
SK2
  6
CONTINUOUS
 62
     7
 10
20.673374282
 20
188.8964066582
 30
0.0
  0
VERTEX
  5
67C
  8
SK2
  6
CONTINUOUS
 62
     7
 10
20.6786916453
 20
188.9086867426
 30
0.0
  0
VERTEX
  5
67D
  8
SK2
  6
CONTINUOUS
 62
     7
 10
20.6847961715
 20
188.9206071024
 30
0.0
  0
VERTEX
  5
67E
  8
SK2
  6
CONTINUOUS
 62
     7
 10
20.6916038498
 20
188.9321228856
 30
0.0
  0
VERTEX
  5
67F
  8
SK2
  6
CONTINUOUS
 62
     7
 10
20.6990156459
 20
188.9431924389
 30
0.0
  0
VERTEX
  5
680
  8
SK2
  6
CONTINUOUS
 62
     7
 10
20.7069325258
 20
188.9537741086
 30
0.0
  0
VERTEX
  5
681
  8
SK2
  6
CONTINUOUS
 62
     7
 10
20.7152554551
 20
188.9638262412
 30
0.0
  0
VERTEX
  5
682
  8
SK2
  6
CONTINUOUS
 62
     7
 10
20.7238860714
 20
188.9733074366
 30
0.0
  0
VERTEX
  5
683
  8
SK2
  6
CONTINUOUS
 62
     7
 10
20.7327661231
 20
188.9821914179
 30
0.0
  0
VERTEX
  5
684
  8
SK2
  6
CONTINUOUS
 62
     7
 10
20.7418994286
 20
188.9904753114
 30
0.0
  0
VERTEX
  5
685
  8
SK2
  6
CONTINUOUS
 62
     7
 10
20.7512951336
 20
188.9981582519
 30
0.0
  0
VERTEX
  5
686
  8
SK2
  6
CONTINUOUS
 62
     7
 10
20.7609623839
 20
189.0052393742
 30
0.0
  0
VERTEX
  5
687
  8
SK2
  6
CONTINUOUS
 62
     7
 10
20.7709103251
 20
189.0117178131
 30
0.0
  0
VERTEX
  5
688
  8
SK2
  6
CONTINUOUS
 62
     7
 10
20.781148103
 20
189.0175927035
 30
0.0
  0
VERTEX
  5
689
  8
SK2
  6
CONTINUOUS
 62
     7
 10
20.7916848633
 20
189.0228631801
 30
0.0
  0
VERTEX
  5
68A
  8
SK2
  6
CONTINUOUS
 62
     7
 10
20.8025297516
 20
189.0275283778
 30
0.0
  0
VERTEX
  5
68B
  8
SK2
  6
CONTINUOUS
 62
     7
 10
20.8136912894
 20
189.0315894083
 30
0.0
  0
VERTEX
  5
68C
  8
SK2
  6
CONTINUOUS
 62
     7
 10
20.8251697398
 20
189.0350735331
 30
0.0
  0
VERTEX
  5
68D
  8
SK2
  6
CONTINUOUS
 62
     7
 10
20.836959521
 20
189.0380265227
 30
0.0
  0
VERTEX
  5
68E
  8
SK2
  6
CONTINUOUS
 62
     7
 10
20.8490549272
 20
189.0404945387
 30
0.0
  0
VERTEX
  5
68F
  8
SK2
  6
CONTINUOUS
 62
     7
 10
20.861450253
 20
189.0425237428
 30
0.0
  0
VERTEX
  5
690
  8
SK2
  6
CONTINUOUS
 62
     7
 10
20.8741397928
 20
189.0441602966
 30
0.0
  0
VERTEX
  5
691
  8
SK2
  6
CONTINUOUS
 62
     7
 10
20.887117841
 20
189.0454503618
 30
0.0
  0
VERTEX
  5
692
  8
SK2
  6
CONTINUOUS
 62
     7
 10
20.9003786922
 20
189.0464401
 30
0.0
  0
VERTEX
  5
693
  8
SK2
  6
CONTINUOUS
 62
     7
 10
20.9139166407
 20
189.0471756728
 30
0.0
  0
VERTEX
  5
694
  8
SK2
  6
CONTINUOUS
 62
     7
 10
20.927725981
 20
189.0477032421
 30
0.0
  0
VERTEX
  5
695
  8
SK2
  6
CONTINUOUS
 62
     7
 10
20.9418010075
 20
189.0480689692
 30
0.0
  0
VERTEX
  5
696
  8
SK2
  6
CONTINUOUS
 62
     7
 10
20.9561360148
 20
189.0483190161
 30
0.0
  0
VERTEX
  5
697
  8
SK2
  6
CONTINUOUS
 62
     7
 10
20.9707256978
 20
189.048498496
 30
0.0
  0
VERTEX
  5
698
  8
SK2
  6
CONTINUOUS
 62
     7
 10
20.9855726132
 20
189.0486319481
 30
0.0
  0
VERTEX
  5
699
  8
SK2
  6
CONTINUOUS
 62
     7
 10
21.000686495
 20
189.0487251286
 30
0.0
  0
VERTEX
  5
69A
  8
SK2
  6
CONTINUOUS
 62
     7
 10
21.0160773405
 20
189.0487831042
 30
0.0
  0
VERTEX
  5
69B
  8
SK2
  6
CONTINUOUS
 62
     7
 10
21.0317551472
 20
189.0488109421
 30
0.0
  0
VERTEX
  5
69C
  8
SK2
  6
CONTINUOUS
 62
     7
 10
21.0477299124
 20
189.0488137091
 30
0.0
  0
VERTEX
  5
69D
  8
SK2
  6
CONTINUOUS
 62
     7
 10
21.0640116333
 20
189.0487964721
 30
0.0
  0
VERTEX
  5
69E
  8
SK2
  6
CONTINUOUS
 62
     7
 10
21.0806103074
 20
189.0487642981
 30
0.0
  0
VERTEX
  5
69F
  8
SK2
  6
CONTINUOUS
 62
     7
 10
21.097535932
 20
189.0487222541
 30
0.0
  0
VERTEX
  5
6A0
  8
SK2
  6
CONTINUOUS
 62
     7
 10
21.1147985044
 20
189.048675407
 30
0.0
  0
VERTEX
  5
6A1
  8
SK2
  6
CONTINUOUS
 62
     7
 10
21.132408022
 20
189.0486288237
 30
0.0
  0
VERTEX
  5
6A2
  8
SK2
  6
CONTINUOUS
 62
     7
 10
21.1503744821
 20
189.0485875711
 30
0.0
  0
VERTEX
  5
6A3
  8
SK2
  6
CONTINUOUS
 62
     7
 10
21.168707882
 20
189.0485567163
 30
0.0
  0
VERTEX
  5
6A4
  8
SK2
  6
CONTINUOUS
 62
     7
 10
21.1874182192
 20
189.0485413261
 30
0.0
  0
VERTEX
  5
6A5
  8
SK2
  6
CONTINUOUS
 62
     7
 10
21.2065154908
 20
189.0485464676
 30
0.0
  0
SEQEND
  5
975
  8
SK2
  6
CONTINUOUS
 62
     7
  0
LINE
  5
1B2
  8
SK2
  6
CONTINUOUS
 62
     7
 10
21.2065154908
 20
189.0485464676
 30
0.0
 11
21.2065154908
 21
188.7854244211
 31
0.0
  0
POLYLINE
  5
1B3
  8
SK2
  6
CONTINUOUS
 62
     7
 66
     1
 10
0.0
 20
0.0
 30
0.0
  0
VERTEX
  5
6A6
  8
SK2
  6
CONTINUOUS
 62
     7
 10
21.0078641699
 20
188.5774880992
 30
0.0
  0
VERTEX
  5
6A7
  8
SK2
  6
CONTINUOUS
 62
     7
 10
21.0078348267
 20
188.5973768645
 30
0.0
  0
VERTEX
  5
6A8
  8
SK2
  6
CONTINUOUS
 62
     7
 10
21.007837229
 20
188.614174444
 30
0.0
  0
VERTEX
  5
6A9
  8
SK2
  6
CONTINUOUS
 62
     7
 10
21.0078708438
 20
188.6282188945
 30
0.0
  0
VERTEX
  5
6AA
  8
SK2
  6
CONTINUOUS
 62
     7
 10
21.0079351385
 20
188.6398482729
 30
0.0
  0
VERTEX
  5
6AB
  8
SK2
  6
CONTINUOUS
 62
     7
 10
21.0080295803
 20
188.649400636
 30
0.0
  0
VERTEX
  5
6AC
  8
SK2
  6
CONTINUOUS
 62
     7
 10
21.0081536363
 20
188.6572140406
 30
0.0
  0
VERTEX
  5
6AD
  8
SK2
  6
CONTINUOUS
 62
     7
 10
21.0083067738
 20
188.6636265435
 30
0.0
  0
VERTEX
  5
6AE
  8
SK2
  6
CONTINUOUS
 62
     7
 10
21.0084884601
 20
188.6689762015
 30
0.0
  0
VERTEX
  5
6AF
  8
SK2
  6
CONTINUOUS
 62
     7
 10
21.0086981623
 20
188.6736010716
 30
0.0
  0
VERTEX
  5
6B0
  8
SK2
  6
CONTINUOUS
 62
     7
 10
21.0089353477
 20
188.6778392104
 30
0.0
  0
VERTEX
  5
6B1
  8
SK2
  6
CONTINUOUS
 62
     7
 10
21.0091994834
 20
188.6820286749
 30
0.0
  0
VERTEX
  5
6B2
  8
SK2
  6
CONTINUOUS
 62
     7
 10
21.0094969002
 20
188.6864448197
 30
0.0
  0
VERTEX
  5
6B3
  8
SK2
  6
CONTINUOUS
 62
     7
 10
21.009861111
 20
188.6911146714
 30
0.0
  0
VERTEX
  5
6B4
  8
SK2
  6
CONTINUOUS
 62
     7
 10
21.010332357
 20
188.6960037886
 30
0.0
  0
VERTEX
  5
6B5
  8
SK2
  6
CONTINUOUS
 62
     7
 10
21.0109508797
 20
188.70107773
 30
0.0
  0
VERTEX
  5
6B6
  8
SK2
  6
CONTINUOUS
 62
     7
 10
21.0117569203
 20
188.7063020542
 30
0.0
  0
VERTEX
  5
6B7
  8
SK2
  6
CONTINUOUS
 62
     7
 10
21.0127907201
 20
188.7116423197
 30
0.0
  0
VERTEX
  5
6B8
  8
SK2
  6
CONTINUOUS
 62
     7
 10
21.0140925204
 20
188.7170640851
 30
0.0
  0
VERTEX
  5
6B9
  8
SK2
  6
CONTINUOUS
 62
     7
 10
21.0157025625
 20
188.7225329092
 30
0.0
  0
VERTEX
  5
6BA
  8
SK2
  6
CONTINUOUS
 62
     7
 10
21.0176610878
 20
188.7280143504
 30
0.0
  0
VERTEX
  5
6BB
  8
SK2
  6
CONTINUOUS
 62
     7
 10
21.0200067135
 20
188.7334730464
 30
0.0
  0
VERTEX
  5
6BC
  8
SK2
  6
CONTINUOUS
 62
     7
 10
21.0227419058
 20
188.7388531334
 30
0.0
  0
VERTEX
  5
6BD
  8
SK2
  6
CONTINUOUS
 62
     7
 10
21.0258336346
 20
188.7440786173
 30
0.0
  0
VERTEX
  5
6BE
  8
SK2
  6
CONTINUOUS
 62
     7
 10
21.0292473767
 20
188.7490726574
 30
0.0
  0
VERTEX
  5
6BF
  8
SK2
  6
CONTINUOUS
 62
     7
 10
21.032948609
 20
188.753758413
 30
0.0
  0
VERTEX
  5
6C0
  8
SK2
  6
CONTINUOUS
 62
     7
 10
21.0369028084
 20
188.7580590434
 30
0.0
  0
VERTEX
  5
6C1
  8
SK2
  6
CONTINUOUS
 62
     7
 10
21.0410754357
 20
188.7618991751
 30
0.0
  0
VERTEX
  5
6C2
  8
SK2
  6
CONTINUOUS
 62
     7
 10
21.045431373
 20
188.7652561753
 30
0.0
  0
VERTEX
  5
6C3
  8
SK2
  6
CONTINUOUS
 62
     7
 10
21.0499347773
 20
188.7681735375
 30
0.0
  0
VERTEX
  5
6C4
  8
SK2
  6
CONTINUOUS
 62
     7
 10
21.0545497596
 20
188.7706989424
 30
0.0
  0
VERTEX
  5
6C5
  8
SK2
  6
CONTINUOUS
 62
     7
 10
21.0592404309
 20
188.7728800705
 30
0.0
  0
VERTEX
  5
6C6
  8
SK2
  6
CONTINUOUS
 62
     7
 10
21.0639709022
 20
188.7747646026
 30
0.0
  0
VERTEX
  5
6C7
  8
SK2
  6
CONTINUOUS
 62
     7
 10
21.0687052844
 20
188.7764002191
 30
0.0
  0
VERTEX
  5
6C8
  8
SK2
  6
CONTINUOUS
 62
     7
 10
21.0734076886
 20
188.7778346009
 30
0.0
  0
VERTEX
  5
6C9
  8
SK2
  6
CONTINUOUS
 62
     7
 10
21.0780511008
 20
188.7791098357
 30
0.0
  0
VERTEX
  5
6CA
  8
SK2
  6
CONTINUOUS
 62
     7
 10
21.0826501037
 20
188.7802417991
 30
0.0
  0
VERTEX
  5
6CB
  8
SK2
  6
CONTINUOUS
 62
     7
 10
21.0872314568
 20
188.7812386934
 30
0.0
  0
VERTEX
  5
6CC
  8
SK2
  6
CONTINUOUS
 62
     7
 10
21.0918219207
 20
188.78210872
 30
0.0
  0
VERTEX
  5
6CD
  8
SK2
  6
CONTINUOUS
 62
     7
 10
21.0964482561
 20
188.7828600804
 30
0.0
  0
VERTEX
  5
6CE
  8
SK2
  6
CONTINUOUS
 62
     7
 10
21.1011372239
 20
188.7835009758
 30
0.0
  0
VERTEX
  5
6CF
  8
SK2
  6
CONTINUOUS
 62
     7
 10
21.1059155848
 20
188.7840396077
 30
0.0
  0
VERTEX
  5
6D0
  8
SK2
  6
CONTINUOUS
 62
     7
 10
21.1108100996
 20
188.7844841776
 30
0.0
  0
VERTEX
  5
6D1
  8
SK2
  6
CONTINUOUS
 62
     7
 10
21.115847529
 20
188.7848428868
 30
0.0
  0
VERTEX
  5
6D2
  8
SK2
  6
CONTINUOUS
 62
     7
 10
21.1210546338
 20
188.7851239367
 30
0.0
  0
VERTEX
  5
6D3
  8
SK2
  6
CONTINUOUS
 62
     7
 10
21.1264581748
 20
188.7853355287
 30
0.0
  0
VERTEX
  5
6D4
  8
SK2
  6
CONTINUOUS
 62
     7
 10
21.1320849127
 20
188.7854858642
 30
0.0
  0
VERTEX
  5
6D5
  8
SK2
  6
CONTINUOUS
 62
     7
 10
21.1379616084
 20
188.7855831446
 30
0.0
  0
VERTEX
  5
6D6
  8
SK2
  6
CONTINUOUS
 62
     7
 10
21.1441150224
 20
188.7856355714
 30
0.0
  0
VERTEX
  5
6D7
  8
SK2
  6
CONTINUOUS
 62
     7
 10
21.1505719157
 20
188.7856513459
 30
0.0
  0
VERTEX
  5
6D8
  8
SK2
  6
CONTINUOUS
 62
     7
 10
21.1573590489
 20
188.7856386695
 30
0.0
  0
VERTEX
  5
6D9
  8
SK2
  6
CONTINUOUS
 62
     7
 10
21.1645031829
 20
188.7856057436
 30
0.0
  0
VERTEX
  5
6DA
  8
SK2
  6
CONTINUOUS
 62
     7
 10
21.1720310785
 20
188.7855607697
 30
0.0
  0
VERTEX
  5
6DB
  8
SK2
  6
CONTINUOUS
 62
     7
 10
21.1799694962
 20
188.785511949
 30
0.0
  0
VERTEX
  5
6DC
  8
SK2
  6
CONTINUOUS
 62
     7
 10
21.188345197
 20
188.7854674831
 30
0.0
  0
VERTEX
  5
6DD
  8
SK2
  6
CONTINUOUS
 62
     7
 10
21.1971849417
 20
188.7854355734
 30
0.0
  0
VERTEX
  5
6DE
  8
SK2
  6
CONTINUOUS
 62
     7
 10
21.2065154908
 20
188.7854244211
 30
0.0
  0
SEQEND
  5
974
  8
SK2
  6
CONTINUOUS
 62
     7
  0
LINE
  5
1B4
  8
SK2
  6
CONTINUOUS
 62
     7
 10
21.2237864353
 20
188.5774880992
 30
0.0
 11
21.0078641699
 21
188.5774880992
 31
0.0
  0
LINE
  5
1B5
  8
SK2
  6
CONTINUOUS
 62
     7
 10
21.2237864353
 20
188.3232248946
 30
0.0
 11
21.2237864353
 21
188.5774880992
 31
0.0
  0
LINE
  5
1B6
  8
SK2
  6
CONTINUOUS
 62
     7
 10
21.0078641699
 20
188.3232248946
 30
0.0
 11
21.2237864353
 21
188.3232248946
 31
0.0
  0
LINE
  5
1B7
  8
SK2
  6
CONTINUOUS
 62
     7
 10
21.0078641699
 20
187.2800436062
 30
0.0
 11
21.0078641699
 21
188.3232248946
 31
0.0
  0
LINE
  5
1B8
  8
SK2
  6
CONTINUOUS
 62
     7
 10
20.6473639144
 20
187.2800436062
 30
0.0
 11
21.0078641699
 21
187.2800436062
 31
0.0
  0
LINE
  5
1B9
  8
SK2
  6
CONTINUOUS
 62
     7
 10
20.6473639144
 20
188.3232248946
 30
0.0
 11
20.6473639144
 21
187.2800436062
 31
0.0
  0
LINE
  5
1BA
  8
SK2
  6
CONTINUOUS
 62
     7
 10
19.1536478393
 20
189.9564957932
 30
0.0
 11
19.1536478393
 21
189.3024706242
 31
0.0
  0
LINE
  5
1BB
  8
SK2
  6
CONTINUOUS
 62
     7
 10
19.1536478393
 20
189.3024706242
 30
0.0
 11
18.7893908455
 21
189.3024706242
 31
0.0
  0
LINE
  5
1BC
  8
SK2
  6
CONTINUOUS
 62
     7
 10
18.7893908455
 20
189.3024706242
 30
0.0
 11
18.7893908455
 21
190.6105209622
 31
0.0
  0
LINE
  5
1BD
  8
SK2
  6
CONTINUOUS
 62
     7
 10
18.7893908455
 20
190.6105209622
 30
0.0
 11
19.12508518
 21
190.6105209622
 31
0.0
  0
LINE
  5
1BE
  8
SK2
  6
CONTINUOUS
 62
     7
 10
19.12508518
 20
190.6105209622
 30
0.0
 11
19.12508518
 21
190.407139739
 31
0.0
  0
POLYLINE
  5
1BF
  8
SK2
  6
CONTINUOUS
 62
     7
 66
     1
 10
0.0
 20
0.0
 30
0.0
  0
VERTEX
  5
6DF
  8
SK2
  6
CONTINUOUS
 62
     7
 10
19.12508518
 20
190.407139739
 30
0.0
  0
VERTEX
  5
6E0
  8
SK2
  6
CONTINUOUS
 62
     7
 10
19.1319627472
 20
190.4193727459
 30
0.0
  0
VERTEX
  5
6E1
  8
SK2
  6
CONTINUOUS
 62
     7
 10
19.13877518
 20
190.4312886261
 30
0.0
  0
VERTEX
  5
6E2
  8
SK2
  6
CONTINUOUS
 62
     7
 10
19.14556757
 20
190.4428949637
 30
0.0
  0
VERTEX
  5
6E3
  8
SK2
  6
CONTINUOUS
 62
     7
 10
19.152385009
 20
190.4541993428
 30
0.0
  0
VERTEX
  5
6E4
  8
SK2
  6
CONTINUOUS
 62
     7
 10
19.1592725886
 20
190.4652093474
 30
0.0
  0
VERTEX
  5
6E5
  8
SK2
  6
CONTINUOUS
 62
     7
 10
19.1662754006
 20
190.4759325616
 30
0.0
  0
VERTEX
  5
6E6
  8
SK2
  6
CONTINUOUS
 62
     7
 10
19.1734385367
 20
190.4863765693
 30
0.0
  0
VERTEX
  5
6E7
  8
SK2
  6
CONTINUOUS
 62
     7
 10
19.1808070885
 20
190.4965489547
 30
0.0
  0
VERTEX
  5
6E8
  8
SK2
  6
CONTINUOUS
 62
     7
 10
19.1884261478
 20
190.5064573017
 30
0.0
  0
VERTEX
  5
6E9
  8
SK2
  6
CONTINUOUS
 62
     7
 10
19.1963408063
 20
190.5161091945
 30
0.0
  0
VERTEX
  5
6EA
  8
SK2
  6
CONTINUOUS
 62
     7
 10
19.2045961557
 20
190.5255122171
 30
0.0
  0
VERTEX
  5
6EB
  8
SK2
  6
CONTINUOUS
 62
     7
 10
19.2132372876
 20
190.5346739535
 30
0.0
  0
VERTEX
  5
6EC
  8
SK2
  6
CONTINUOUS
 62
     7
 10
19.2223058873
 20
190.5436004375
 30
0.0
  0
VERTEX
  5
6ED
  8
SK2
  6
CONTINUOUS
 62
     7
 10
19.2317996699
 20
190.5522776947
 30
0.0
  0
VERTEX
  5
6EE
  8
SK2
  6
CONTINUOUS
 62
     7
 10
19.2416857615
 20
190.5606778305
 30
0.0
  0
VERTEX
  5
6EF
  8
SK2
  6
CONTINUOUS
 62
     7
 10
19.2519306682
 20
190.5687726687
 30
0.0
  0
VERTEX
  5
6F0
  8
SK2
  6
CONTINUOUS
 62
     7
 10
19.2625008964
 20
190.5765340328
 30
0.0
  0
VERTEX
  5
6F1
  8
SK2
  6
CONTINUOUS
 62
     7
 10
19.2733629522
 20
190.5839337465
 30
0.0
  0
VERTEX
  5
6F2
  8
SK2
  6
CONTINUOUS
 62
     7
 10
19.2844833418
 20
190.5909436334
 30
0.0
  0
VERTEX
  5
6F3
  8
SK2
  6
CONTINUOUS
 62
     7
 10
19.2958285716
 20
190.5975355172
 30
0.0
  0
VERTEX
  5
6F4
  8
SK2
  6
CONTINUOUS
 62
     7
 10
19.3073651478
 20
190.6036812216
 30
0.0
  0
VERTEX
  5
6F5
  8
SK2
  6
CONTINUOUS
 62
     7
 10
19.3190595765
 20
190.60935257
 30
0.0
  0
VERTEX
  5
6F6
  8
SK2
  6
CONTINUOUS
 62
     7
 10
19.3308783642
 20
190.6145213863
 30
0.0
  0
VERTEX
  5
6F7
  8
SK2
  6
CONTINUOUS
 62
     7
 10
19.3427880185
 20
190.6191594961
 30
0.0
  0
VERTEX
  5
6F8
  8
SK2
  6
CONTINUOUS
 62
     7
 10
19.35476368
 20
190.6232503952
 30
0.0
  0
VERTEX
  5
6F9
  8
SK2
  6
CONTINUOUS
 62
     7
 10
19.3668093119
 20
190.626816542
 30
0.0
  0
VERTEX
  5
6FA
  8
SK2
  6
CONTINUOUS
 62
     7
 10
19.3789348853
 20
190.6298885167
 30
0.0
  0
VERTEX
  5
6FB
  8
SK2
  6
CONTINUOUS
 62
     7
 10
19.3911503715
 20
190.6324968998
 30
0.0
  0
VERTEX
  5
6FC
  8
SK2
  6
CONTINUOUS
 62
     7
 10
19.4034657418
 20
190.6346722715
 30
0.0
  0
VERTEX
  5
6FD
  8
SK2
  6
CONTINUOUS
 62
     7
 10
19.4158909672
 20
190.6364452121
 30
0.0
  0
VERTEX
  5
6FE
  8
SK2
  6
CONTINUOUS
 62
     7
 10
19.4284360191
 20
190.6378463019
 30
0.0
  0
VERTEX
  5
6FF
  8
SK2
  6
CONTINUOUS
 62
     7
 10
19.4411108687
 20
190.6389061213
 30
0.0
  0
VERTEX
  5
700
  8
SK2
  6
CONTINUOUS
 62
     7
 10
19.4539254871
 20
190.6396552505
 30
0.0
  0
VERTEX
  5
701
  8
SK2
  6
CONTINUOUS
 62
     7
 10
19.4668898456
 20
190.6401242699
 30
0.0
  0
VERTEX
  5
702
  8
SK2
  6
CONTINUOUS
 62
     7
 10
19.4800139154
 20
190.6403437598
 30
0.0
  0
VERTEX
  5
703
  8
SK2
  6
CONTINUOUS
 62
     7
 10
19.4933076678
 20
190.6403443005
 30
0.0
  0
VERTEX
  5
704
  8
SK2
  6
CONTINUOUS
 62
     7
 10
19.5067810739
 20
190.6401564723
 30
0.0
  0
VERTEX
  5
705
  8
SK2
  6
CONTINUOUS
 62
     7
 10
19.5204441049
 20
190.6398108555
 30
0.0
  0
VERTEX
  5
706
  8
SK2
  6
CONTINUOUS
 62
     7
 10
19.5343067322
 20
190.6393380304
 30
0.0
  0
VERTEX
  5
707
  8
SK2
  6
CONTINUOUS
 62
     7
 10
19.5483789268
 20
190.6387685774
 30
0.0
  0
SEQEND
  5
973
  8
SK2
  6
CONTINUOUS
 62
     7
  0
LINE
  5
1C0
  8
SK2
  6
CONTINUOUS
 62
     7
 10
19.5483789268
 20
190.6387685774
 30
0.0
 11
19.5483789268
 21
190.2822211579
 31
0.0
  0
POLYLINE
  5
1C1
  8
SK2
  6
CONTINUOUS
 62
     7
 66
     1
 10
0.0
 20
0.0
 30
0.0
  0
VERTEX
  5
708
  8
SK2
  6
CONTINUOUS
 62
     7
 10
19.5483789268
 20
190.2822211579
 30
0.0
  0
VERTEX
  5
709
  8
SK2
  6
CONTINUOUS
 62
     7
 10
19.5320087854
 20
190.2881224187
 30
0.0
  0
VERTEX
  5
70A
  8
SK2
  6
CONTINUOUS
 62
     7
 10
19.5167056945
 20
190.2927964982
 30
0.0
  0
VERTEX
  5
70B
  8
SK2
  6
CONTINUOUS
 62
     7
 10
19.5023634985
 20
190.2963614223
 30
0.0
  0
VERTEX
  5
70C
  8
SK2
  6
CONTINUOUS
 62
     7
 10
19.4888760417
 20
190.2989352165
 30
0.0
  0
VERTEX
  5
70D
  8
SK2
  6
CONTINUOUS
 62
     7
 10
19.4761371687
 20
190.3006359067
 30
0.0
  0
VERTEX
  5
70E
  8
SK2
  6
CONTINUOUS
 62
     7
 10
19.4640407236
 20
190.3015815184
 30
0.0
  0
VERTEX
  5
70F
  8
SK2
  6
CONTINUOUS
 62
     7
 10
19.452480551
 20
190.3018900774
 30
0.0
  0
VERTEX
  5
710
  8
SK2
  6
CONTINUOUS
 62
     7
 10
19.4413504952
 20
190.3016796094
 30
0.0
  0
VERTEX
  5
711
  8
SK2
  6
CONTINUOUS
 62
     7
 10
19.4305444006
 20
190.30106814
 30
0.0
  0
VERTEX
  5
712
  8
SK2
  6
CONTINUOUS
 62
     7
 10
19.4199619904
 20
190.300163993
 30
0.0
  0
VERTEX
  5
713
  8
SK2
  6
CONTINUOUS
 62
     7
 10
19.4095522238
 20
190.298994238
 30
0.0
  0
VERTEX
  5
714
  8
SK2
  6
CONTINUOUS
 62
     7
 10
19.399288614
 20
190.2975454226
 30
0.0
  0
VERTEX
  5
715
  8
SK2
  6
CONTINUOUS
 62
     7
 10
19.3891448547
 20
190.2958037966
 30
0.0
  0
VERTEX
  5
716
  8
SK2
  6
CONTINUOUS
 62
     7
 10
19.3790946396
 20
190.29375561
 30
0.0
  0
VERTEX
  5
717
  8
SK2
  6
CONTINUOUS
 62
     7
 10
19.3691116626
 20
190.2913871127
 30
0.0
  0
VERTEX
  5
718
  8
SK2
  6
CONTINUOUS
 62
     7
 10
19.3591696171
 20
190.2886845545
 30
0.0
  0
VERTEX
  5
719
  8
SK2
  6
CONTINUOUS
 62
     7
 10
19.349242197
 20
190.2856341855
 30
0.0
  0
VERTEX
  5
71A
  8
SK2
  6
CONTINUOUS
 62
     7
 10
19.3393031373
 20
190.2822222692
 30
0.0
  0
VERTEX
  5
71B
  8
SK2
  6
CONTINUOUS
 62
     7
 10
19.3293432573
 20
190.2784407761
 30
0.0
  0
VERTEX
  5
71C
  8
SK2
  6
CONTINUOUS
 62
     7
 10
19.3193967158
 20
190.2742961534
 30
0.0
  0
VERTEX
  5
71D
  8
SK2
  6
CONTINUOUS
 62
     7
 10
19.3095044413
 20
190.2697971095
 30
0.0
  0
VERTEX
  5
71E
  8
SK2
  6
CONTINUOUS
 62
     7
 10
19.2997073624
 20
190.2649523528
 30
0.0
  0
VERTEX
  5
71F
  8
SK2
  6
CONTINUOUS
 62
     7
 10
19.2900464075
 20
190.2597705919
 30
0.0
  0
VERTEX
  5
720
  8
SK2
  6
CONTINUOUS
 62
     7
 10
19.2805625053
 20
190.2542605351
 30
0.0
  0
VERTEX
  5
721
  8
SK2
  6
CONTINUOUS
 62
     7
 10
19.2712965842
 20
190.248430891
 30
0.0
  0
VERTEX
  5
722
  8
SK2
  6
CONTINUOUS
 62
     7
 10
19.2622895727
 20
190.242290368
 30
0.0
  0
VERTEX
  5
723
  8
SK2
  6
CONTINUOUS
 62
     7
 10
19.2535823994
 20
190.2358476746
 30
0.0
  0
VERTEX
  5
724
  8
SK2
  6
CONTINUOUS
 62
     7
 10
19.2452159927
 20
190.2291115192
 30
0.0
  0
VERTEX
  5
725
  8
SK2
  6
CONTINUOUS
 62
     7
 10
19.2372300467
 20
190.2220906966
 30
0.0
  0
VERTEX
  5
726
  8
SK2
  6
CONTINUOUS
 62
     7
 10
19.2296421758
 20
190.214795547
 30
0.0
  0
VERTEX
  5
727
  8
SK2
  6
CONTINUOUS
 62
     7
 10
19.222450941
 20
190.2072377437
 30
0.0
  0
VERTEX
  5
728
  8
SK2
  6
CONTINUOUS
 62
     7
 10
19.215654278
 20
190.1994290041
 30
0.0
  0
VERTEX
  5
729
  8
SK2
  6
CONTINUOUS
 62
     7
 10
19.2092501225
 20
190.1913810454
 30
0.0
  0
VERTEX
  5
72A
  8
SK2
  6
CONTINUOUS
 62
     7
 10
19.2032364103
 20
190.1831055847
 30
0.0
  0
VERTEX
  5
72B
  8
SK2
  6
CONTINUOUS
 62
     7
 10
19.1976110771
 20
190.1746143394
 30
0.0
  0
VERTEX
  5
72C
  8
SK2
  6
CONTINUOUS
 62
     7
 10
19.1923720585
 20
190.1659190266
 30
0.0
  0
VERTEX
  5
72D
  8
SK2
  6
CONTINUOUS
 62
     7
 10
19.1875172904
 20
190.1570313636
 30
0.0
  0
VERTEX
  5
72E
  8
SK2
  6
CONTINUOUS
 62
     7
 10
19.1830447084
 20
190.1479630676
 30
0.0
  0
VERTEX
  5
72F
  8
SK2
  6
CONTINUOUS
 62
     7
 10
19.1789522482
 20
190.1387258559
 30
0.0
  0
VERTEX
  5
730
  8
SK2
  6
CONTINUOUS
 62
     7
 10
19.1752378455
 20
190.1293314455
 30
0.0
  0
VERTEX
  5
731
  8
SK2
  6
CONTINUOUS
 62
     7
 10
19.1718962956
 20
190.119788726
 30
0.0
  0
VERTEX
  5
732
  8
SK2
  6
CONTINUOUS
 62
     7
 10
19.1689108569
 20
190.1100961982
 30
0.0
  0
VERTEX
  5
733
  8
SK2
  6
CONTINUOUS
 62
     7
 10
19.1662621392
 20
190.1002499778
 30
0.0
  0
VERTEX
  5
734
  8
SK2
  6
CONTINUOUS
 62
     7
 10
19.163930752
 20
190.0902461807
 30
0.0
  0
VERTEX
  5
735
  8
SK2
  6
CONTINUOUS
 62
     7
 10
19.1618973053
 20
190.0800809228
 30
0.0
  0
VERTEX
  5
736
  8
SK2
  6
CONTINUOUS
 62
     7
 10
19.1601424086
 20
190.0697503198
 30
0.0
  0
VERTEX
  5
737
  8
SK2
  6
CONTINUOUS
 62
     7
 10
19.1586466718
 20
190.0592504876
 30
0.0
  0
VERTEX
  5
738
  8
SK2
  6
CONTINUOUS
 62
     7
 10
19.1573907046
 20
190.048577542
 30
0.0
  0
VERTEX
  5
739
  8
SK2
  6
CONTINUOUS
 62
     7
 10
19.1563551167
 20
190.0377275988
 30
0.0
  0
VERTEX
  5
73A
  8
SK2
  6
CONTINUOUS
 62
     7
 10
19.1555205178
 20
190.0266967738
 30
0.0
  0
VERTEX
  5
73B
  8
SK2
  6
CONTINUOUS
 62
     7
 10
19.1548675177
 20
190.0154811829
 30
0.0
  0
VERTEX
  5
73C
  8
SK2
  6
CONTINUOUS
 62
     7
 10
19.1543767261
 20
190.0040769419
 30
0.0
  0
VERTEX
  5
73D
  8
SK2
  6
CONTINUOUS
 62
     7
 10
19.1540287528
 20
189.9924801666
 30
0.0
  0
VERTEX
  5
73E
  8
SK2
  6
CONTINUOUS
 62
     7
 10
19.1538042074
 20
189.9806869729
 30
0.0
  0
VERTEX
  5
73F
  8
SK2
  6
CONTINUOUS
 62
     7
 10
19.1536836996
 20
189.9686934764
 30
0.0
  0
VERTEX
  5
740
  8
SK2
  6
CONTINUOUS
 62
     7
 10
19.1536478393
 20
189.9564957932
 30
0.0
  0
SEQEND
  5
972
  8
SK2
  6
CONTINUOUS
 62
     7
  0
POLYLINE
  5
1C2
  8
SK2
  6
CONTINUOUS
 62
     7
 66
     1
 10
0.0
 20
0.0
 30
0.0
  0
VERTEX
  5
741
  8
SK2
  6
CONTINUOUS
 62
     7
 10
20.7844043406
 20
189.8640827947
 30
0.0
  0
VERTEX
  5
742
  8
SK2
  6
CONTINUOUS
 62
     7
 10
20.7849491159
 20
189.9082963319
 30
0.0
  0
VERTEX
  5
743
  8
SK2
  6
CONTINUOUS
 62
     7
 10
20.7848923314
 20
189.9507811725
 30
0.0
  0
VERTEX
  5
744
  8
SK2
  6
CONTINUOUS
 62
     7
 10
20.7840731015
 20
189.9917059354
 30
0.0
  0
VERTEX
  5
745
  8
SK2
  6
CONTINUOUS
 62
     7
 10
20.7823305408
 20
190.0312392393
 30
0.0
  0
VERTEX
  5
746
  8
SK2
  6
CONTINUOUS
 62
     7
 10
20.7795037637
 20
190.0695497031
 30
0.0
  0
VERTEX
  5
747
  8
SK2
  6
CONTINUOUS
 62
     7
 10
20.7754318846
 20
190.1068059455
 30
0.0
  0
VERTEX
  5
748
  8
SK2
  6
CONTINUOUS
 62
     7
 10
20.7699584717
 20
190.1431702722
 30
0.0
  0
VERTEX
  5
749
  8
SK2
  6
CONTINUOUS
 62
     7
 10
20.7630081055
 20
190.178690148
 30
0.0
  0
VERTEX
  5
74A
  8
SK2
  6
CONTINUOUS
 62
     7
 10
20.7545760121
 20
190.2133128934
 30
0.0
  0
VERTEX
  5
74B
  8
SK2
  6
CONTINUOUS
 62
     7
 10
20.7446597853
 20
190.2469824724
 30
0.0
  0
VERTEX
  5
74C
  8
SK2
  6
CONTINUOUS
 62
     7
 10
20.733257019
 20
190.2796428491
 30
0.0
  0
VERTEX
  5
74D
  8
SK2
  6
CONTINUOUS
 62
     7
 10
20.7203653069
 20
190.3112379874
 30
0.0
  0
VERTEX
  5
74E
  8
SK2
  6
CONTINUOUS
 62
     7
 10
20.705982243
 20
190.3417118512
 30
0.0
  0
VERTEX
  5
74F
  8
SK2
  6
CONTINUOUS
 62
     7
 10
20.6901054209
 20
190.3710084048
 30
0.0
  0
VERTEX
  5
750
  8
SK2
  6
CONTINUOUS
 62
     7
 10
20.6727324347
 20
190.3990716119
 30
0.0
  0
VERTEX
  5
751
  8
SK2
  6
CONTINUOUS
 62
     7
 10
20.653860878
 20
190.4258454367
 30
0.0
  0
VERTEX
  5
752
  8
SK2
  6
CONTINUOUS
 62
     7
 10
20.6334883447
 20
190.4512738431
 30
0.0
  0
VERTEX
  5
753
  8
SK2
  6
CONTINUOUS
 62
     7
 10
20.6116269989
 20
190.4753070343
 30
0.0
  0
VERTEX
  5
754
  8
SK2
  6
CONTINUOUS
 62
     7
 10
20.5883582427
 20
190.4979248623
 30
0.0
  0
VERTEX
  5
755
  8
SK2
  6
CONTINUOUS
 62
     7
 10
20.563784023
 20
190.5191159766
 30
0.0
  0
VERTEX
  5
756
  8
SK2
  6
CONTINUOUS
 62
     7
 10
20.53800629
 20
190.5388690281
 30
0.0
  0
VERTEX
  5
757
  8
SK2
  6
CONTINUOUS
 62
     7
 10
20.511126994
 20
190.5571726679
 30
0.0
  0
VERTEX
  5
758
  8
SK2
  6
CONTINUOUS
 62
     7
 10
20.4832480851
 20
190.5740155467
 30
0.0
  0
VERTEX
  5
759
  8
SK2
  6
CONTINUOUS
 62
     7
 10
20.4544715137
 20
190.5893863156
 30
0.0
  0
VERTEX
  5
75A
  8
SK2
  6
CONTINUOUS
 62
     7
 10
20.4248992298
 20
190.6032736256
 30
0.0
  0
VERTEX
  5
75B
  8
SK2
  6
CONTINUOUS
 62
     7
 10
20.3946331838
 20
190.6156661275
 30
0.0
  0
VERTEX
  5
75C
  8
SK2
  6
CONTINUOUS
 62
     7
 10
20.3637753258
 20
190.6265524723
 30
0.0
  0
VERTEX
  5
75D
  8
SK2
  6
CONTINUOUS
 62
     7
 10
20.3324271346
 20
190.6359212525
 30
0.0
  0
VERTEX
  5
75E
  8
SK2
  6
CONTINUOUS
 62
     7
 10
20.3006747832
 20
190.6437591626
 30
0.0
  0
VERTEX
  5
75F
  8
SK2
  6
CONTINUOUS
 62
     7
 10
20.2685861524
 20
190.6500506285
 30
0.0
  0
VERTEX
  5
760
  8
SK2
  6
CONTINUOUS
 62
     7
 10
20.2362280482
 20
190.6547799432
 30
0.0
  0
VERTEX
  5
761
  8
SK2
  6
CONTINUOUS
 62
     7
 10
20.2036672768
 20
190.6579313994
 30
0.0
  0
VERTEX
  5
762
  8
SK2
  6
CONTINUOUS
 62
     7
 10
20.1709706444
 20
190.6594892899
 30
0.0
  0
VERTEX
  5
763
  8
SK2
  6
CONTINUOUS
 62
     7
 10
20.1382049571
 20
190.6594379077
 30
0.0
  0
VERTEX
  5
764
  8
SK2
  6
CONTINUOUS
 62
     7
 10
20.105437021
 20
190.6577615453
 30
0.0
  0
VERTEX
  5
765
  8
SK2
  6
CONTINUOUS
 62
     7
 10
20.0727336422
 20
190.6544444958
 30
0.0
  0
VERTEX
  5
766
  8
SK2
  6
CONTINUOUS
 62
     7
 10
20.0401616269
 20
190.6494710519
 30
0.0
  0
VERTEX
  5
767
  8
SK2
  6
CONTINUOUS
 62
     7
 10
20.0077877811
 20
190.6428255064
 30
0.0
  0
VERTEX
  5
768
  8
SK2
  6
CONTINUOUS
 62
     7
 10
19.9756789112
 20
190.6344921521
 30
0.0
  0
VERTEX
  5
769
  8
SK2
  6
CONTINUOUS
 62
     7
 10
19.9439036136
 20
190.6244559244
 30
0.0
  0
VERTEX
  5
76A
  8
SK2
  6
CONTINUOUS
 62
     7
 10
19.9125719559
 20
190.6127166416
 30
0.0
  0
VERTEX
  5
76B
  8
SK2
  6
CONTINUOUS
 62
     7
 10
19.8818356373
 20
190.5992890623
 30
0.0
  0
VERTEX
  5
76C
  8
SK2
  6
CONTINUOUS
 62
     7
 10
19.8518481796
 20
190.5841885994
 30
0.0
  0
VERTEX
  5
76D
  8
SK2
  6
CONTINUOUS
 62
     7
 10
19.8227631048
 20
190.5674306658
 30
0.0
  0
VERTEX
  5
76E
  8
SK2
  6
CONTINUOUS
 62
     7
 10
19.7947339346
 20
190.5490306744
 30
0.0
  0
VERTEX
  5
76F
  8
SK2
  6
CONTINUOUS
 62
     7
 10
19.7679141911
 20
190.529004038
 30
0.0
  0
VERTEX
  5
770
  8
SK2
  6
CONTINUOUS
 62
     7
 10
19.7424573961
 20
190.5073661694
 30
0.0
  0
VERTEX
  5
771
  8
SK2
  6
CONTINUOUS
 62
     7
 10
19.7184926446
 20
190.484146719
 30
0.0
  0
VERTEX
  5
772
  8
SK2
  6
CONTINUOUS
 62
     7
 10
19.6960329452
 20
190.4594429995
 30
0.0
  0
VERTEX
  5
773
  8
SK2
  6
CONTINUOUS
 62
     7
 10
19.6750568568
 20
190.433372403
 30
0.0
  0
VERTEX
  5
774
  8
SK2
  6
CONTINUOUS
 62
     7
 10
19.6555429329
 20
190.4060523246
 30
0.0
  0
VERTEX
  5
775
  8
SK2
  6
CONTINUOUS
 62
     7
 10
19.637469727
 20
190.3776001596
 30
0.0
  0
VERTEX
  5
776
  8
SK2
  6
CONTINUOUS
 62
     7
 10
19.6208157927
 20
190.3481333032
 30
0.0
  0
VERTEX
  5
777
  8
SK2
  6
CONTINUOUS
 62
     7
 10
19.6055596834
 20
190.3177691506
 30
0.0
  0
VERTEX
  5
778
  8
SK2
  6
CONTINUOUS
 62
     7
 10
19.5916799527
 20
190.2866250971
 30
0.0
  0
VERTEX
  5
779
  8
SK2
  6
CONTINUOUS
 62
     7
 10
19.5791551541
 20
190.2548185378
 30
0.0
  0
VERTEX
  5
77A
  8
SK2
  6
CONTINUOUS
 62
     7
 10
19.5679641933
 20
190.2224658757
 30
0.0
  0
VERTEX
  5
77B
  8
SK2
  6
CONTINUOUS
 62
     7
 10
19.5580960378
 20
190.1896551721
 30
0.0
  0
VERTEX
  5
77C
  8
SK2
  6
CONTINUOUS
 62
     7
 10
19.5495509434
 20
190.1564426908
 30
0.0
  0
VERTEX
  5
77D
  8
SK2
  6
CONTINUOUS
 62
     7
 10
19.5423297645
 20
190.1228830095
 30
0.0
  0
VERTEX
  5
77E
  8
SK2
  6
CONTINUOUS
 62
     7
 10
19.5364333557
 20
190.0890307057
 30
0.0
  0
VERTEX
  5
77F
  8
SK2
  6
CONTINUOUS
 62
     7
 10
19.5318625715
 20
190.0549403571
 30
0.0
  0
VERTEX
  5
780
  8
SK2
  6
CONTINUOUS
 62
     7
 10
19.5286182662
 20
190.0206665412
 30
0.0
  0
VERTEX
  5
781
  8
SK2
  6
CONTINUOUS
 62
     7
 10
19.5267012945
 20
189.9862638358
 30
0.0
  0
VERTEX
  5
782
  8
SK2
  6
CONTINUOUS
 62
     7
 10
19.5261125108
 20
189.9517868184
 30
0.0
  0
VERTEX
  5
783
  8
SK2
  6
CONTINUOUS
 62
     7
 10
19.5268527696
 20
189.9172900667
 30
0.0
  0
VERTEX
  5
784
  8
SK2
  6
CONTINUOUS
 62
     7
 10
19.5289229252
 20
189.8828281582
 30
0.0
  0
VERTEX
  5
785
  8
SK2
  6
CONTINUOUS
 62
     7
 10
19.5323238324
 20
189.8484556707
 30
0.0
  0
VERTEX
  5
786
  8
SK2
  6
CONTINUOUS
 62
     7
 10
19.5370563454
 20
189.8142271817
 30
0.0
  0
VERTEX
  5
787
  8
SK2
  6
CONTINUOUS
 62
     7
 10
19.5431213188
 20
189.7801972688
 30
0.0
  0
VERTEX
  5
788
  8
SK2
  6
CONTINUOUS
 62
     7
 10
19.5505196071
 20
189.7464205097
 30
0.0
  0
VERTEX
  5
789
  8
SK2
  6
CONTINUOUS
 62
     7
 10
19.5592520648
 20
189.712951482
 30
0.0
  0
VERTEX
  5
78A
  8
SK2
  6
CONTINUOUS
 62
     7
 10
19.5693195462
 20
189.6798447633
 30
0.0
  0
VERTEX
  5
78B
  8
SK2
  6
CONTINUOUS
 62
     7
 10
19.5807232001
 20
189.6471554436
 30
0.0
  0
VERTEX
  5
78C
  8
SK2
  6
CONTINUOUS
 62
     7
 10
19.5934874427
 20
189.6149791528
 30
0.0
  0
VERTEX
  5
78D
  8
SK2
  6
CONTINUOUS
 62
     7
 10
19.6076764242
 20
189.5834807503
 30
0.0
  0
VERTEX
  5
78E
  8
SK2
  6
CONTINUOUS
 62
     7
 10
19.6233581806
 20
189.5528318656
 30
0.0
  0
VERTEX
  5
78F
  8
SK2
  6
CONTINUOUS
 62
     7
 10
19.6406007481
 20
189.5232041287
 30
0.0
  0
VERTEX
  5
790
  8
SK2
  6
CONTINUOUS
 62
     7
 10
19.6594721628
 20
189.4947691692
 30
0.0
  0
VERTEX
  5
791
  8
SK2
  6
CONTINUOUS
 62
     7
 10
19.6800404607
 20
189.467698617
 30
0.0
  0
VERTEX
  5
792
  8
SK2
  6
CONTINUOUS
 62
     7
 10
19.7023723392
 20
189.4421630871
 30
0.0
  0
VERTEX
  5
793
  8
SK2
  6
CONTINUOUS
 62
     7
 10
19.7264538002
 20
189.4182720359
 30
0.0
  0
VERTEX
  5
794
  8
SK2
  6
CONTINUOUS
 62
     7
 10
19.7521455575
 20
189.3960399653
 30
0.0
  0
VERTEX
  5
795
  8
SK2
  6
CONTINUOUS
 62
     7
 10
19.7792975231
 20
189.3754731902
 30
0.0
  0
VERTEX
  5
796
  8
SK2
  6
CONTINUOUS
 62
     7
 10
19.8077596092
 20
189.3565780254
 30
0.0
  0
VERTEX
  5
797
  8
SK2
  6
CONTINUOUS
 62
     7
 10
19.8373817276
 20
189.3393607859
 30
0.0
  0
VERTEX
  5
798
  8
SK2
  6
CONTINUOUS
 62
     7
 10
19.8680137903
 20
189.3238277866
 30
0.0
  0
VERTEX
  5
799
  8
SK2
  6
CONTINUOUS
 62
     7
 10
19.8995057093
 20
189.3099853424
 30
0.0
  0
VERTEX
  5
79A
  8
SK2
  6
CONTINUOUS
 62
     7
 10
19.9317073967
 20
189.2978397682
 30
0.0
  0
VERTEX
  5
79B
  8
SK2
  6
CONTINUOUS
 62
     7
 10
19.9644687643
 20
189.287397379
 30
0.0
  0
VERTEX
  5
79C
  8
SK2
  6
CONTINUOUS
 62
     7
 10
19.9976511383
 20
189.2786600273
 30
0.0
  0
VERTEX
  5
79D
  8
SK2
  6
CONTINUOUS
 62
     7
 10
20.0311677422
 20
189.2716092766
 30
0.0
  0
VERTEX
  5
79E
  8
SK2
  6
CONTINUOUS
 62
     7
 10
20.0649465417
 20
189.2662209267
 30
0.0
  0
VERTEX
  5
79F
  8
SK2
  6
CONTINUOUS
 62
     7
 10
20.0989155035
 20
189.2624707773
 30
0.0
  0
VERTEX
  5
7A0
  8
SK2
  6
CONTINUOUS
 62
     7
 10
20.1330025942
 20
189.2603346279
 30
0.0
  0
VERTEX
  5
7A1
  8
SK2
  6
CONTINUOUS
 62
     7
 10
20.1671357805
 20
189.2597882781
 30
0.0
  0
VERTEX
  5
7A2
  8
SK2
  6
CONTINUOUS
 62
     7
 10
20.2012430291
 20
189.2608075274
 30
0.0
  0
VERTEX
  5
7A3
  8
SK2
  6
CONTINUOUS
 62
     7
 10
20.2352523066
 20
189.2633681755
 30
0.0
  0
VERTEX
  5
7A4
  8
SK2
  6
CONTINUOUS
 62
     7
 10
20.2690915799
 20
189.2674460219
 30
0.0
  0
VERTEX
  5
7A5
  8
SK2
  6
CONTINUOUS
 62
     7
 10
20.3026888154
 20
189.2730168662
 30
0.0
  0
VERTEX
  5
7A6
  8
SK2
  6
CONTINUOUS
 62
     7
 10
20.33597198
 20
189.2800565079
 30
0.0
  0
VERTEX
  5
7A7
  8
SK2
  6
CONTINUOUS
 62
     7
 10
20.3688661177
 20
189.2885410577
 30
0.0
  0
VERTEX
  5
7A8
  8
SK2
  6
CONTINUOUS
 62
     7
 10
20.4012679045
 20
189.2984496462
 30
0.0
  0
VERTEX
  5
7A9
  8
SK2
  6
CONTINUOUS
 62
     7
 10
20.4330580673
 20
189.3097631019
 30
0.0
  0
VERTEX
  5
7AA
  8
SK2
  6
CONTINUOUS
 62
     7
 10
20.4641171549
 20
189.3224622719
 30
0.0
  0
VERTEX
  5
7AB
  8
SK2
  6
CONTINUOUS
 62
     7
 10
20.4943257166
 20
189.3365280038
 30
0.0
  0
VERTEX
  5
7AC
  8
SK2
  6
CONTINUOUS
 62
     7
 10
20.5235643013
 20
189.3519411447
 30
0.0
  0
VERTEX
  5
7AD
  8
SK2
  6
CONTINUOUS
 62
     7
 10
20.5517134582
 20
189.3686825421
 30
0.0
  0
VERTEX
  5
7AE
  8
SK2
  6
CONTINUOUS
 62
     7
 10
20.5786537362
 20
189.3867330433
 30
0.0
  0
VERTEX
  5
7AF
  8
SK2
  6
CONTINUOUS
 62
     7
 10
20.6042658953
 20
189.4060744313
 30
0.0
  0
VERTEX
  5
7B0
  8
SK2
  6
CONTINUOUS
 62
     7
 10
20.6284427318
 20
189.4267419122
 30
0.0
  0
VERTEX
  5
7B1
  8
SK2
  6
CONTINUOUS
 62
     7
 10
20.651095354
 20
189.4488519694
 30
0.0
  0
VERTEX
  5
7B2
  8
SK2
  6
CONTINUOUS
 62
     7
 10
20.6721364058
 20
189.4725279022
 30
0.0
  0
VERTEX
  5
7B3
  8
SK2
  6
CONTINUOUS
 62
     7
 10
20.6914785314
 20
189.4978930099
 30
0.0
  0
VERTEX
  5
7B4
  8
SK2
  6
CONTINUOUS
 62
     7
 10
20.7090343746
 20
189.5250705921
 30
0.0
  0
VERTEX
  5
7B5
  8
SK2
  6
CONTINUOUS
 62
     7
 10
20.7247165373
 20
189.5541840657
 30
0.0
  0
VERTEX
  5
7B6
  8
SK2
  6
CONTINUOUS
 62
     7
 10
20.7383501821
 20
189.5856003257
 30
0.0
  0
VERTEX
  5
7B7
  8
SK2
  6
CONTINUOUS
 62
     7
 10
20.7494890655
 20
189.6204420082
 30
0.0
  0
VERTEX
  5
7B8
  8
SK2
  6
CONTINUOUS
 62
     7
 10
20.7576344412
 20
189.6599779464
 30
0.0
  0
VERTEX
  5
7B9
  8
SK2
  6
CONTINUOUS
 62
     7
 10
20.7622875626
 20
189.7054769737
 30
0.0
  0
SEQEND
  5
971
  8
SK2
  6
CONTINUOUS
 62
     7
  0
LINE
  5
1C3
  8
SK2
  6
CONTINUOUS
 62
     7
 10
19.8883408864
 20
189.8640827947
 30
0.0
 11
20.7844043406
 21
189.8640827947
 31
0.0
  0
POLYLINE
  5
1C4
  8
SK2
  6
CONTINUOUS
 62
     7
 66
     1
 10
0.0
 20
0.0
 30
0.0
  0
VERTEX
  5
7BA
  8
SK2
  6
CONTINUOUS
 62
     7
 10
19.8883408864
 20
189.8640827947
 30
0.0
  0
VERTEX
  5
7BB
  8
SK2
  6
CONTINUOUS
 62
     7
 10
19.8894853546
 20
189.8461902378
 30
0.0
  0
VERTEX
  5
7BC
  8
SK2
  6
CONTINUOUS
 62
     7
 10
19.8908321887
 20
189.8290485145
 30
0.0
  0
VERTEX
  5
7BD
  8
SK2
  6
CONTINUOUS
 62
     7
 10
19.8924105029
 20
189.8126216835
 30
0.0
  0
VERTEX
  5
7BE
  8
SK2
  6
CONTINUOUS
 62
     7
 10
19.8942494117
 20
189.7968738039
 30
0.0
  0
VERTEX
  5
7BF
  8
SK2
  6
CONTINUOUS
 62
     7
 10
19.8963780295
 20
189.7817689343
 30
0.0
  0
VERTEX
  5
7C0
  8
SK2
  6
CONTINUOUS
 62
     7
 10
19.8988254706
 20
189.7672711338
 30
0.0
  0
VERTEX
  5
7C1
  8
SK2
  6
CONTINUOUS
 62
     7
 10
19.9016208494
 20
189.7533444611
 30
0.0
  0
VERTEX
  5
7C2
  8
SK2
  6
CONTINUOUS
 62
     7
 10
19.9047932802
 20
189.7399529751
 30
0.0
  0
VERTEX
  5
7C3
  8
SK2
  6
CONTINUOUS
 62
     7
 10
19.9083718776
 20
189.7270607346
 30
0.0
  0
VERTEX
  5
7C4
  8
SK2
  6
CONTINUOUS
 62
     7
 10
19.9123857558
 20
189.7146317986
 30
0.0
  0
VERTEX
  5
7C5
  8
SK2
  6
CONTINUOUS
 62
     7
 10
19.9168640292
 20
189.7026302258
 30
0.0
  0
VERTEX
  5
7C6
  8
SK2
  6
CONTINUOUS
 62
     7
 10
19.9218358122
 20
189.6910200752
 30
0.0
  0
VERTEX
  5
7C7
  8
SK2
  6
CONTINUOUS
 62
     7
 10
19.9273302192
 20
189.6797654056
 30
0.0
  0
VERTEX
  5
7C8
  8
SK2
  6
CONTINUOUS
 62
     7
 10
19.9333763645
 20
189.6688302758
 30
0.0
  0
VERTEX
  5
7C9
  8
SK2
  6
CONTINUOUS
 62
     7
 10
19.9400033625
 20
189.6581787447
 30
0.0
  0
VERTEX
  5
7CA
  8
SK2
  6
CONTINUOUS
 62
     7
 10
19.9472399687
 20
189.6477754428
 30
0.0
  0
VERTEX
  5
7CB
  8
SK2
  6
CONTINUOUS
 62
     7
 10
19.9550962898
 20
189.6376146973
 30
0.0
  0
VERTEX
  5
7CC
  8
SK2
  6
CONTINUOUS
 62
     7
 10
19.9635550761
 20
189.6277343989
 30
0.0
  0
VERTEX
  5
7CD
  8
SK2
  6
CONTINUOUS
 62
     7
 10
19.9725968968
 20
189.6181759111
 30
0.0
  0
VERTEX
  5
7CE
  8
SK2
  6
CONTINUOUS
 62
     7
 10
19.9822023213
 20
189.6089805977
 30
0.0
  0
VERTEX
  5
7CF
  8
SK2
  6
CONTINUOUS
 62
     7
 10
19.9923519189
 20
189.6001898224
 30
0.0
  0
VERTEX
  5
7D0
  8
SK2
  6
CONTINUOUS
 62
     7
 10
20.0030262588
 20
189.5918449489
 30
0.0
  0
VERTEX
  5
7D1
  8
SK2
  6
CONTINUOUS
 62
     7
 10
20.0142059103
 20
189.5839873408
 30
0.0
  0
VERTEX
  5
7D2
  8
SK2
  6
CONTINUOUS
 62
     7
 10
20.0258714427
 20
189.5766583619
 30
0.0
  0
VERTEX
  5
7D3
  8
SK2
  6
CONTINUOUS
 62
     7
 10
20.0380034252
 20
189.569899376
 30
0.0
  0
VERTEX
  5
7D4
  8
SK2
  6
CONTINUOUS
 62
     7
 10
20.0505824272
 20
189.5637517465
 30
0.0
  0
VERTEX
  5
7D5
  8
SK2
  6
CONTINUOUS
 62
     7
 10
20.0635890179
 20
189.5582568374
 30
0.0
  0
VERTEX
  5
7D6
  8
SK2
  6
CONTINUOUS
 62
     7
 10
20.0770037666
 20
189.5534560123
 30
0.0
  0
VERTEX
  5
7D7
  8
SK2
  6
CONTINUOUS
 62
     7
 10
20.0908027381
 20
189.5493859331
 30
0.0
  0
VERTEX
  5
7D8
  8
SK2
  6
CONTINUOUS
 62
     7
 10
20.1049374504
 20
189.5460576401
 30
0.0
  0
VERTEX
  5
7D9
  8
SK2
  6
CONTINUOUS
 62
     7
 10
20.1193511007
 20
189.5434734886
 30
0.0
  0
VERTEX
  5
7DA
  8
SK2
  6
CONTINUOUS
 62
     7
 10
20.1339868796
 20
189.5416358269
 30
0.0
  0
VERTEX
  5
7DB
  8
SK2
  6
CONTINUOUS
 62
     7
 10
20.1487879779
 20
189.5405470033
 30
0.0
  0
VERTEX
  5
7DC
  8
SK2
  6
CONTINUOUS
 62
     7
 10
20.163697586
 20
189.540209366
 30
0.0
  0
VERTEX
  5
7DD
  8
SK2
  6
CONTINUOUS
 62
     7
 10
20.1786588947
 20
189.5406252633
 30
0.0
  0
VERTEX
  5
7DE
  8
SK2
  6
CONTINUOUS
 62
     7
 10
20.1936150945
 20
189.5417970436
 30
0.0
  0
VERTEX
  5
7DF
  8
SK2
  6
CONTINUOUS
 62
     7
 10
20.208509376
 20
189.5437270552
 30
0.0
  0
VERTEX
  5
7E0
  8
SK2
  6
CONTINUOUS
 62
     7
 10
20.22328493
 20
189.5464176462
 30
0.0
  0
VERTEX
  5
7E1
  8
SK2
  6
CONTINUOUS
 62
     7
 10
20.237884947
 20
189.5498711651
 30
0.0
  0
VERTEX
  5
7E2
  8
SK2
  6
CONTINUOUS
 62
     7
 10
20.2522526175
 20
189.5540899601
 30
0.0
  0
VERTEX
  5
7E3
  8
SK2
  6
CONTINUOUS
 62
     7
 10
20.2663311374
 20
189.5590762976
 30
0.0
  0
VERTEX
  5
7E4
  8
SK2
  6
CONTINUOUS
 62
     7
 10
20.2800644872
 20
189.5648198555
 30
0.0
  0
VERTEX
  5
7E5
  8
SK2
  6
CONTINUOUS
 62
     7
 10
20.2933982707
 20
189.5712842698
 30
0.0
  0
VERTEX
  5
7E6
  8
SK2
  6
CONTINUOUS
 62
     7
 10
20.3062782931
 20
189.5784299497
 30
0.0
  0
VERTEX
  5
7E7
  8
SK2
  6
CONTINUOUS
 62
     7
 10
20.3186503595
 20
189.5862173043
 30
0.0
  0
VERTEX
  5
7E8
  8
SK2
  6
CONTINUOUS
 62
     7
 10
20.330460275
 20
189.5946067425
 30
0.0
  0
VERTEX
  5
7E9
  8
SK2
  6
CONTINUOUS
 62
     7
 10
20.3416538446
 20
189.6035586736
 30
0.0
  0
VERTEX
  5
7EA
  8
SK2
  6
CONTINUOUS
 62
     7
 10
20.3521768735
 20
189.6130335066
 30
0.0
  0
VERTEX
  5
7EB
  8
SK2
  6
CONTINUOUS
 62
     7
 10
20.3619751669
 20
189.6229916505
 30
0.0
  0
VERTEX
  5
7EC
  8
SK2
  6
CONTINUOUS
 62
     7
 10
20.3709945297
 20
189.6333935146
 30
0.0
  0
VERTEX
  5
7ED
  8
SK2
  6
CONTINUOUS
 62
     7
 10
20.3791807671
 20
189.6441995077
 30
0.0
  0
VERTEX
  5
7EE
  8
SK2
  6
CONTINUOUS
 62
     7
 10
20.3864854947
 20
189.6553732038
 30
0.0
  0
VERTEX
  5
7EF
  8
SK2
  6
CONTINUOUS
 62
     7
 10
20.3930073215
 20
189.6669582363
 30
0.0
  0
VERTEX
  5
7F0
  8
SK2
  6
CONTINUOUS
 62
     7
 10
20.3989996751
 20
189.6790825602
 30
0.0
  0
VERTEX
  5
7F1
  8
SK2
  6
CONTINUOUS
 62
     7
 10
20.4047233597
 20
189.6918781484
 30
0.0
  0
VERTEX
  5
7F2
  8
SK2
  6
CONTINUOUS
 62
     7
 10
20.4104391797
 20
189.7054769737
 30
0.0
  0
SEQEND
  5
970
  8
SK2
  6
CONTINUOUS
 62
     7
  0
LINE
  5
1C5
  8
SK2
  6
CONTINUOUS
 62
     7
 10
20.4104391797
 20
189.7054769737
 30
0.0
 11
20.7622875626
 21
189.7054769737
 31
0.0
  0
LINE
  5
1C6
  8
SK2
  6
CONTINUOUS
 62
     7
 10
21.3855899487
 20
187.2800436062
 30
0.0
 11
21.3855899487
 21
188.5910856771
 31
0.0
  0
LINE
  5
1C7
  8
SK2
  6
CONTINUOUS
 62
     7
 10
21.3855899487
 20
188.5910856771
 30
0.0
 11
21.7416335812
 21
188.5910856771
 31
0.0
  0
LINE
  5
1C8
  8
SK2
  6
CONTINUOUS
 62
     7
 10
21.7416335812
 20
188.5910856771
 30
0.0
 11
21.7416335812
 21
187.2800436062
 31
0.0
  0
LINE
  5
1C9
  8
SK2
  6
CONTINUOUS
 62
     7
 10
21.7416335812
 20
187.2800436062
 30
0.0
 11
21.3855899487
 21
187.2800436062
 31
0.0
  0
LINE
  5
1CA
  8
SK2
  6
CONTINUOUS
 62
     7
 10
21.3777751309
 20
189.0485464676
 30
0.0
 11
21.3777751309
 21
188.7854244211
 31
0.0
  0
POLYLINE
  5
1CB
  8
SK2
  6
CONTINUOUS
 62
     7
 66
     1
 10
0.0
 20
0.0
 30
0.0
  0
VERTEX
  5
7F3
  8
SK2
  6
CONTINUOUS
 62
     7
 10
21.8324763735
 20
189.4835708176
 30
0.0
  0
VERTEX
  5
7F4
  8
SK2
  6
CONTINUOUS
 62
     7
 10
21.8327368156
 20
189.4702749949
 30
0.0
  0
VERTEX
  5
7F5
  8
SK2
  6
CONTINUOUS
 62
     7
 10
21.8330019672
 20
189.4572541865
 30
0.0
  0
VERTEX
  5
7F6
  8
SK2
  6
CONTINUOUS
 62
     7
 10
21.8332647955
 20
189.4444901045
 30
0.0
  0
VERTEX
  5
7F7
  8
SK2
  6
CONTINUOUS
 62
     7
 10
21.8335182679
 20
189.4319644612
 30
0.0
  0
VERTEX
  5
7F8
  8
SK2
  6
CONTINUOUS
 62
     7
 10
21.8337553516
 20
189.4196589686
 30
0.0
  0
VERTEX
  5
7F9
  8
SK2
  6
CONTINUOUS
 62
     7
 10
21.833969014
 20
189.407555339
 30
0.0
  0
VERTEX
  5
7FA
  8
SK2
  6
CONTINUOUS
 62
     7
 10
21.8341522224
 20
189.3956352845
 30
0.0
  0
VERTEX
  5
7FB
  8
SK2
  6
CONTINUOUS
 62
     7
 10
21.8342979441
 20
189.3838805172
 30
0.0
  0
VERTEX
  5
7FC
  8
SK2
  6
CONTINUOUS
 62
     7
 10
21.8343991463
 20
189.3722727493
 30
0.0
  0
VERTEX
  5
7FD
  8
SK2
  6
CONTINUOUS
 62
     7
 10
21.8344487964
 20
189.3607936931
 30
0.0
  0
VERTEX
  5
7FE
  8
SK2
  6
CONTINUOUS
 62
     7
 10
21.8344398618
 20
189.3494250605
 30
0.0
  0
VERTEX
  5
7FF
  8
SK2
  6
CONTINUOUS
 62
     7
 10
21.8343653096
 20
189.3381485639
 30
0.0
  0
VERTEX
  5
800
  8
SK2
  6
CONTINUOUS
 62
     7
 10
21.8342181073
 20
189.3269459153
 30
0.0
  0
VERTEX
  5
801
  8
SK2
  6
CONTINUOUS
 62
     7
 10
21.833990035
 20
189.3157993244
 30
0.0
  0
VERTEX
  5
802
  8
SK2
  6
CONTINUOUS
 62
     7
 10
21.8336469857
 20
189.3047018512
 30
0.0
  0
VERTEX
  5
803
  8
SK2
  6
CONTINUOUS
 62
     7
 10
21.8331297275
 20
189.2936570859
 30
0.0
  0
VERTEX
  5
804
  8
SK2
  6
CONTINUOUS
 62
     7
 10
21.832377994
 20
189.2826690527
 30
0.0
  0
VERTEX
  5
805
  8
SK2
  6
CONTINUOUS
 62
     7
 10
21.8313315188
 20
189.2717417754
 30
0.0
  0
VERTEX
  5
806
  8
SK2
  6
CONTINUOUS
 62
     7
 10
21.8299300356
 20
189.260879278
 30
0.0
  0
VERTEX
  5
807
  8
SK2
  6
CONTINUOUS
 62
     7
 10
21.828113278
 20
189.2500855846
 30
0.0
  0
VERTEX
  5
808
  8
SK2
  6
CONTINUOUS
 62
     7
 10
21.8258209796
 20
189.2393647192
 30
0.0
  0
VERTEX
  5
809
  8
SK2
  6
CONTINUOUS
 62
     7
 10
21.822992874
 20
189.2287207056
 30
0.0
  0
VERTEX
  5
80A
  8
SK2
  6
CONTINUOUS
 62
     7
 10
21.8195686949
 20
189.2181575679
 30
0.0
  0
VERTEX
  5
80B
  8
SK2
  6
CONTINUOUS
 62
     7
 10
21.8154894981
 20
189.2076798562
 30
0.0
  0
VERTEX
  5
80C
  8
SK2
  6
CONTINUOUS
 62
     7
 10
21.8107513135
 20
189.1973139943
 30
0.0
  0
VERTEX
  5
80D
  8
SK2
  6
CONTINUOUS
 62
     7
 10
21.805423724
 20
189.1871156721
 30
0.0
  0
VERTEX
  5
80E
  8
SK2
  6
CONTINUOUS
 62
     7
 10
21.7995814494
 20
189.1771426233
 30
0.0
  0
VERTEX
  5
80F
  8
SK2
  6
CONTINUOUS
 62
     7
 10
21.7932992097
 20
189.1674525819
 30
0.0
  0
VERTEX
  5
810
  8
SK2
  6
CONTINUOUS
 62
     7
 10
21.7866517246
 20
189.1581032817
 30
0.0
  0
VERTEX
  5
811
  8
SK2
  6
CONTINUOUS
 62
     7
 10
21.7797137141
 20
189.1491524565
 30
0.0
  0
VERTEX
  5
812
  8
SK2
  6
CONTINUOUS
 62
     7
 10
21.7725586525
 20
189.1406568174
 30
0.0
  0
VERTEX
  5
813
  8
SK2
  6
CONTINUOUS
 62
     7
 10
21.7652233762
 20
189.132642985
 30
0.0
  0
VERTEX
  5
814
  8
SK2
  6
CONTINUOUS
 62
     7
 10
21.7577029986
 20
189.1251033134
 30
0.0
  0
VERTEX
  5
815
  8
SK2
  6
CONTINUOUS
 62
     7
 10
21.7499903655
 20
189.1180282945
 30
0.0
  0
VERTEX
  5
816
  8
SK2
  6
CONTINUOUS
 62
     7
 10
21.7420783228
 20
189.1114084202
 30
0.0
  0
VERTEX
  5
817
  8
SK2
  6
CONTINUOUS
 62
     7
 10
21.7339597164
 20
189.1052341825
 30
0.0
  0
VERTEX
  5
818
  8
SK2
  6
CONTINUOUS
 62
     7
 10
21.7256273921
 20
189.0994960731
 30
0.0
  0
VERTEX
  5
819
  8
SK2
  6
CONTINUOUS
 62
     7
 10
21.7170741959
 20
189.094184584
 30
0.0
  0
VERTEX
  5
81A
  8
SK2
  6
CONTINUOUS
 62
     7
 10
21.7082929735
 20
189.089290207
 30
0.0
  0
VERTEX
  5
81B
  8
SK2
  6
CONTINUOUS
 62
     7
 10
21.6992765709
 20
189.0848034341
 30
0.0
  0
VERTEX
  5
81C
  8
SK2
  6
CONTINUOUS
 62
     7
 10
21.6900210431
 20
189.0807129051
 30
0.0
  0
VERTEX
  5
81D
  8
SK2
  6
CONTINUOUS
 62
     7
 10
21.6805406213
 20
189.0769967712
 30
0.0
  0
VERTEX
  5
81E
  8
SK2
  6
CONTINUOUS
 62
     7
 10
21.6708559277
 20
189.0736294952
 30
0.0
  0
VERTEX
  5
81F
  8
SK2
  6
CONTINUOUS
 62
     7
 10
21.6609875916
 20
189.0705855358
 30
0.0
  0
VERTEX
  5
820
  8
SK2
  6
CONTINUOUS
 62
     7
 10
21.6509562424
 20
189.0678393518
 30
0.0
  0
VERTEX
  5
821
  8
SK2
  6
CONTINUOUS
 62
     7
 10
21.6407825095
 20
189.065365402
 30
0.0
  0
VERTEX
  5
822
  8
SK2
  6
CONTINUOUS
 62
     7
 10
21.6304870222
 20
189.0631381452
 30
0.0
  0
VERTEX
  5
823
  8
SK2
  6
CONTINUOUS
 62
     7
 10
21.62009041
 20
189.0611320401
 30
0.0
  0
VERTEX
  5
824
  8
SK2
  6
CONTINUOUS
 62
     7
 10
21.6096133021
 20
189.0593215455
 30
0.0
  0
VERTEX
  5
825
  8
SK2
  6
CONTINUOUS
 62
     7
 10
21.5990763279
 20
189.0576811202
 30
0.0
  0
VERTEX
  5
826
  8
SK2
  6
CONTINUOUS
 62
     7
 10
21.5884994821
 20
189.0561853054
 30
0.0
  0
VERTEX
  5
827
  8
SK2
  6
CONTINUOUS
 62
     7
 10
21.5778366467
 20
189.0548172376
 30
0.0
  0
VERTEX
  5
828
  8
SK2
  6
CONTINUOUS
 62
     7
 10
21.5669186871
 20
189.0535760464
 30
0.0
  0
VERTEX
  5
829
  8
SK2
  6
CONTINUOUS
 62
     7
 10
21.5555630587
 20
189.0524626047
 30
0.0
  0
VERTEX
  5
82A
  8
SK2
  6
CONTINUOUS
 62
     7
 10
21.5435872166
 20
189.0514777855
 30
0.0
  0
VERTEX
  5
82B
  8
SK2
  6
CONTINUOUS
 62
     7
 10
21.530808616
 20
189.0506224618
 30
0.0
  0
VERTEX
  5
82C
  8
SK2
  6
CONTINUOUS
 62
     7
 10
21.5170447122
 20
189.0498975065
 30
0.0
  0
VERTEX
  5
82D
  8
SK2
  6
CONTINUOUS
 62
     7
 10
21.5021129602
 20
189.0493037928
 30
0.0
  0
VERTEX
  5
82E
  8
SK2
  6
CONTINUOUS
 62
     7
 10
21.4858308155
 20
189.0488421934
 30
0.0
  0
VERTEX
  5
82F
  8
SK2
  6
CONTINUOUS
 62
     7
 10
21.468015733
 20
189.0485135815
 30
0.0
  0
VERTEX
  5
830
  8
SK2
  6
CONTINUOUS
 62
     7
 10
21.4484851682
 20
189.0483188299
 30
0.0
  0
VERTEX
  5
831
  8
SK2
  6
CONTINUOUS
 62
     7
 10
21.427056576
 20
189.0482588118
 30
0.0
  0
VERTEX
  5
832
  8
SK2
  6
CONTINUOUS
 62
     7
 10
21.4035474119
 20
189.0483344
 30
0.0
  0
VERTEX
  5
833
  8
SK2
  6
CONTINUOUS
 62
     7
 10
21.3777751309
 20
189.0485464676
 30
0.0
  0
SEQEND
  5
96F
  8
SK2
  6
CONTINUOUS
 62
     7
  0
POLYLINE
  5
1CC
  8
SK2
  6
CONTINUOUS
 62
     7
 66
     1
 10
0.0
 20
0.0
 30
0.0
  0
VERTEX
  5
834
  8
SK2
  6
CONTINUOUS
 62
     7
 10
21.83213633
 20
190.4573794688
 30
0.0
  0
VERTEX
  5
835
  8
SK2
  6
CONTINUOUS
 62
     7
 10
21.8159293799
 20
190.4814734278
 30
0.0
  0
VERTEX
  5
836
  8
SK2
  6
CONTINUOUS
 62
     7
 10
21.7998595715
 20
190.5041054567
 30
0.0
  0
VERTEX
  5
837
  8
SK2
  6
CONTINUOUS
 62
     7
 10
21.7834270534
 20
190.5252795908
 30
0.0
  0
VERTEX
  5
838
  8
SK2
  6
CONTINUOUS
 62
     7
 10
21.7661319738
 20
190.5449998652
 30
0.0
  0
VERTEX
  5
839
  8
SK2
  6
CONTINUOUS
 62
     7
 10
21.747474481
 20
190.5632703153
 30
0.0
  0
VERTEX
  5
83A
  8
SK2
  6
CONTINUOUS
 62
     7
 10
21.7270217869
 20
190.5800897519
 30
0.0
  0
VERTEX
  5
83B
  8
SK2
  6
CONTINUOUS
 62
     7
 10
21.7048235479
 20
190.5954194032
 30
0.0
  0
VERTEX
  5
83C
  8
SK2
  6
CONTINUOUS
 62
     7
 10
21.6811405953
 20
190.6092040468
 30
0.0
  0
VERTEX
  5
83D
  8
SK2
  6
CONTINUOUS
 62
     7
 10
21.6562346526
 20
190.6213883909
 30
0.0
  0
VERTEX
  5
83E
  8
SK2
  6
CONTINUOUS
 62
     7
 10
21.6303674437
 20
190.6319171434
 30
0.0
  0
VERTEX
  5
83F
  8
SK2
  6
CONTINUOUS
 62
     7
 10
21.603800013
 20
190.6407354085
 30
0.0
  0
VERTEX
  5
840
  8
SK2
  6
CONTINUOUS
 62
     7
 10
21.5767369584
 20
190.6478212105
 30
0.0
  0
VERTEX
  5
841
  8
SK2
  6
CONTINUOUS
 62
     7
 10
21.5492849192
 20
190.6532097041
 30
0.0
  0
VERTEX
  5
842
  8
SK2
  6
CONTINUOUS
 62
     7
 10
21.5215407533
 20
190.6569417483
 30
0.0
  0
VERTEX
  5
843
  8
SK2
  6
CONTINUOUS
 62
     7
 10
21.4936013191
 20
190.6590582021
 30
0.0
  0
VERTEX
  5
844
  8
SK2
  6
CONTINUOUS
 62
     7
 10
21.4655634746
 20
190.6595999244
 30
0.0
  0
VERTEX
  5
845
  8
SK2
  6
CONTINUOUS
 62
     7
 10
21.437524078
 20
190.6586077744
 30
0.0
  0
VERTEX
  5
846
  8
SK2
  6
CONTINUOUS
 62
     7
 10
21.4095799875
 20
190.656122611
 30
0.0
  0
VERTEX
  5
847
  8
SK2
  6
CONTINUOUS
 62
     7
 10
21.3818280613
 20
190.6521852931
 30
0.0
  0
VERTEX
  5
848
  8
SK2
  6
CONTINUOUS
 62
     7
 10
21.3543651574
 20
190.6468366799
 30
0.0
  0
VERTEX
  5
849
  8
SK2
  6
CONTINUOUS
 62
     7
 10
21.327288133
 20
190.6401176299
 30
0.0
  0
VERTEX
  5
84A
  8
SK2
  6
CONTINUOUS
 62
     7
 10
21.3006873069
 20
190.6320666059
 30
0.0
  0
VERTEX
  5
84B
  8
SK2
  6
CONTINUOUS
 62
     7
 10
21.2746310627
 20
190.6227140327
 30
0.0
  0
VERTEX
  5
84C
  8
SK2
  6
CONTINUOUS
 62
     7
 10
21.249183189
 20
190.6120886516
 30
0.0
  0
VERTEX
  5
84D
  8
SK2
  6
CONTINUOUS
 62
     7
 10
21.2244074746
 20
190.6002192036
 30
0.0
  0
VERTEX
  5
84E
  8
SK2
  6
CONTINUOUS
 62
     7
 10
21.2003677082
 20
190.58713443
 30
0.0
  0
VERTEX
  5
84F
  8
SK2
  6
CONTINUOUS
 62
     7
 10
21.1771276783
 20
190.5728630718
 30
0.0
  0
VERTEX
  5
850
  8
SK2
  6
CONTINUOUS
 62
     7
 10
21.1547511738
 20
190.5574338703
 30
0.0
  0
VERTEX
  5
851
  8
SK2
  6
CONTINUOUS
 62
     7
 10
21.1333019832
 20
190.5408755665
 30
0.0
  0
VERTEX
  5
852
  8
SK2
  6
CONTINUOUS
 62
     7
 10
21.1128438952
 20
190.5232169016
 30
0.0
  0
VERTEX
  5
853
  8
SK2
  6
CONTINUOUS
 62
     7
 10
21.0934406986
 20
190.5044866168
 30
0.0
  0
VERTEX
  5
854
  8
SK2
  6
CONTINUOUS
 62
     7
 10
21.0751561493
 20
190.4847134676
 30
0.0
  0
VERTEX
  5
855
  8
SK2
  6
CONTINUOUS
 62
     7
 10
21.0580302289
 20
190.4639366097
 30
0.0
  0
VERTEX
  5
856
  8
SK2
  6
CONTINUOUS
 62
     7
 10
21.0420372008
 20
190.4422239486
 30
0.0
  0
VERTEX
  5
857
  8
SK2
  6
CONTINUOUS
 62
     7
 10
21.0271400682
 20
190.4196483156
 30
0.0
  0
VERTEX
  5
858
  8
SK2
  6
CONTINUOUS
 62
     7
 10
21.0133018341
 20
190.3962825421
 30
0.0
  0
VERTEX
  5
859
  8
SK2
  6
CONTINUOUS
 62
     7
 10
21.0004855017
 20
190.3721994594
 30
0.0
  0
VERTEX
  5
85A
  8
SK2
  6
CONTINUOUS
 62
     7
 10
20.988654074
 20
190.3474718987
 30
0.0
  0
VERTEX
  5
85B
  8
SK2
  6
CONTINUOUS
 62
     7
 10
20.9777705543
 20
190.3221726915
 30
0.0
  0
VERTEX
  5
85C
  8
SK2
  6
CONTINUOUS
 62
     7
 10
20.9677979456
 20
190.296374669
 30
0.0
  0
VERTEX
  5
85D
  8
SK2
  6
CONTINUOUS
 62
     7
 10
20.9586992509
 20
190.2701506627
 30
0.0
  0
VERTEX
  5
85E
  8
SK2
  6
CONTINUOUS
 62
     7
 10
20.9504374736
 20
190.2435735037
 30
0.0
  0
VERTEX
  5
85F
  8
SK2
  6
CONTINUOUS
 62
     7
 10
20.9429756166
 20
190.2167160235
 30
0.0
  0
VERTEX
  5
860
  8
SK2
  6
CONTINUOUS
 62
     7
 10
20.936276683
 20
190.1896510534
 30
0.0
  0
VERTEX
  5
861
  8
SK2
  6
CONTINUOUS
 62
     7
 10
20.9303036761
 20
190.1624514248
 30
0.0
  0
VERTEX
  5
862
  8
SK2
  6
CONTINUOUS
 62
     7
 10
20.9250195989
 20
190.1351899688
 30
0.0
  0
VERTEX
  5
863
  8
SK2
  6
CONTINUOUS
 62
     7
 10
20.9203903057
 20
190.1079357405
 30
0.0
  0
VERTEX
  5
864
  8
SK2
  6
CONTINUOUS
 62
     7
 10
20.9164139805
 20
190.0807149745
 30
0.0
  0
VERTEX
  5
865
  8
SK2
  6
CONTINUOUS
 62
     7
 10
20.9131092839
 20
190.0535267841
 30
0.0
  0
VERTEX
  5
866
  8
SK2
  6
CONTINUOUS
 62
     7
 10
20.9104952013
 20
190.0263698526
 30
0.0
  0
VERTEX
  5
867
  8
SK2
  6
CONTINUOUS
 62
     7
 10
20.9085907178
 20
189.9992428633
 30
0.0
  0
VERTEX
  5
868
  8
SK2
  6
CONTINUOUS
 62
     7
 10
20.9074148188
 20
189.9721444997
 30
0.0
  0
VERTEX
  5
869
  8
SK2
  6
CONTINUOUS
 62
     7
 10
20.9069864896
 20
189.945073445
 30
0.0
  0
VERTEX
  5
86A
  8
SK2
  6
CONTINUOUS
 62
     7
 10
20.9073247154
 20
189.9180283828
 30
0.0
  0
VERTEX
  5
86B
  8
SK2
  6
CONTINUOUS
 62
     7
 10
20.9084484815
 20
189.8910079962
 30
0.0
  0
VERTEX
  5
86C
  8
SK2
  6
CONTINUOUS
 62
     7
 10
20.9103767732
 20
189.8640109688
 30
0.0
  0
VERTEX
  5
86D
  8
SK2
  6
CONTINUOUS
 62
     7
 10
20.9131285758
 20
189.8370359838
 30
0.0
  0
VERTEX
  5
86E
  8
SK2
  6
CONTINUOUS
 62
     7
 10
20.9167228744
 20
189.8100817247
 30
0.0
  0
VERTEX
  5
86F
  8
SK2
  6
CONTINUOUS
 62
     7
 10
20.9211786544
 20
189.7831468747
 30
0.0
  0
VERTEX
  5
870
  8
SK2
  6
CONTINUOUS
 62
     7
 10
20.9265151427
 20
189.7562327866
 30
0.0
  0
VERTEX
  5
871
  8
SK2
  6
CONTINUOUS
 62
     7
 10
20.9327558912
 20
189.7293886214
 30
0.0
  0
VERTEX
  5
872
  8
SK2
  6
CONTINUOUS
 62
     7
 10
20.9399281883
 20
189.7027048347
 30
0.0
  0
VERTEX
  5
873
  8
SK2
  6
CONTINUOUS
 62
     7
 10
20.9480594449
 20
189.6762732393
 30
0.0
  0
VERTEX
  5
874
  8
SK2
  6
CONTINUOUS
 62
     7
 10
20.9571770721
 20
189.6501856485
 30
0.0
  0
VERTEX
  5
875
  8
SK2
  6
CONTINUOUS
 62
     7
 10
20.9673084808
 20
189.6245338753
 30
0.0
  0
VERTEX
  5
876
  8
SK2
  6
CONTINUOUS
 62
     7
 10
20.9784810822
 20
189.5994097326
 30
0.0
  0
VERTEX
  5
877
  8
SK2
  6
CONTINUOUS
 62
     7
 10
20.9907222873
 20
189.5749050337
 30
0.0
  0
VERTEX
  5
878
  8
SK2
  6
CONTINUOUS
 62
     7
 10
21.004059507
 20
189.5511115915
 30
0.0
  0
VERTEX
  5
879
  8
SK2
  6
CONTINUOUS
 62
     7
 10
21.0185201524
 20
189.5281212191
 30
0.0
  0
VERTEX
  5
87A
  8
SK2
  6
CONTINUOUS
 62
     7
 10
21.0341316345
 20
189.5060257296
 30
0.0
  0
VERTEX
  5
87B
  8
SK2
  6
CONTINUOUS
 62
     7
 10
21.0509213643
 20
189.4849169361
 30
0.0
  0
VERTEX
  5
87C
  8
SK2
  6
CONTINUOUS
 62
     7
 10
21.0689153084
 20
189.464885513
 30
0.0
  0
VERTEX
  5
87D
  8
SK2
  6
CONTINUOUS
 62
     7
 10
21.0880857637
 20
189.4459798354
 30
0.0
  0
VERTEX
  5
87E
  8
SK2
  6
CONTINUOUS
 62
     7
 10
21.1083367143
 20
189.4281944369
 30
0.0
  0
VERTEX
  5
87F
  8
SK2
  6
CONTINUOUS
 62
     7
 10
21.1295677169
 20
189.4115203624
 30
0.0
  0
VERTEX
  5
880
  8
SK2
  6
CONTINUOUS
 62
     7
 10
21.1516783287
 20
189.3959486564
 30
0.0
  0
VERTEX
  5
881
  8
SK2
  6
CONTINUOUS
 62
     7
 10
21.1745681067
 20
189.3814703637
 30
0.0
  0
VERTEX
  5
882
  8
SK2
  6
CONTINUOUS
 62
     7
 10
21.1981366077
 20
189.368076529
 30
0.0
  0
VERTEX
  5
883
  8
SK2
  6
CONTINUOUS
 62
     7
 10
21.2222833889
 20
189.3557581971
 30
0.0
  0
VERTEX
  5
884
  8
SK2
  6
CONTINUOUS
 62
     7
 10
21.2469080072
 20
189.3445064127
 30
0.0
  0
VERTEX
  5
885
  8
SK2
  6
CONTINUOUS
 62
     7
 10
21.2719100197
 20
189.3343122204
 30
0.0
  0
VERTEX
  5
886
  8
SK2
  6
CONTINUOUS
 62
     7
 10
21.2971889832
 20
189.325166665
 30
0.0
  0
VERTEX
  5
887
  8
SK2
  6
CONTINUOUS
 62
     7
 10
21.3226541865
 20
189.3170671026
 30
0.0
  0
VERTEX
  5
888
  8
SK2
  6
CONTINUOUS
 62
     7
 10
21.3482841797
 20
189.3100558089
 30
0.0
  0
VERTEX
  5
889
  8
SK2
  6
CONTINUOUS
 62
     7
 10
21.3740875445
 20
189.3041945361
 30
0.0
  0
VERTEX
  5
88A
  8
SK2
  6
CONTINUOUS
 62
     7
 10
21.4000729838
 20
189.2995451155
 30
0.0
  0
VERTEX
  5
88B
  8
SK2
  6
CONTINUOUS
 62
     7
 10
21.4262492006
 20
189.296169378
 30
0.0
  0
VERTEX
  5
88C
  8
SK2
  6
CONTINUOUS
 62
     7
 10
21.452624898
 20
189.2941291548
 30
0.0
  0
VERTEX
  5
88D
  8
SK2
  6
CONTINUOUS
 62
     7
 10
21.4792087787
 20
189.2934862769
 30
0.0
  0
VERTEX
  5
88E
  8
SK2
  6
CONTINUOUS
 62
     7
 10
21.5060095458
 20
189.2943025754
 30
0.0
  0
VERTEX
  5
88F
  8
SK2
  6
CONTINUOUS
 62
     7
 10
21.5330359024
 20
189.2966398815
 30
0.0
  0
VERTEX
  5
890
  8
SK2
  6
CONTINUOUS
 62
     7
 10
21.5602965512
 20
189.3005600261
 30
0.0
  0
VERTEX
  5
891
  8
SK2
  6
CONTINUOUS
 62
     7
 10
21.5877954007
 20
189.3061243561
 30
0.0
  0
VERTEX
  5
892
  8
SK2
  6
CONTINUOUS
 62
     7
 10
21.6153776877
 20
189.3133781933
 30
0.0
  0
VERTEX
  5
893
  8
SK2
  6
CONTINUOUS
 62
     7
 10
21.6426972686
 20
189.3223475307
 30
0.0
  0
VERTEX
  5
894
  8
SK2
  6
CONTINUOUS
 62
     7
 10
21.669396591
 20
189.3330572092
 30
0.0
  0
VERTEX
  5
895
  8
SK2
  6
CONTINUOUS
 62
     7
 10
21.6951181029
 20
189.3455320698
 30
0.0
  0
VERTEX
  5
896
  8
SK2
  6
CONTINUOUS
 62
     7
 10
21.7195042521
 20
189.3597969532
 30
0.0
  0
VERTEX
  5
897
  8
SK2
  6
CONTINUOUS
 62
     7
 10
21.7421984174
 20
189.3758766501
 30
0.0
  0
VERTEX
  5
898
  8
SK2
  6
CONTINUOUS
 62
     7
 10
21.7630237763
 20
189.3937862163
 30
0.0
  0
VERTEX
  5
899
  8
SK2
  6
CONTINUOUS
 62
     7
 10
21.7821963459
 20
189.4135194387
 30
0.0
  0
VERTEX
  5
89A
  8
SK2
  6
CONTINUOUS
 62
     7
 10
21.7999840316
 20
189.4350672946
 30
0.0
  0
VERTEX
  5
89B
  8
SK2
  6
CONTINUOUS
 62
     7
 10
21.816654739
 20
189.4584207618
 30
0.0
  0
VERTEX
  5
89C
  8
SK2
  6
CONTINUOUS
 62
     7
 10
21.8324763735
 20
189.4835708176
 30
0.0
  0
SEQEND
  5
96E
  8
SK2
  6
CONTINUOUS
 62
     7
  0
LINE
  5
1CD
  8
SK2
  6
CONTINUOUS
 62
     7
 10
21.83213633
 20
190.6245107529
 30
0.0
 11
21.83213633
 21
190.4573794688
 31
0.0
  0
LINE
  5
1CE
  8
SK2
  6
CONTINUOUS
 62
     7
 10
21.83213633
 20
190.6245107529
 30
0.0
 11
22.1704889118
 21
190.6245107529
 31
0.0
  0
LINE
  5
1CF
  8
SK2
  6
CONTINUOUS
 62
     7
 10
22.1704889118
 20
190.6245107529
 30
0.0
 11
22.1704889118
 21
189.2827975699
 31
0.0
  0
POLYLINE
  5
1D0
  8
SK2
  6
CONTINUOUS
 62
     7
 66
     1
 10
0.0
 20
0.0
 30
0.0
  0
VERTEX
  5
89D
  8
SK2
  6
CONTINUOUS
 62
     7
 10
22.1704889118
 20
189.2827975699
 30
0.0
  0
VERTEX
  5
89E
  8
SK2
  6
CONTINUOUS
 62
     7
 10
22.1694445557
 20
189.2620892662
 30
0.0
  0
VERTEX
  5
89F
  8
SK2
  6
CONTINUOUS
 62
     7
 10
22.1682048089
 20
189.2420477142
 30
0.0
  0
VERTEX
  5
8A0
  8
SK2
  6
CONTINUOUS
 62
     7
 10
22.1666833637
 20
189.2225749715
 30
0.0
  0
VERTEX
  5
8A1
  8
SK2
  6
CONTINUOUS
 62
     7
 10
22.1647939119
 20
189.2035730957
 30
0.0
  0
VERTEX
  5
8A2
  8
SK2
  6
CONTINUOUS
 62
     7
 10
22.1624501456
 20
189.1849441447
 30
0.0
  0
VERTEX
  5
8A3
  8
SK2
  6
CONTINUOUS
 62
     7
 10
22.1595657571
 20
189.166590176
 30
0.0
  0
VERTEX
  5
8A4
  8
SK2
  6
CONTINUOUS
 62
     7
 10
22.1560544382
 20
189.1484132475
 30
0.0
  0
VERTEX
  5
8A5
  8
SK2
  6
CONTINUOUS
 62
     7
 10
22.1518298811
 20
189.1303154167
 30
0.0
  0
VERTEX
  5
8A6
  8
SK2
  6
CONTINUOUS
 62
     7
 10
22.146811094
 20
189.1122093074
 30
0.0
  0
VERTEX
  5
8A7
  8
SK2
  6
CONTINUOUS
 62
     7
 10
22.1409708733
 20
189.0941144494
 30
0.0
  0
VERTEX
  5
8A8
  8
SK2
  6
CONTINUOUS
 62
     7
 10
22.1343132565
 20
189.0761124652
 30
0.0
  0
VERTEX
  5
8A9
  8
SK2
  6
CONTINUOUS
 62
     7
 10
22.1268426662
 20
189.0582857426
 30
0.0
  0
VERTEX
  5
8AA
  8
SK2
  6
CONTINUOUS
 62
     7
 10
22.118563525
 20
189.04071667
 30
0.0
  0
VERTEX
  5
8AB
  8
SK2
  6
CONTINUOUS
 62
     7
 10
22.1094802556
 20
189.0234876352
 30
0.0
  0
VERTEX
  5
8AC
  8
SK2
  6
CONTINUOUS
 62
     7
 10
22.0995972806
 20
189.0066810263
 30
0.0
  0
VERTEX
  5
8AD
  8
SK2
  6
CONTINUOUS
 62
     7
 10
22.0889190226
 20
188.9903792313
 30
0.0
  0
VERTEX
  5
8AE
  8
SK2
  6
CONTINUOUS
 62
     7
 10
22.0774499044
 20
188.9746646384
 30
0.0
  0
VERTEX
  5
8AF
  8
SK2
  6
CONTINUOUS
 62
     7
 10
22.0651946015
 20
188.9596191579
 30
0.0
  0
VERTEX
  5
8B0
  8
SK2
  6
CONTINUOUS
 62
     7
 10
22.0521741017
 20
188.9452939111
 30
0.0
  0
VERTEX
  5
8B1
  8
SK2
  6
CONTINUOUS
 62
     7
 10
22.0384353489
 20
188.9316910261
 30
0.0
  0
VERTEX
  5
8B2
  8
SK2
  6
CONTINUOUS
 62
     7
 10
22.0240276003
 20
188.9188082652
 30
0.0
  0
VERTEX
  5
8B3
  8
SK2
  6
CONTINUOUS
 62
     7
 10
22.0090001129
 20
188.9066433901
 30
0.0
  0
VERTEX
  5
8B4
  8
SK2
  6
CONTINUOUS
 62
     7
 10
21.9934021439
 20
188.8951941631
 30
0.0
  0
VERTEX
  5
8B5
  8
SK2
  6
CONTINUOUS
 62
     7
 10
21.9772829505
 20
188.8844583461
 30
0.0
  0
VERTEX
  5
8B6
  8
SK2
  6
CONTINUOUS
 62
     7
 10
21.9606917899
 20
188.8744337011
 30
0.0
  0
VERTEX
  5
8B7
  8
SK2
  6
CONTINUOUS
 62
     7
 10
21.9436779191
 20
188.8651179902
 30
0.0
  0
VERTEX
  5
8B8
  8
SK2
  6
CONTINUOUS
 62
     7
 10
21.9262905954
 20
188.8565089752
 30
0.0
  0
VERTEX
  5
8B9
  8
SK2
  6
CONTINUOUS
 62
     7
 10
21.9085790759
 20
188.8486044184
 30
0.0
  0
VERTEX
  5
8BA
  8
SK2
  6
CONTINUOUS
 62
     7
 10
21.8905913912
 20
188.8413985563
 30
0.0
  0
VERTEX
  5
8BB
  8
SK2
  6
CONTINUOUS
 62
     7
 10
21.87236659
 20
188.8348598107
 30
0.0
  0
VERTEX
  5
8BC
  8
SK2
  6
CONTINUOUS
 62
     7
 10
21.853939728
 20
188.8289451263
 30
0.0
  0
VERTEX
  5
8BD
  8
SK2
  6
CONTINUOUS
 62
     7
 10
21.8353458424
 20
188.8236113954
 30
0.0
  0
VERTEX
  5
8BE
  8
SK2
  6
CONTINUOUS
 62
     7
 10
21.8166199705
 20
188.8188155104
 30
0.0
  0
VERTEX
  5
8BF
  8
SK2
  6
CONTINUOUS
 62
     7
 10
21.7977971498
 20
188.8145143637
 30
0.0
  0
VERTEX
  5
8C0
  8
SK2
  6
CONTINUOUS
 62
     7
 10
21.7789124175
 20
188.8106648476
 30
0.0
  0
VERTEX
  5
8C1
  8
SK2
  6
CONTINUOUS
 62
     7
 10
21.7600008111
 20
188.8072238545
 30
0.0
  0
VERTEX
  5
8C2
  8
SK2
  6
CONTINUOUS
 62
     7
 10
21.7410973678
 20
188.8041482768
 30
0.0
  0
VERTEX
  5
8C3
  8
SK2
  6
CONTINUOUS
 62
     7
 10
21.722237125
 20
188.801395007
 30
0.0
  0
VERTEX
  5
8C4
  8
SK2
  6
CONTINUOUS
 62
     7
 10
21.7034551201
 20
188.7989209373
 30
0.0
  0
VERTEX
  5
8C5
  8
SK2
  6
CONTINUOUS
 62
     7
 10
21.6847811092
 20
188.7966857483
 30
0.0
  0
VERTEX
  5
8C6
  8
SK2
  6
CONTINUOUS
 62
     7
 10
21.6662034019
 20
188.7946710031
 30
0.0
  0
VERTEX
  5
8C7
  8
SK2
  6
CONTINUOUS
 62
     7
 10
21.6476907418
 20
188.7928685944
 30
0.0
  0
VERTEX
  5
8C8
  8
SK2
  6
CONTINUOUS
 62
     7
 10
21.6292117568
 20
188.7912704763
 30
0.0
  0
VERTEX
  5
8C9
  8
SK2
  6
CONTINUOUS
 62
     7
 10
21.6107350749
 20
188.7898686026
 30
0.0
  0
VERTEX
  5
8CA
  8
SK2
  6
CONTINUOUS
 62
     7
 10
21.5922293242
 20
188.7886549273
 30
0.0
  0
VERTEX
  5
8CB
  8
SK2
  6
CONTINUOUS
 62
     7
 10
21.5736631327
 20
188.7876214043
 30
0.0
  0
VERTEX
  5
8CC
  8
SK2
  6
CONTINUOUS
 62
     7
 10
21.5550051283
 20
188.7867599877
 30
0.0
  0
VERTEX
  5
8CD
  8
SK2
  6
CONTINUOUS
 62
     7
 10
21.536223939
 20
188.7860626313
 30
0.0
  0
VERTEX
  5
8CE
  8
SK2
  6
CONTINUOUS
 62
     7
 10
21.517288193
 20
188.785521289
 30
0.0
  0
VERTEX
  5
8CF
  8
SK2
  6
CONTINUOUS
 62
     7
 10
21.498166518
 20
188.7851279149
 30
0.0
  0
VERTEX
  5
8D0
  8
SK2
  6
CONTINUOUS
 62
     7
 10
21.4788275423
 20
188.7848744628
 30
0.0
  0
VERTEX
  5
8D1
  8
SK2
  6
CONTINUOUS
 62
     7
 10
21.4592398937
 20
188.7847528867
 30
0.0
  0
VERTEX
  5
8D2
  8
SK2
  6
CONTINUOUS
 62
     7
 10
21.4393722002
 20
188.7847551405
 30
0.0
  0
VERTEX
  5
8D3
  8
SK2
  6
CONTINUOUS
 62
     7
 10
21.4191930899
 20
188.7848731783
 30
0.0
  0
VERTEX
  5
8D4
  8
SK2
  6
CONTINUOUS
 62
     7
 10
21.3986711908
 20
188.7850989538
 30
0.0
  0
VERTEX
  5
8D5
  8
SK2
  6
CONTINUOUS
 62
     7
 10
21.3777751309
 20
188.7854244211
 30
0.0
  0
SEQEND
  5
96D
  8
SK2
  6
CONTINUOUS
 62
     7
  0
LINE
  5
1D1
  8
SK2
  6
CONTINUOUS
 62
     7
 10
21.8869768793
 20
188.5910856771
 30
0.0
 11
22.3152557597
 21
187.957205646
 31
0.0
  0
LINE
  5
1D2
  8
SK2
  6
CONTINUOUS
 62
     7
 10
22.3232106427
 20
188.5910856771
 30
0.0
 11
21.8869768793
 21
188.5910856771
 31
0.0
  0
LINE
  5
1D3
  8
SK2
  6
CONTINUOUS
 62
     7
 10
22.527227132
 20
188.2372736931
 30
0.0
 11
22.3232106427
 21
188.5910856771
 31
0.0
  0
LINE
  5
1D4
  8
SK2
  6
CONTINUOUS
 62
     7
 10
22.7246387709
 20
188.5910856771
 30
0.0
 11
22.527227132
 21
188.2372736931
 31
0.0
  0
LINE
  5
1D5
  8
SK2
  6
CONTINUOUS
 62
     7
 10
23.1623590928
 20
188.5910856771
 30
0.0
 11
22.7246387709
 21
188.5910856771
 31
0.0
  0
LINE
  5
1D6
  8
SK2
  6
CONTINUOUS
 62
     7
 10
22.7258801704
 20
187.957205646
 30
0.0
 11
23.1623590928
 21
188.5910856771
 31
0.0
  0
LINE
  5
1D7
  8
SK2
  6
CONTINUOUS
 62
     7
 10
23.1915969154
 20
187.2800436062
 30
0.0
 11
22.7258801704
 21
187.957205646
 31
0.0
  0
LINE
  5
1D8
  8
SK2
  6
CONTINUOUS
 62
     7
 10
22.7425874976
 20
187.2800436062
 30
0.0
 11
23.1915969154
 21
187.2800436062
 31
0.0
  0
LINE
  5
1D9
  8
SK2
  6
CONTINUOUS
 62
     7
 10
22.5128617489
 20
187.6648274204
 30
0.0
 11
22.7425874976
 21
187.2800436062
 31
0.0
  0
LINE
  5
1DA
  8
SK2
  6
CONTINUOUS
 62
     7
 10
22.2935780798
 20
187.2800436062
 30
0.0
 11
22.5128617489
 21
187.6648274204
 31
0.0
  0
LINE
  5
1DB
  8
SK2
  6
CONTINUOUS
 62
     7
 10
21.863364405
 20
187.2800436062
 30
0.0
 11
22.2935780798
 21
187.2800436062
 31
0.0
  0
LINE
  5
1DC
  8
SK2
  6
CONTINUOUS
 62
     7
 10
22.3152557597
 20
187.957205646
 30
0.0
 11
21.863364405
 21
187.2800436062
 31
0.0
  0
POLYLINE
  5
1DD
  8
SK2
  6
CONTINUOUS
 62
     7
 66
     1
 10
0.0
 20
0.0
 30
0.0
  0
VERTEX
  5
8D6
  8
SK2
  6
CONTINUOUS
 62
     7
 10
22.9487917259
 20
190.6715414095
 30
0.0
  0
VERTEX
  5
8D7
  8
SK2
  6
CONTINUOUS
 62
     7
 10
22.794572907
 20
190.6530614559
 30
0.0
  0
VERTEX
  5
8D8
  8
SK2
  6
CONTINUOUS
 62
     7
 10
22.6332362964
 20
190.5905139209
 30
0.0
  0
VERTEX
  5
8D9
  8
SK2
  6
CONTINUOUS
 62
     7
 10
22.4823584817
 20
190.4780676102
 30
0.0
  0
VERTEX
  5
8DA
  8
SK2
  6
CONTINUOUS
 62
     7
 10
22.4174160027
 20
190.404108714
 30
0.0
  0
VERTEX
  5
8DB
  8
SK2
  6
CONTINUOUS
 62
     7
 10
22.362760214
 20
190.3204222923
 30
0.0
  0
VERTEX
  5
8DC
  8
SK2
  6
CONTINUOUS
 62
     7
 10
22.3202501561
 20
190.2294587904
 30
0.0
  0
VERTEX
  5
8DD
  8
SK2
  6
CONTINUOUS
 62
     7
 10
22.2910012533
 20
190.1341141893
 30
0.0
  0
VERTEX
  5
8DE
  8
SK2
  6
CONTINUOUS
 62
     7
 10
22.2752928241
 20
190.037430765
 30
0.0
  0
VERTEX
  5
8DF
  8
SK2
  6
CONTINUOUS
 62
     7
 10
22.2726015198
 20
189.9422940122
 30
0.0
  0
VERTEX
  5
8E0
  8
SK2
  6
CONTINUOUS
 62
     7
 10
22.3010726864
 20
189.7660236861
 30
0.0
  0
VERTEX
  5
8E1
  8
SK2
  6
CONTINUOUS
 62
     7
 10
22.362760214
 20
189.6181840578
 30
0.0
  0
VERTEX
  5
8E2
  8
SK2
  6
CONTINUOUS
 62
     7
 10
22.4552915053
 20
189.4888243831
 30
0.0
  0
VERTEX
  5
8E3
  8
SK2
  6
CONTINUOUS
 62
     7
 10
22.5881569493
 20
189.3751015921
 30
0.0
  0
VERTEX
  5
8E4
  8
SK2
  6
CONTINUOUS
 62
     7
 10
22.7574344975
 20
189.2957277257
 30
0.0
  0
VERTEX
  5
8E5
  8
SK2
  6
CONTINUOUS
 62
     7
 10
22.8516258794
 20
189.2743420208
 30
0.0
  0
VERTEX
  5
8E6
  8
SK2
  6
CONTINUOUS
 62
     7
 10
22.9487917259
 20
189.2670649406
 30
0.0
  0
VERTEX
  5
8E7
  8
SK2
  6
CONTINUOUS
 62
     7
 10
23.0459575725
 20
189.2743420208
 30
0.0
  0
VERTEX
  5
8E8
  8
SK2
  6
CONTINUOUS
 62
     7
 10
23.1401489543
 20
189.2957277257
 30
0.0
  0
VERTEX
  5
8E9
  8
SK2
  6
CONTINUOUS
 62
     7
 10
23.2286873734
 20
189.3299519467
 30
0.0
  0
VERTEX
  5
8EA
  8
SK2
  6
CONTINUOUS
 62
     7
 10
23.3094265025
 20
189.3751015921
 30
0.0
  0
VERTEX
  5
8EB
  8
SK2
  6
CONTINUOUS
 62
     7
 10
23.4422919465
 20
189.4888243831
 30
0.0
  0
VERTEX
  5
8EC
  8
SK2
  6
CONTINUOUS
 62
     7
 10
23.5348232379
 20
189.6181840578
 30
0.0
  0
VERTEX
  5
8ED
  8
SK2
  6
CONTINUOUS
 62
     7
 10
23.5965107654
 20
189.7660236861
 30
0.0
  0
VERTEX
  5
8EE
  8
SK2
  6
CONTINUOUS
 62
     7
 10
23.624981932
 20
189.9422940122
 30
0.0
  0
VERTEX
  5
8EF
  8
SK2
  6
CONTINUOUS
 62
     7
 10
23.6065821985
 20
190.1341141893
 30
0.0
  0
VERTEX
  5
8F0
  8
SK2
  6
CONTINUOUS
 62
     7
 10
23.5773332957
 20
190.2294587904
 30
0.0
  0
VERTEX
  5
8F1
  8
SK2
  6
CONTINUOUS
 62
     7
 10
23.5348232379
 20
190.3204222923
 30
0.0
  0
VERTEX
  5
8F2
  8
SK2
  6
CONTINUOUS
 62
     7
 10
23.4801674492
 20
190.404108714
 30
0.0
  0
VERTEX
  5
8F3
  8
SK2
  6
CONTINUOUS
 62
     7
 10
23.4152249701
 20
190.4780676102
 30
0.0
  0
VERTEX
  5
8F4
  8
SK2
  6
CONTINUOUS
 62
     7
 10
23.3423949802
 20
190.5405268135
 30
0.0
  0
VERTEX
  5
8F5
  8
SK2
  6
CONTINUOUS
 62
     7
 10
23.2643471554
 20
190.5905139209
 30
0.0
  0
VERTEX
  5
8F6
  8
SK2
  6
CONTINUOUS
 62
     7
 10
23.1030105449
 20
190.6530614559
 30
0.0
  0
VERTEX
  5
8F7
  8
SK2
  6
CONTINUOUS
 62
     7
 10
22.9487917259
 20
190.6715414095
 30
0.0
  0
SEQEND
  5
96C
  8
SK2
  6
CONTINUOUS
 62
     7
  0
POLYLINE
  5
1DE
  8
SK2
  6
CONTINUOUS
 62
     7
 66
     1
 10
0.0
 20
0.0
 30
0.0
  0
VERTEX
  5
8F8
  8
SK2
  6
CONTINUOUS
 62
     7
 10
19.9040612979
 20
190.0939938126
 30
0.0
  0
VERTEX
  5
8F9
  8
SK2
  6
CONTINUOUS
 62
     7
 10
19.9066295802
 20
190.1095762388
 30
0.0
  0
VERTEX
  5
8FA
  8
SK2
  6
CONTINUOUS
 62
     7
 10
19.9093480056
 20
190.1248416987
 30
0.0
  0
VERTEX
  5
8FB
  8
SK2
  6
CONTINUOUS
 62
     7
 10
19.9122841555
 20
190.1397825878
 30
0.0
  0
VERTEX
  5
8FC
  8
SK2
  6
CONTINUOUS
 62
     7
 10
19.9155056115
 20
190.1543913015
 30
0.0
  0
VERTEX
  5
8FD
  8
SK2
  6
CONTINUOUS
 62
     7
 10
19.9190799551
 20
190.1686602354
 30
0.0
  0
VERTEX
  5
8FE
  8
SK2
  6
CONTINUOUS
 62
     7
 10
19.9230747677
 20
190.1825817849
 30
0.0
  0
VERTEX
  5
8FF
  8
SK2
  6
CONTINUOUS
 62
     7
 10
19.9275576309
 20
190.1961483457
 30
0.0
  0
VERTEX
  5
900
  8
SK2
  6
CONTINUOUS
 62
     7
 10
19.9325961263
 20
190.2093523131
 30
0.0
  0
VERTEX
  5
901
  8
SK2
  6
CONTINUOUS
 62
     7
 10
19.9382578353
 20
190.2221860828
 30
0.0
  0
VERTEX
  5
902
  8
SK2
  6
CONTINUOUS
 62
     7
 10
19.9446103394
 20
190.2346420501
 30
0.0
  0
VERTEX
  5
903
  8
SK2
  6
CONTINUOUS
 62
     7
 10
19.9517212203
 20
190.2467126107
 30
0.0
  0
VERTEX
  5
904
  8
SK2
  6
CONTINUOUS
 62
     7
 10
19.9596571438
 20
190.25838991
 30
0.0
  0
VERTEX
  5
905
  8
SK2
  6
CONTINUOUS
 62
     7
 10
19.9684362781
 20
190.2696528544
 30
0.0
  0
VERTEX
  5
906
  8
SK2
  6
CONTINUOUS
 62
     7
 10
19.9780050997
 20
190.2804607788
 30
0.0
  0
VERTEX
  5
907
  8
SK2
  6
CONTINUOUS
 62
     7
 10
19.9883043075
 20
190.2907714413
 30
0.0
  0
VERTEX
  5
908
  8
SK2
  6
CONTINUOUS
 62
     7
 10
19.9992746007
 20
190.3005425998
 30
0.0
  0
VERTEX
  5
909
  8
SK2
  6
CONTINUOUS
 62
     7
 10
20.0108566783
 20
190.3097320121
 30
0.0
  0
VERTEX
  5
90A
  8
SK2
  6
CONTINUOUS
 62
     7
 10
20.0229912393
 20
190.3182974364
 30
0.0
  0
VERTEX
  5
90B
  8
SK2
  6
CONTINUOUS
 62
     7
 10
20.0356189828
 20
190.3261966305
 30
0.0
  0
VERTEX
  5
90C
  8
SK2
  6
CONTINUOUS
 62
     7
 10
20.0486806079
 20
190.3333873523
 30
0.0
  0
VERTEX
  5
90D
  8
SK2
  6
CONTINUOUS
 62
     7
 10
20.0621168135
 20
190.3398273599
 30
0.0
  0
VERTEX
  5
90E
  8
SK2
  6
CONTINUOUS
 62
     7
 10
20.0758682992
 20
190.3454744119
 30
0.0
  0
VERTEX
  5
90F
  8
SK2
  6
CONTINUOUS
 62
     7
 10
20.0898794061
 20
190.350293689
 30
0.0
  0
VERTEX
  5
910
  8
SK2
  6
CONTINUOUS
 62
     7
 10
20.1041070913
 20
190.3542760823
 30
0.0
  0
VERTEX
  5
911
  8
SK2
  6
CONTINUOUS
 62
     7
 10
20.1185110414
 20
190.3574180462
 30
0.0
  0
VERTEX
  5
912
  8
SK2
  6
CONTINUOUS
 62
     7
 10
20.133050943
 20
190.3597160351
 30
0.0
  0
VERTEX
  5
913
  8
SK2
  6
CONTINUOUS
 62
     7
 10
20.1476864829
 20
190.3611665031
 30
0.0
  0
VERTEX
  5
914
  8
SK2
  6
CONTINUOUS
 62
     7
 10
20.1623773478
 20
190.3617659047
 30
0.0
  0
VERTEX
  5
915
  8
SK2
  6
CONTINUOUS
 62
     7
 10
20.1770832243
 20
190.3615106942
 30
0.0
  0
VERTEX
  5
916
  8
SK2
  6
CONTINUOUS
 62
     7
 10
20.1917637991
 20
190.360397326
 30
0.0
  0
VERTEX
  5
917
  8
SK2
  6
CONTINUOUS
 62
     7
 10
20.206378759
 20
190.3584222543
 30
0.0
  0
VERTEX
  5
918
  8
SK2
  6
CONTINUOUS
 62
     7
 10
20.2208877905
 20
190.3555819334
 30
0.0
  0
VERTEX
  5
919
  8
SK2
  6
CONTINUOUS
 62
     7
 10
20.2352505805
 20
190.3518728178
 30
0.0
  0
VERTEX
  5
91A
  8
SK2
  6
CONTINUOUS
 62
     7
 10
20.2494247478
 20
190.3472940719
 30
0.0
  0
VERTEX
  5
91B
  8
SK2
  6
CONTINUOUS
 62
     7
 10
20.2633487813
 20
190.341869934
 30
0.0
  0
VERTEX
  5
91C
  8
SK2
  6
CONTINUOUS
 62
     7
 10
20.2769508173
 20
190.3356382109
 30
0.0
  0
VERTEX
  5
91D
  8
SK2
  6
CONTINUOUS
 62
     7
 10
20.2901588908
 20
190.3286368428
 30
0.0
  0
VERTEX
  5
91E
  8
SK2
  6
CONTINUOUS
 62
     7
 10
20.3029010367
 20
190.3209037698
 30
0.0
  0
VERTEX
  5
91F
  8
SK2
  6
CONTINUOUS
 62
     7
 10
20.3151052896
 20
190.312476932
 30
0.0
  0
VERTEX
  5
920
  8
SK2
  6
CONTINUOUS
 62
     7
 10
20.3266996846
 20
190.3033942696
 30
0.0
  0
VERTEX
  5
921
  8
SK2
  6
CONTINUOUS
 62
     7
 10
20.3376122563
 20
190.2936937228
 30
0.0
  0
VERTEX
  5
922
  8
SK2
  6
CONTINUOUS
 62
     7
 10
20.3477710397
 20
190.2834132315
 30
0.0
  0
VERTEX
  5
923
  8
SK2
  6
CONTINUOUS
 62
     7
 10
20.3571040696
 20
190.2725907361
 30
0.0
  0
VERTEX
  5
924
  8
SK2
  6
CONTINUOUS
 62
     7
 10
20.3655418651
 20
190.2612638498
 30
0.0
  0
VERTEX
  5
925
  8
SK2
  6
CONTINUOUS
 62
     7
 10
20.3730787253
 20
190.2494617954
 30
0.0
  0
VERTEX
  5
926
  8
SK2
  6
CONTINUOUS
 62
     7
 10
20.3797766533
 20
190.2372048887
 30
0.0
  0
VERTEX
  5
927
  8
SK2
  6
CONTINUOUS
 62
     7
 10
20.3857009217
 20
190.2245130154
 30
0.0
  0
VERTEX
  5
928
  8
SK2
  6
CONTINUOUS
 62
     7
 10
20.3909168034
 20
190.2114060615
 30
0.0
  0
VERTEX
  5
929
  8
SK2
  6
CONTINUOUS
 62
     7
 10
20.3954895712
 20
190.1979039125
 30
0.0
  0
VERTEX
  5
92A
  8
SK2
  6
CONTINUOUS
 62
     7
 10
20.3994844978
 20
190.1840264543
 30
0.0
  0
VERTEX
  5
92B
  8
SK2
  6
CONTINUOUS
 62
     7
 10
20.4029668562
 20
190.1697935725
 30
0.0
  0
VERTEX
  5
92C
  8
SK2
  6
CONTINUOUS
 62
     7
 10
20.406001919
 20
190.155225153
 30
0.0
  0
VERTEX
  5
92D
  8
SK2
  6
CONTINUOUS
 62
     7
 10
20.4086549591
 20
190.1403410816
 30
0.0
  0
VERTEX
  5
92E
  8
SK2
  6
CONTINUOUS
 62
     7
 10
20.4109912492
 20
190.1251612438
 30
0.0
  0
VERTEX
  5
92F
  8
SK2
  6
CONTINUOUS
 62
     7
 10
20.4130760622
 20
190.1097055256
 30
0.0
  0
VERTEX
  5
930
  8
SK2
  6
CONTINUOUS
 62
     7
 10
20.4149746709
 20
190.0939938126
 30
0.0
  0
SEQEND
  5
96B
  8
SK2
  6
CONTINUOUS
 62
     7
  0
LINE
  5
1DF
  8
SK2
  6
CONTINUOUS
 62
     7
 10
19.9040612979
 20
190.0939938126
 30
0.0
 11
20.4149746709
 21
190.0939938126
 31
0.0
  0
POLYLINE
  5
1E0
  8
SK2
  6
CONTINUOUS
 62
     7
 66
     1
 10
0.0
 20
0.0
 30
0.0
  0
VERTEX
  5
931
  8
SK2
  6
CONTINUOUS
 62
     7
 10
21.5541704031
 20
189.5982580253
 30
0.0
  0
VERTEX
  5
932
  8
SK2
  6
CONTINUOUS
 62
     7
 10
21.4894658788
 20
189.608014568
 30
0.0
  0
VERTEX
  5
933
  8
SK2
  6
CONTINUOUS
 62
     7
 10
21.4217749919
 20
189.6410367128
 30
0.0
  0
VERTEX
  5
934
  8
SK2
  6
CONTINUOUS
 62
     7
 10
21.3584722297
 20
189.7004030547
 30
0.0
  0
VERTEX
  5
935
  8
SK2
  6
CONTINUOUS
 62
     7
 10
21.3082932108
 20
189.783632338
 30
0.0
  0
VERTEX
  5
936
  8
SK2
  6
CONTINUOUS
 62
     7
 10
21.2781857995
 20
189.8819942183
 30
0.0
  0
VERTEX
  5
937
  8
SK2
  6
CONTINUOUS
 62
     7
 10
21.2704659505
 20
189.9832662133
 30
0.0
  0
VERTEX
  5
938
  8
SK2
  6
CONTINUOUS
 62
     7
 10
21.2824114011
 20
190.0763286213
 30
0.0
  0
VERTEX
  5
939
  8
SK2
  6
CONTINUOUS
 62
     7
 10
21.3082932108
 20
190.1543809636
 30
0.0
  0
VERTEX
  5
93A
  8
SK2
  6
CONTINUOUS
 62
     7
 10
21.3471159254
 20
190.222676763
 30
0.0
  0
VERTEX
  5
93B
  8
SK2
  6
CONTINUOUS
 62
     7
 10
21.4028613617
 20
190.2827170262
 30
0.0
  0
VERTEX
  5
93C
  8
SK2
  6
CONTINUOUS
 62
     7
 10
21.473883973
 20
190.3246226794
 30
0.0
  0
VERTEX
  5
93D
  8
SK2
  6
CONTINUOUS
 62
     7
 10
21.5541704031
 20
190.3397552763
 30
0.0
  0
VERTEX
  5
93E
  8
SK2
  6
CONTINUOUS
 62
     7
 10
21.6344568333
 20
190.3246226794
 30
0.0
  0
VERTEX
  5
93F
  8
SK2
  6
CONTINUOUS
 62
     7
 10
21.7054794446
 20
190.2827170262
 30
0.0
  0
VERTEX
  5
940
  8
SK2
  6
CONTINUOUS
 62
     7
 10
21.7612248809
 20
190.222676763
 30
0.0
  0
VERTEX
  5
941
  8
SK2
  6
CONTINUOUS
 62
     7
 10
21.8000475954
 20
190.1543809636
 30
0.0
  0
VERTEX
  5
942
  8
SK2
  6
CONTINUOUS
 62
     7
 10
21.8259294052
 20
190.0763286213
 30
0.0
  0
VERTEX
  5
943
  8
SK2
  6
CONTINUOUS
 62
     7
 10
21.8378748558
 20
189.9832662133
 30
0.0
  0
VERTEX
  5
944
  8
SK2
  6
CONTINUOUS
 62
     7
 10
21.8301550067
 20
189.8819942183
 30
0.0
  0
VERTEX
  5
945
  8
SK2
  6
CONTINUOUS
 62
     7
 10
21.8000475954
 20
189.783632338
 30
0.0
  0
VERTEX
  5
946
  8
SK2
  6
CONTINUOUS
 62
     7
 10
21.7498685766
 20
189.7004030547
 30
0.0
  0
VERTEX
  5
947
  8
SK2
  6
CONTINUOUS
 62
     7
 10
21.6865658144
 20
189.6410367128
 30
0.0
  0
VERTEX
  5
948
  8
SK2
  6
CONTINUOUS
 62
     7
 10
21.6188749274
 20
189.608014568
 30
0.0
  0
VERTEX
  5
949
  8
SK2
  6
CONTINUOUS
 62
     7
 10
21.5541704031
 20
189.5982580253
 30
0.0
  0
SEQEND
  5
96A
  8
SK2
  6
CONTINUOUS
 62
     7
  0
POLYLINE
  5
1E1
  8
SK2
  6
CONTINUOUS
 62
     7
 66
     1
 10
0.0
 20
0.0
 30
0.0
  0
VERTEX
  5
94A
  8
SK2
  6
CONTINUOUS
 62
     7
 10
22.9387081918
 20
189.5713122678
 30
0.0
  0
VERTEX
  5
94B
  8
SK2
  6
CONTINUOUS
 62
     7
 10
22.8702031957
 20
189.5835280847
 30
0.0
  0
VERTEX
  5
94C
  8
SK2
  6
CONTINUOUS
 62
     7
 10
22.7991569557
 20
189.6207994566
 30
0.0
  0
VERTEX
  5
94D
  8
SK2
  6
CONTINUOUS
 62
     7
 10
22.7334910797
 20
189.6862326101
 30
0.0
  0
VERTEX
  5
94E
  8
SK2
  6
CONTINUOUS
 62
     7
 10
22.6824226203
 20
189.7769287348
 30
0.0
  0
VERTEX
  5
94F
  8
SK2
  6
CONTINUOUS
 62
     7
 10
22.6530985778
 20
189.8833288956
 30
0.0
  0
VERTEX
  5
950
  8
SK2
  6
CONTINUOUS
 62
     7
 10
22.6476480097
 20
189.9922501485
 30
0.0
  0
VERTEX
  5
951
  8
SK2
  6
CONTINUOUS
 62
     7
 10
22.6628751643
 20
190.0918290315
 30
0.0
  0
VERTEX
  5
952
  8
SK2
  6
CONTINUOUS
 62
     7
 10
22.6925061545
 20
190.1749196421
 30
0.0
  0
VERTEX
  5
953
  8
SK2
  6
CONTINUOUS
 62
     7
 10
22.735625859
 20
190.2471883335
 30
0.0
  0
VERTEX
  5
954
  8
SK2
  6
CONTINUOUS
 62
     7
 10
22.7965071235
 20
190.3101391818
 30
0.0
  0
VERTEX
  5
955
  8
SK2
  6
CONTINUOUS
 62
     7
 10
22.8731323114
 20
190.3532115191
 30
0.0
  0
VERTEX
  5
956
  8
SK2
  6
CONTINUOUS
 62
     7
 10
22.9588752601
 20
190.3672940823
 30
0.0
  0
VERTEX
  5
957
  8
SK2
  6
CONTINUOUS
 62
     7
 10
23.0437950631
 20
190.3488875919
 30
0.0
  0
VERTEX
  5
958
  8
SK2
  6
CONTINUOUS
 62
     7
 10
23.1181407708
 20
190.3019902422
 30
0.0
  0
VERTEX
  5
959
  8
SK2
  6
CONTINUOUS
 62
     7
 10
23.1757561133
 20
190.2360371529
 30
0.0
  0
VERTEX
  5
95A
  8
SK2
  6
CONTINUOUS
 62
     7
 10
23.2151608315
 20
190.1616776153
 30
0.0
  0
VERTEX
  5
95B
  8
SK2
  6
CONTINUOUS
 62
     7
 10
23.2405461231
 20
190.077193107
 30
0.0
  0
VERTEX
  5
95C
  8
SK2
  6
CONTINUOUS
 62
     7
 10
23.2507110986
 20
189.9769708867
 30
0.0
  0
VERTEX
  5
95D
  8
SK2
  6
CONTINUOUS
 62
     7
 10
23.2397517866
 20
189.868465396
 30
0.0
  0
VERTEX
  5
95E
  8
SK2
  6
CONTINUOUS
 62
     7
 10
23.2050772973
 20
189.763686708
 30
0.0
  0
VERTEX
  5
95F
  8
SK2
  6
CONTINUOUS
 62
     7
 10
23.1494815369
 20
189.6756930376
 30
0.0
  0
VERTEX
  5
960
  8
SK2
  6
CONTINUOUS
 62
     7
 10
23.0805863972
 20
189.6136691344
 30
0.0
  0
VERTEX
  5
961
  8
SK2
  6
CONTINUOUS
 62
     7
 10
23.0077439002
 20
189.5800433407
 30
0.0
  0
VERTEX
  5
962
  8
SK2
  6
CONTINUOUS
 62
     7
 10
22.9387081918
 20
189.5713122678
 30
0.0
  0
SEQEND
  5
969
  8
SK2
  6
CONTINUOUS
 62
     7
  0
INSERT
  5
1E2
  8
SK2
  2
SEANNOT_GROUP2
 10
0.0
 20
0.0
 30
0.0
  0
INSERT
  5
1E3
  8
SK2
  2
SEANNOT_GROUP3
 10
0.0
 20
0.0
 30
0.0
  0
POINT
  5
1E4
  8
SK2
  6
CONTINUOUS
 62
     7
 10
0.0
 20
0.0
 30
0.0
  0
ENDBLK
  5
1E6
  8
0
  0
BLOCK
  8
0
  2
*X13
 70
     1
 10
0.0
 20
0.0
 30
0.0
  3
*X13
  1

  0
TEXT
  5
42B
  8
SK2
  6
CONTINUOUS
 62
     7
 10
15.0256856049
 20
32.4463084294
 30
0.0
 40
2.5
  1
REGO-FIX AG
  0
TEXT
  5
42C
  8
SK2
  6
CONTINUOUS
 62
     7
 10
15.0281856049
 20
28.2646417627
 30
0.0
 40
2.5
  1
Obermattweg 60
  0
TEXT
  5
42D
  8
SK2
  6
CONTINUOUS
 62
     7
 10
15.0981856049
 20
24.0854750961
 30
0.0
 40
2.5
  1
4456 Tenniken / Switzerland
  0
TEXT
  5
42E
  8
SK2
  6
CONTINUOUS
 62
     7
 10
15.0331856049
 20
15.7396417627
 30
0.0
 40
2.5
  1
Phone  +41 61 976 14 66
  0
TEXT
  5
42F
  8
SK2
  6
CONTINUOUS
 62
     7
 10
15.0281856049
 20
11.5604750961
 30
0.0
 40
2.5
  1
Fax     +41 61 976 14 14
  0
TEXT
  5
430
  8
SK2
  6
CONTINUOUS
 62
     7
 10
15.1806856049
 20
7.3938084294
 30
0.0
 40
2.5
  1
www.rego-fix.com
  0
ENDBLK
  5
964
  8
0
  0
BLOCK
  8
0
  2
*X14
 70
     1
 10
0.0
 20
0.0
 30
0.0
  3
*X14
  1

  0
TEXT
  5
432
  8
SK2
  6
CONTINUOUS
 62
     7
 10
90.3314341545
 20
32.7483194895
 30
0.0
 40
1.8
  1
This is a non-controlled copy. All information given herein is subject to change without notice
  0
TEXT
  5
433
  8
SK2
  6
CONTINUOUS
 62
     7
 10
90.3314341545
 20
26.7375194895
 30
0.0
 40
1.8
  1
The information given herein has been carefully checked and is believed to be correct. REGO-FIX,
  0
TEXT
  5
434
  8
SK2
  6
CONTINUOUS
 62
     7
 10
90.2522341545
 20
23.7375194895
 30
0.0
 40
1.8
  1
however, assumes no responsibility or liability for any errors, inaccuracies or omissions that may appear
  0
TEXT
  5
435
  8
SK2
  6
CONTINUOUS
 62
     7
 10
90.1856341545
 20
20.7375194895
 30
0.0
 40
1.8
  1
in this drawing
  0
TEXT
  5
436
  8
SK2
  6
CONTINUOUS
 62
     7
 10
90.3314341545
 20
14.7375194895
 30
0.0
 40
1.8
  1
This document is subject to copyright laws. No part of this document may be reproduced or transmitted
  0
TEXT
  5
437
  8
SK2
  6
CONTINUOUS
 62
     7
 10
90.1856341545
 20
11.7375194895
 30
0.0
 40
1.8
  1
in any form or any means, electronic or mechanic, for any purpose, without the express written permission
  0
TEXT
  5
438
  8
SK2
  6
CONTINUOUS
 62
     7
 10
90.2486341545
 20
8.7267194895
 30
0.0
 40
1.8
  1
of REGO-FIX
  0
ENDBLK
  5
966
  8
0
  0
BLOCK
  8
0
  2
*X15
 70
     1
 10
0.0
 20
0.0
 30
0.0
  3
*X15
  1

  0
TEXT
  5
43A
  8
SK2
  6
CONTINUOUS
 62
     7
 10
221.9308311835
 20
31.4392490761
 30
0.0
 40
3.5
  1
Type :
  0
TEXT
  5
43B
  8
SK2
  6
CONTINUOUS
 62
     7
 10
221.7698311835
 20
25.6059157428
 30
0.0
 40
3.5
  1
Part No. :
  0
TEXT
  5
43C
  8
SK2
  6
CONTINUOUS
 62
     7
 10
221.7733311835
 20
19.7725824095
 30
0.0
 40
3.5
  1
Date :
  0
TEXT
  5
43D
  8
SK2
  6
CONTINUOUS
 62
     7
 10
221.8783311835
 20
13.9392490761
 30
0.0
 40
3.5
  1
Scale :
  0
ENDBLK
  5
968
  8
0
  0
ENDSEC
  0
SECTION
  2
ENTITIES
  0
INSERT
  5
41
  8
SK2
  2
SE
 10
0.0
 20
0.0
 30
0.0
  0
INSERT
  5
A1
  8
SK2
  2
SE1
 10
0.0
 20
0.0
 30
0.0
  0
INSERT
  5
FC
  8
SK2
  2
GDIMGGROUP
 10
0.0
 20
0.0
 30
0.0
  0
INSERT
  5
107
  8
SK2
  2
GDIMGGROUP1
 10
0.0
 20
0.0
 30
0.0
  0
INSERT
  5
111
  8
SK2
  2
GDIMGGROUP2
 10
0.0
 20
0.0
 30
0.0
  0
INSERT
  5
11D
  8
SK2
  2
GDIMGGROUP3
 10
0.0
 20
0.0
 30
0.0
  0
INSERT
  5
128
  8
SK2
  2
GDIMGGROUP4
 10
0.0
 20
0.0
 30
0.0
  0
INSERT
  5
1E7
  8
SK2
 62
     7
  2
RF-MASSBLATT_ZR
 10
0.0
 20
0.0
 30
0.0
  0
ENDSEC
  0
EOF
