  0
SECTION
  2
HEADER
  9
$ACADVER
  1
AC1015
  9
$ACADMAINTVER
 70
     6
  9
$DWGCODEPAGE
  3
ANSI_1252
  9
$INSBASE
 10
0.0
 20
0.0
 30
0.0
  9
$EXTMIN
 10
0.0
 20
0.0
 30
0.0
  9
$EXTMAX
 10
297.0
 20
210.0
 30
0.0
  9
$LIMMIN
 10
0.0
 20
0.0
  9
$LIMMAX
 10
297.0
 20
210.0
  9
$ORTHOMODE
 70
     0
  9
$REGENMODE
 70
     1
  9
$FILLMODE
 70
     1
  9
$QTEXTMODE
 70
     0
  9
$MIRRTEXT
 70
     1
  9
$LTSCALE
 40
1.0
  9
$ATTMODE
 70
     1
  9
$TEXTSIZE
 40
2.5
  9
$TRACEWID
 40
1.0
  9
$TEXTSTYLE
  7
Standard
  9
$CLAYER
  8
0
  9
$CELTYPE
  6
ByLayer
  9
$CECOLOR
 62
   256
  9
$CELTSCALE
 40
1.0
  9
$DISPSILH
 70
     0
  9
$DIMSCALE
 40
1.0
  9
$DIMASZ
 40
2.5
  9
$DIMEXO
 40
0.625
  9
$DIMDLI
 40
3.75
  9
$DIMRND
 40
0.0
  9
$DIMDLE
 40
0.0
  9
$DIMEXE
 40
1.25
  9
$DIMTP
 40
0.0
  9
$DIMTM
 40
0.0
  9
$DIMTXT
 40
2.5
  9
$DIMCEN
 40
2.5
  9
$DIMTSZ
 40
0.0
  9
$DIMTOL
 70
     0
  9
$DIMLIM
 70
     0
  9
$DIMTIH
 70
     0
  9
$DIMTOH
 70
     0
  9
$DIMSE1
 70
     0
  9
$DIMSE2
 70
     0
  9
$DIMTAD
 70
     1
  9
$DIMZIN
 70
     8
  9
$DIMBLK
  1

  9
$DIMASO
 70
     1
  9
$DIMSHO
 70
     1
  9
$DIMPOST
  1

  9
$DIMAPOST
  1

  9
$DIMALT
 70
     0
  9
$DIMALTD
 70
     3
  9
$DIMALTF
 40
0.0393700787
  9
$DIMLFAC
 40
1.0
  9
$DIMTOFL
 70
     1
  9
$DIMTVP
 40
0.0
  9
$DIMTIX
 70
     0
  9
$DIMSOXD
 70
     0
  9
$DIMSAH
 70
     0
  9
$DIMBLK1
  1

  9
$DIMBLK2
  1

  9
$DIMSTYLE
  2
ISO-25
  9
$DIMCLRD
 70
     0
  9
$DIMCLRE
 70
     0
  9
$DIMCLRT
 70
     0
  9
$DIMTFAC
 40
1.0
  9
$DIMGAP
 40
0.625
  9
$DIMJUST
 70
     0
  9
$DIMSD1
 70
     0
  9
$DIMSD2
 70
     0
  9
$DIMTOLJ
 70
     0
  9
$DIMTZIN
 70
     8
  9
$DIMALTZ
 70
     0
  9
$DIMALTTZ
 70
     0
  9
$DIMUPT
 70
     0
  9
$DIMDEC
 70
     2
  9
$DIMTDEC
 70
     2
  9
$DIMALTU
 70
     2
  9
$DIMALTTD
 70
     3
  9
$DIMTXSTY
  7
Standard
  9
$DIMAUNIT
 70
     0
  9
$DIMADEC
 70
     0
  9
$DIMALTRND
 40
0.0
  9
$DIMAZIN
 70
     0
  9
$DIMDSEP
 70
    44
  9
$DIMATFIT
 70
     3
  9
$DIMFRAC
 70
     0
  9
$DIMLDRBLK
  1

  9
$DIMLUNIT
 70
     2
  9
$DIMLWD
 70
    -2
  9
$DIMLWE
 70
    -2
  9
$DIMTMOVE
 70
     0
  9
$LUNITS
 70
     2
  9
$LUPREC
 70
     4
  9
$SKETCHINC
 40
1.0
  9
$FILLETRAD
 40
10.0
  9
$AUNITS
 70
     0
  9
$AUPREC
 70
     0
  9
$MENU
  1
.
  9
$ELEVATION
 40
0.0
  9
$PELEVATION
 40
0.0
  9
$THICKNESS
 40
0.0
  9
$LIMCHECK
 70
     0
  9
$CHAMFERA
 40
10.0
  9
$CHAMFERB
 40
10.0
  9
$CHAMFERC
 40
20.0
  9
$CHAMFERD
 40
0.0
  9
$SKPOLY
 70
     0
  9
$TDCREATE
 40
2457310.373751435
  9
$TDUCREATE
 40
2457310.290418102
  9
$TDUPDATE
 40
2457310.373752882
  9
$TDUUPDATE
 40
2457310.290419549
  9
$TDINDWG
 40
0.0000000116
  9
$TDUSRTIMER
 40
0.0000000116
  9
$USRTIMER
 70
     1
  9
$ANGBASE
 50
0.0
  9
$ANGDIR
 70
     0
  9
$PDMODE
 70
     0
  9
$PDSIZE
 40
0.0
  9
$PLINEWID
 40
0.0
  9
$SPLFRAME
 70
     0
  9
$SPLINETYPE
 70
     6
  9
$SPLINESEGS
 70
     8
  9
$HANDSEED
  5
1AC
  9
$SURFTAB1
 70
     6
  9
$SURFTAB2
 70
     6
  9
$SURFTYPE
 70
     6
  9
$SURFU
 70
     6
  9
$SURFV
 70
     6
  9
$UCSBASE
  2

  9
$UCSNAME
  2

  9
$UCSORG
 10
0.0
 20
0.0
 30
0.0
  9
$UCSXDIR
 10
1.0
 20
0.0
 30
0.0
  9
$UCSYDIR
 10
0.0
 20
1.0
 30
0.0
  9
$UCSORTHOREF
  2

  9
$UCSORTHOVIEW
 70
     0
  9
$UCSORGTOP
 10
0.0
 20
0.0
 30
0.0
  9
$UCSORGBOTTOM
 10
0.0
 20
0.0
 30
0.0
  9
$UCSORGLEFT
 10
0.0
 20
0.0
 30
0.0
  9
$UCSORGRIGHT
 10
0.0
 20
0.0
 30
0.0
  9
$UCSORGFRONT
 10
0.0
 20
0.0
 30
0.0
  9
$UCSORGBACK
 10
0.0
 20
0.0
 30
0.0
  9
$PUCSBASE
  2

  9
$PUCSNAME
  2

  9
$PUCSORG
 10
0.0
 20
0.0
 30
0.0
  9
$PUCSXDIR
 10
1.0
 20
0.0
 30
0.0
  9
$PUCSYDIR
 10
0.0
 20
1.0
 30
0.0
  9
$PUCSORTHOREF
  2

  9
$PUCSORTHOVIEW
 70
     0
  9
$PUCSORGTOP
 10
0.0
 20
0.0
 30
0.0
  9
$PUCSORGBOTTOM
 10
0.0
 20
0.0
 30
0.0
  9
$PUCSORGLEFT
 10
0.0
 20
0.0
 30
0.0
  9
$PUCSORGRIGHT
 10
0.0
 20
0.0
 30
0.0
  9
$PUCSORGFRONT
 10
0.0
 20
0.0
 30
0.0
  9
$PUCSORGBACK
 10
0.0
 20
0.0
 30
0.0
  9
$USERI1
 70
     0
  9
$USERI2
 70
     0
  9
$USERI3
 70
     0
  9
$USERI4
 70
     0
  9
$USERI5
 70
     0
  9
$USERR1
 40
0.0
  9
$USERR2
 40
0.0
  9
$USERR3
 40
0.0
  9
$USERR4
 40
0.0
  9
$USERR5
 40
0.0
  9
$WORLDVIEW
 70
     1
  9
$SHADEDGE
 70
     3
  9
$SHADEDIF
 70
    70
  9
$TILEMODE
 70
     1
  9
$MAXACTVP
 70
    64
  9
$PINSBASE
 10
0.0
 20
0.0
 30
0.0
  9
$PLIMCHECK
 70
     0
  9
$PEXTMIN
 10
0.0
 20
0.0
 30
0.0
  9
$PEXTMAX
 10
297.0
 20
210.0
 30
0.0
  9
$PLIMMIN
 10
0.0
 20
0.0
  9
$PLIMMAX
 10
297.0
 20
210.0
  9
$UNITMODE
 70
     0
  9
$VISRETAIN
 70
     1
  9
$PLINEGEN
 70
     0
  9
$PSLTSCALE
 70
     1
  9
$TREEDEPTH
 70
  3020
  9
$CMLSTYLE
  2
Standard
  9
$CMLJUST
 70
     0
  9
$CMLSCALE
 40
20.0
  9
$PROXYGRAPHICS
 70
     1
  9
$MEASUREMENT
 70
     1
  9
$CELWEIGHT
370
    -1
  9
$ENDCAPS
280
     0
  9
$JOINSTYLE
280
     0
  9
$LWDISPLAY
290
     0
  9
$INSUNITS
 70
     4
  9
$HYPERLINKBASE
  1

  9
$STYLESHEET
  1

  9
$XEDIT
290
     1
  9
$CEPSNTYPE
380
     0
  9
$PSTYLEMODE
290
     1
  9
$FINGERPRINTGUID
  2
{CDF2175E-DD40-47F2-8589-79A4784BBEF0}
  9
$VERSIONGUID
  2
{FAEB1C32-E019-11D5-929B-00C0DF256EC4}
  9
$EXTNAMES
290
     1
  9
$PSVPSCALE
 40
0.0
  9
$OLESTARTUP
290
     0
  0
ENDSEC
  0
SECTION
  2
CLASSES
  0
CLASS
  1
ACDBDICTIONARYWDFLT
  2
AcDbDictionaryWithDefault
  3
ObjectDBX Classes
 90
        0
280
     0
281
     0
  0
CLASS
  1
VISUALSTYLE
  2
AcDbVisualStyle
  3
ObjectDBX Classes
 90
     4095
280
     0
281
     0
  0
CLASS
  1
MATERIAL
  2
AcDbMaterial
  3
ObjectDBX Classes
 90
     1153
280
     0
281
     0
  0
CLASS
  1
DICTIONARYVAR
  2
AcDbDictionaryVar
  3
ObjectDBX Classes
 90
        0
280
     0
281
     0
  0
CLASS
  1
ACDBPLACEHOLDER
  2
AcDbPlaceHolder
  3
ObjectDBX Classes
 90
        0
280
     0
281
     0
  0
CLASS
  1
LAYOUT
  2
AcDbLayout
  3
ObjectDBX Classes
 90
        0
280
     0
281
     0
  0
ENDSEC
  0
SECTION
  2
TABLES
  0
TABLE
  2
VPORT
  5
8
330
0
100
AcDbSymbolTable
 70
     1
  0
VPORT
  5
29
330
8
100
AcDbSymbolTableRecord
100
AcDbViewportTableRecord
  2
*Active
 70
     0
 10
0.0
 20
0.0
 11
1.0
 21
1.0
 12
344.1869158879
 22
148.5
 13
0.0
 23
0.0
 14
10.0
 24
10.0
 15
10.0
 25
10.0
 16
0.0
 26
0.0
 36
1.0
 17
0.0
 27
0.0
 37
0.0
 40
297.0
 41
1.9729729729
 42
50.0
 43
0.0
 44
0.0
 50
0.0
 51
0.0
 71
     0
 72
   100
 73
     1
 74
     3
 75
     0
 76
     0
 77
     0
 78
     0
281
     0
 65
     1
110
0.0
120
0.0
130
0.0
111
1.0
121
0.0
131
0.0
112
0.0
122
1.0
132
0.0
 79
     0
146
0.0
  0
ENDTAB
  0
TABLE
  2
LTYPE
  5
5
330
0
100
AcDbSymbolTable
 70
     1
  0
LTYPE
  5
14
330
5
100
AcDbSymbolTableRecord
100
AcDbLinetypeTableRecord
  2
ByBlock
 70
     0
  3

 72
    65
 73
     0
 40
0.0
  0
LTYPE
  5
15
330
5
100
AcDbSymbolTableRecord
100
AcDbLinetypeTableRecord
  2
ByLayer
 70
     0
  3

 72
    65
 73
     0
 40
0.0
  0
LTYPE
  5
16
330
5
100
AcDbSymbolTableRecord
100
AcDbLinetypeTableRecord
  2
Continuous
 70
     0
  3
Solid line
 72
    65
 73
     0
 40
0.0
  0
ENDTAB
  0
TABLE
  2
LAYER
  5
2
330
0
100
AcDbSymbolTable
 70
     3
  0
LAYER
  5
10
330
2
100
AcDbSymbolTableRecord
100
AcDbLayerTableRecord
  2
0
 70
     0
 62
     7
  6
Continuous
370
    -3
390
F
  0
LAYER
  5
3F
330
2
100
AcDbSymbolTableRecord
100
AcDbLayerTableRecord
  2
Default
 70
     0
 62
     7
  6
Continuous
370
    -3
390
F
  0
LAYER
  5
42
330
2
100
AcDbSymbolTableRecord
100
AcDbLayerTableRecord
  2
0012874
 70
     0
 62
     7
  6
Continuous
370
    -3
390
F
  0
ENDTAB
  0
TABLE
  2
STYLE
  5
3
330
0
100
AcDbSymbolTable
 70
     4
  0
STYLE
  5
11
330
3
100
AcDbSymbolTableRecord
100
AcDbTextStyleTableRecord
  2
Standard
 70
     0
 40
0.0
 41
1.0
 50
0.0
 71
     0
 42
2.5
  3
txt
  4

  0
STYLE
  5
FB
330
3
100
AcDbSymbolTableRecord
100
AcDbTextStyleTableRecord
  2
SEACAD_Solid_Edge_ISO
 70
     0
 40
0.0
 41
1.0
 50
0.0
 71
     0
 42
0.2
  3
seiso.ttf
  4

1001
ACAD
1000
Solid Edge ISO
1071
        0
  0
STYLE
  5
114
330
3
100
AcDbSymbolTableRecord
100
AcDbTextStyleTableRecord
  2
SEACAD_Solid_Edge_ANSIB
 70
     0
 40
0.0
 41
1.0
 50
0.0
 71
     0
 42
0.2
  3
seansbd.ttf
  4

1001
ACAD
1000
Solid Edge ANSI
1071
 33554432
  0
STYLE
  5
119
330
3
100
AcDbSymbolTableRecord
100
AcDbTextStyleTableRecord
  2
SEACAD_Solid_Edge_ANSI
 70
     0
 40
0.0
 41
1.0
 50
0.0
 71
     0
 42
0.2
  3
seans.ttf
  4

1001
ACAD
1000
Solid Edge ANSI
1071
        0
  0
ENDTAB
  0
TABLE
  2
VIEW
  5
6
330
0
100
AcDbSymbolTable
 70
     0
  0
ENDTAB
  0
TABLE
  2
UCS
  5
7
330
0
100
AcDbSymbolTable
 70
     0
  0
ENDTAB
  0
TABLE
  2
APPID
  5
9
330
0
100
AcDbSymbolTable
 70
     1
  0
APPID
  5
12
330
9
100
AcDbSymbolTableRecord
100
AcDbRegAppTableRecord
  2
ACAD
 70
     0
  0
ENDTAB
  0
TABLE
  2
DIMSTYLE
  5
A
330
0
100
AcDbSymbolTable
 70
     1
100
AcDbDimStyleTable
  0
DIMSTYLE
105
27
330
A
100
AcDbSymbolTableRecord
100
AcDbDimStyleTableRecord
  2
ISO-25
 70
     0
 41
2.5
 42
0.625
 43
3.75
 44
1.25
 73
     0
 74
     0
 77
     1
 78
     8
140
2.5
141
2.5
143
0.0393700787
147
0.625
171
     3
172
     1
178
     0
271
     2
272
     2
274
     3
278
    44
283
     0
284
     8
340
11
  0
ENDTAB
  0
TABLE
  2
BLOCK_RECORD
  5
1
330
0
100
AcDbSymbolTable
 70
    12
  0
BLOCK_RECORD
  5
1F
330
1
100
AcDbSymbolTableRecord
100
AcDbBlockTableRecord
  2
*Model_Space
340
22
  0
BLOCK_RECORD
  5
1B
330
1
100
AcDbSymbolTableRecord
100
AcDbBlockTableRecord
  2
*Paper_Space
340
1E
  0
BLOCK_RECORD
  5
40
330
1
100
AcDbSymbolTableRecord
100
AcDbBlockTableRecord
  2
SE
340
0
102
{BLKREFS
331
41
102
}
  0
BLOCK_RECORD
  5
EC
330
1
100
AcDbSymbolTableRecord
100
AcDbBlockTableRecord
  2
SE1
340
0
102
{BLKREFS
331
ED
102
}
  0
BLOCK_RECORD
  5
F4
330
1
100
AcDbSymbolTableRecord
100
AcDbBlockTableRecord
  2
GDimGGroup
340
0
102
{BLKREFS
331
F5
102
}
  0
BLOCK_RECORD
  5
FF
330
1
100
AcDbSymbolTableRecord
100
AcDbBlockTableRecord
  2
GDimGGroup1
340
0
102
{BLKREFS
331
100
102
}
  0
BLOCK_RECORD
  5
109
330
1
100
AcDbSymbolTableRecord
100
AcDbBlockTableRecord
  2
GDimGGroup2
340
0
102
{BLKREFS
331
10A
102
}
  0
BLOCK_RECORD
  5
113
330
1
100
AcDbSymbolTableRecord
100
AcDbBlockTableRecord
  2
SEANNOT_GROUP
340
0
102
{BLKREFS
331
170
102
}
  0
BLOCK_RECORD
  5
118
330
1
100
AcDbSymbolTableRecord
100
AcDbBlockTableRecord
  2
SEANNOT_GROUP1
340
0
102
{BLKREFS
331
171
102
}
  0
BLOCK_RECORD
  5
11D
330
1
100
AcDbSymbolTableRecord
100
AcDbBlockTableRecord
  2
SEANNOT_GROUP2
340
0
102
{BLKREFS
331
173
102
}
  0
BLOCK_RECORD
  5
121
330
1
100
AcDbSymbolTableRecord
100
AcDbBlockTableRecord
  2
SEANNOT_GROUP3
340
0
102
{BLKREFS
331
174
102
}
  0
BLOCK_RECORD
  5
125
330
1
100
AcDbSymbolTableRecord
100
AcDbBlockTableRecord
  2
Block1
340
0
102
{BLKREFS
331
175
102
}
  0
BLOCK_RECORD
  5
16D
330
1
100
AcDbSymbolTableRecord
100
AcDbBlockTableRecord
  2
RF-Massblatt_2016
340
0
102
{BLKREFS
331
178
102
}
  0
ENDTAB
  0
ENDSEC
  0
SECTION
  2
BLOCKS
  0
BLOCK
  5
20
330
1F
100
AcDbEntity
  8
0
100
AcDbBlockBegin
  2
*Model_Space
 70
     0
 10
0.0
 20
0.0
 30
0.0
  3
*Model_Space
  1

  0
ENDBLK
  5
21
330
1F
100
AcDbEntity
  8
0
100
AcDbBlockEnd
  0
BLOCK
  5
1C
330
1B
100
AcDbEntity
 67
     1
  8
0
100
AcDbBlockBegin
  2
*Paper_Space
 70
     0
 10
0.0
 20
0.0
 30
0.0
  3
*Paper_Space
  1

  0
ENDBLK
  5
1D
330
1B
100
AcDbEntity
 67
     1
  8
0
100
AcDbBlockEnd
  0
BLOCK
  5
EA
330
40
100
AcDbEntity
  8
0
100
AcDbBlockBegin
  2
SE
 70
     0
 10
0.0
 20
0.0
 30
0.0
  3
SE
  1

  0
LINE
  5
43
330
40
100
AcDbEntity
  8
0012874
  6
Continuous
 62
     7
100
AcDbLine
 10
47.7286415316
 20
118.0244842385
 30
0.0
 11
257.7286415316
 21
118.0244842385
 31
0.0
  0
LINE
  5
44
330
40
100
AcDbEntity
  8
0012874
  6
Continuous
 62
     7
100
AcDbLine
 10
257.7286415316
 20
118.0244842385
 30
0.0
 11
257.7286415316
 21
148.0244842385
 31
0.0
  0
LINE
  5
45
330
40
100
AcDbEntity
  8
0012874
  6
Continuous
 62
     7
100
AcDbLine
 10
257.7286415316
 20
148.0244842385
 30
0.0
 11
47.7286415316
 21
148.0244842385
 31
0.0
  0
LINE
  5
46
330
40
100
AcDbEntity
  8
0012874
  6
Continuous
 62
     7
100
AcDbLine
 10
47.7286415316
 20
148.0244842385
 30
0.0
 11
47.7286415316
 21
118.0244842385
 31
0.0
  0
ARC
  5
47
330
40
100
AcDbEntity
  8
0012874
  6
Continuous
 62
     7
100
AcDbCircle
 10
55.8286415316
 20
144.0244842385
 30
0.0
 40
2.100000000000018
100
AcDbArc
 50
0.0
 51
180.0
  0
LINE
  5
48
330
40
100
AcDbEntity
  8
0012874
  6
Continuous
 62
     7
100
AcDbLine
 10
53.7286415316
 20
144.0244842385
 30
0.0
 11
53.7286415316
 21
133.2244842385
 31
0.0
  0
ARC
  5
49
330
40
100
AcDbEntity
  8
0012874
  6
Continuous
 62
     7
100
AcDbCircle
 10
55.8286415316
 20
133.2244842385
 30
0.0
 40
2.100000000000005
100
AcDbArc
 50
180.0
 51
0.0
  0
LINE
  5
4A
330
40
100
AcDbEntity
  8
0012874
  6
Continuous
 62
     7
100
AcDbLine
 10
57.9286415316
 20
133.2244842385
 30
0.0
 11
57.9286415316
 21
144.0244842385
 31
0.0
  0
ARC
  5
4B
330
40
100
AcDbEntity
  8
0012874
  6
Continuous
 62
     7
100
AcDbCircle
 10
76.2286415316
 20
144.0244842385
 30
0.0
 40
2.100000000000018
100
AcDbArc
 50
0.0
 51
180.0
  0
LINE
  5
4C
330
40
100
AcDbEntity
  8
0012874
  6
Continuous
 62
     7
100
AcDbLine
 10
74.1286415316
 20
144.0244842385
 30
0.0
 11
74.1286415316
 21
133.2244842385
 31
0.0
  0
ARC
  5
4D
330
40
100
AcDbEntity
  8
0012874
  6
Continuous
 62
     7
100
AcDbCircle
 10
76.2286415316
 20
133.2244842385
 30
0.0
 40
2.100000000000005
100
AcDbArc
 50
180.0
 51
0.0
  0
LINE
  5
4E
330
40
100
AcDbEntity
  8
0012874
  6
Continuous
 62
     7
100
AcDbLine
 10
78.3286415316
 20
133.2244842385
 30
0.0
 11
78.3286415316
 21
144.0244842385
 31
0.0
  0
ARC
  5
4F
330
40
100
AcDbEntity
  8
0012874
  6
Continuous
 62
     7
100
AcDbCircle
 10
86.4286415316
 20
144.0244842385
 30
0.0
 40
2.099999999999991
100
AcDbArc
 50
0.0
 51
180.0
  0
LINE
  5
50
330
40
100
AcDbEntity
  8
0012874
  6
Continuous
 62
     7
100
AcDbLine
 10
84.3286415316
 20
144.0244842385
 30
0.0
 11
84.3286415316
 21
133.2244842385
 31
0.0
  0
ARC
  5
51
330
40
100
AcDbEntity
  8
0012874
  6
Continuous
 62
     7
100
AcDbCircle
 10
86.4286415316
 20
133.2244842385
 30
0.0
 40
2.100000000000005
100
AcDbArc
 50
180.0
 51
0.0
  0
LINE
  5
52
330
40
100
AcDbEntity
  8
0012874
  6
Continuous
 62
     7
100
AcDbLine
 10
88.5286415316
 20
133.2244842385
 30
0.0
 11
88.5286415316
 21
144.0244842385
 31
0.0
  0
ARC
  5
53
330
40
100
AcDbEntity
  8
0012874
  6
Continuous
 62
     7
100
AcDbCircle
 10
96.6286415316
 20
144.0244842385
 30
0.0
 40
2.099999999999991
100
AcDbArc
 50
0.0
 51
180.0
  0
LINE
  5
54
330
40
100
AcDbEntity
  8
0012874
  6
Continuous
 62
     7
100
AcDbLine
 10
94.5286415316
 20
144.0244842385
 30
0.0
 11
94.5286415316
 21
133.2244842385
 31
0.0
  0
ARC
  5
55
330
40
100
AcDbEntity
  8
0012874
  6
Continuous
 62
     7
100
AcDbCircle
 10
96.6286415316
 20
133.2244842385
 30
0.0
 40
2.099999999999998
100
AcDbArc
 50
180.0
 51
0.0
  0
LINE
  5
56
330
40
100
AcDbEntity
  8
0012874
  6
Continuous
 62
     7
100
AcDbLine
 10
98.7286415316
 20
133.2244842385
 30
0.0
 11
98.7286415316
 21
144.0244842385
 31
0.0
  0
ARC
  5
57
330
40
100
AcDbEntity
  8
0012874
  6
Continuous
 62
     7
100
AcDbCircle
 10
106.8286415316
 20
144.0244842385
 30
0.0
 40
2.099999999999998
100
AcDbArc
 50
0.0
 51
180.0
  0
LINE
  5
58
330
40
100
AcDbEntity
  8
0012874
  6
Continuous
 62
     7
100
AcDbLine
 10
104.7286415316
 20
144.0244842385
 30
0.0
 11
104.7286415316
 21
133.2244842385
 31
0.0
  0
ARC
  5
59
330
40
100
AcDbEntity
  8
0012874
  6
Continuous
 62
     7
100
AcDbCircle
 10
106.8286415316
 20
133.2244842385
 30
0.0
 40
2.099999999999998
100
AcDbArc
 50
180.0
 51
0.0
  0
LINE
  5
5A
330
40
100
AcDbEntity
  8
0012874
  6
Continuous
 62
     7
100
AcDbLine
 10
108.9286415316
 20
133.2244842385
 30
0.0
 11
108.9286415316
 21
144.0244842385
 31
0.0
  0
ARC
  5
5B
330
40
100
AcDbEntity
  8
0012874
  6
Continuous
 62
     7
100
AcDbCircle
 10
117.0286415316
 20
144.0244842385
 30
0.0
 40
2.099999999999991
100
AcDbArc
 50
0.0
 51
180.0
  0
LINE
  5
5C
330
40
100
AcDbEntity
  8
0012874
  6
Continuous
 62
     7
100
AcDbLine
 10
114.9286415316
 20
144.0244842385
 30
0.0
 11
114.9286415316
 21
133.2244842385
 31
0.0
  0
ARC
  5
5D
330
40
100
AcDbEntity
  8
0012874
  6
Continuous
 62
     7
100
AcDbCircle
 10
117.0286415316
 20
133.2244842385
 30
0.0
 40
2.099999999999998
100
AcDbArc
 50
180.0
 51
0.0
  0
LINE
  5
5E
330
40
100
AcDbEntity
  8
0012874
  6
Continuous
 62
     7
100
AcDbLine
 10
119.1286415316
 20
133.2244842385
 30
0.0
 11
119.1286415316
 21
144.0244842385
 31
0.0
  0
ARC
  5
5F
330
40
100
AcDbEntity
  8
0012874
  6
Continuous
 62
     7
100
AcDbCircle
 10
127.2286415316
 20
144.0244842385
 30
0.0
 40
2.100000000000001
100
AcDbArc
 50
0.0
 51
180.0
  0
LINE
  5
60
330
40
100
AcDbEntity
  8
0012874
  6
Continuous
 62
     7
100
AcDbLine
 10
125.1286415316
 20
144.0244842385
 30
0.0
 11
125.1286415316
 21
133.2244842385
 31
0.0
  0
ARC
  5
61
330
40
100
AcDbEntity
  8
0012874
  6
Continuous
 62
     7
100
AcDbCircle
 10
127.2286415316
 20
133.2244842385
 30
0.0
 40
2.100000000000001
100
AcDbArc
 50
180.0
 51
0.0
  0
LINE
  5
62
330
40
100
AcDbEntity
  8
0012874
  6
Continuous
 62
     7
100
AcDbLine
 10
129.3286415316
 20
133.2244842385
 30
0.0
 11
129.3286415316
 21
144.0244842385
 31
0.0
  0
ARC
  5
63
330
40
100
AcDbEntity
  8
0012874
  6
Continuous
 62
     7
100
AcDbCircle
 10
137.4286415316
 20
144.0244842385
 30
0.0
 40
2.1
100
AcDbArc
 50
0.0
 51
180.0
  0
LINE
  5
64
330
40
100
AcDbEntity
  8
0012874
  6
Continuous
 62
     7
100
AcDbLine
 10
135.3286415316
 20
144.0244842385
 30
0.0
 11
135.3286415316
 21
133.2244842385
 31
0.0
  0
ARC
  5
65
330
40
100
AcDbEntity
  8
0012874
  6
Continuous
 62
     7
100
AcDbCircle
 10
137.4286415316
 20
133.2244842385
 30
0.0
 40
2.100000000000005
100
AcDbArc
 50
180.0
 51
0.0
  0
LINE
  5
66
330
40
100
AcDbEntity
  8
0012874
  6
Continuous
 62
     7
100
AcDbLine
 10
139.5286415316
 20
133.2244842385
 30
0.0
 11
139.5286415316
 21
144.0244842385
 31
0.0
  0
ARC
  5
67
330
40
100
AcDbEntity
  8
0012874
  6
Continuous
 62
     7
100
AcDbCircle
 10
147.6286415316
 20
144.0244842385
 30
0.0
 40
2.1
100
AcDbArc
 50
0.0
 51
180.0
  0
LINE
  5
68
330
40
100
AcDbEntity
  8
0012874
  6
Continuous
 62
     7
100
AcDbLine
 10
145.5286415316
 20
144.0244842385
 30
0.0
 11
145.5286415316
 21
133.2244842385
 31
0.0
  0
ARC
  5
69
330
40
100
AcDbEntity
  8
0012874
  6
Continuous
 62
     7
100
AcDbCircle
 10
147.6286415316
 20
133.2244842385
 30
0.0
 40
2.100000000000001
100
AcDbArc
 50
180.0
 51
0.0
  0
LINE
  5
6A
330
40
100
AcDbEntity
  8
0012874
  6
Continuous
 62
     7
100
AcDbLine
 10
149.7286415316
 20
133.2244842385
 30
0.0
 11
149.7286415316
 21
144.0244842385
 31
0.0
  0
ARC
  5
6B
330
40
100
AcDbEntity
  8
0012874
  6
Continuous
 62
     7
100
AcDbCircle
 10
157.8286415316
 20
144.0244842385
 30
0.0
 40
2.1
100
AcDbArc
 50
0.0
 51
180.0
  0
LINE
  5
6C
330
40
100
AcDbEntity
  8
0012874
  6
Continuous
 62
     7
100
AcDbLine
 10
155.7286415316
 20
144.0244842385
 30
0.0
 11
155.7286415316
 21
133.2244842385
 31
0.0
  0
ARC
  5
6D
330
40
100
AcDbEntity
  8
0012874
  6
Continuous
 62
     7
100
AcDbCircle
 10
157.8286415316
 20
133.2244842385
 30
0.0
 40
2.100000000000001
100
AcDbArc
 50
180.0
 51
0.0
  0
LINE
  5
6E
330
40
100
AcDbEntity
  8
0012874
  6
Continuous
 62
     7
100
AcDbLine
 10
159.9286415316
 20
133.2244842385
 30
0.0
 11
159.9286415316
 21
144.0244842385
 31
0.0
  0
ARC
  5
6F
330
40
100
AcDbEntity
  8
0012874
  6
Continuous
 62
     7
100
AcDbCircle
 10
168.0286415316
 20
144.0244842385
 30
0.0
 40
2.099999999999998
100
AcDbArc
 50
0.0
 51
180.0
  0
LINE
  5
70
330
40
100
AcDbEntity
  8
0012874
  6
Continuous
 62
     7
100
AcDbLine
 10
165.9286415316
 20
144.0244842385
 30
0.0
 11
165.9286415316
 21
133.2244842385
 31
0.0
  0
ARC
  5
71
330
40
100
AcDbEntity
  8
0012874
  6
Continuous
 62
     7
100
AcDbCircle
 10
168.0286415316
 20
133.2244842385
 30
0.0
 40
2.100000000000003
100
AcDbArc
 50
180.0
 51
0.0
  0
LINE
  5
72
330
40
100
AcDbEntity
  8
0012874
  6
Continuous
 62
     7
100
AcDbLine
 10
170.1286415316
 20
133.2244842385
 30
0.0
 11
170.1286415316
 21
144.0244842385
 31
0.0
  0
ARC
  5
73
330
40
100
AcDbEntity
  8
0012874
  6
Continuous
 62
     7
100
AcDbCircle
 10
178.2286415316
 20
144.0244842385
 30
0.0
 40
2.100000000000001
100
AcDbArc
 50
0.0
 51
180.0
  0
LINE
  5
74
330
40
100
AcDbEntity
  8
0012874
  6
Continuous
 62
     7
100
AcDbLine
 10
176.1286415316
 20
144.0244842385
 30
0.0
 11
176.1286415316
 21
133.2244842385
 31
0.0
  0
ARC
  5
75
330
40
100
AcDbEntity
  8
0012874
  6
Continuous
 62
     7
100
AcDbCircle
 10
178.2286415316
 20
133.2244842385
 30
0.0
 40
2.100000000000001
100
AcDbArc
 50
180.0
 51
0.0
  0
LINE
  5
76
330
40
100
AcDbEntity
  8
0012874
  6
Continuous
 62
     7
100
AcDbLine
 10
180.3286415316
 20
133.2244842385
 30
0.0
 11
180.3286415316
 21
144.0244842385
 31
0.0
  0
ARC
  5
77
330
40
100
AcDbEntity
  8
0012874
  6
Continuous
 62
     7
100
AcDbCircle
 10
188.4286415316
 20
144.0244842385
 30
0.0
 40
2.099999999999998
100
AcDbArc
 50
0.0
 51
180.0
  0
LINE
  5
78
330
40
100
AcDbEntity
  8
0012874
  6
Continuous
 62
     7
100
AcDbLine
 10
186.3286415316
 20
144.0244842385
 30
0.0
 11
186.3286415316
 21
133.2244842385
 31
0.0
  0
ARC
  5
79
330
40
100
AcDbEntity
  8
0012874
  6
Continuous
 62
     7
100
AcDbCircle
 10
188.4286415316
 20
133.2244842385
 30
0.0
 40
2.099999999999998
100
AcDbArc
 50
180.0
 51
0.0
  0
LINE
  5
7A
330
40
100
AcDbEntity
  8
0012874
  6
Continuous
 62
     7
100
AcDbLine
 10
190.5286415316
 20
133.2244842385
 30
0.0
 11
190.5286415316
 21
144.0244842385
 31
0.0
  0
ARC
  5
7B
330
40
100
AcDbEntity
  8
0012874
  6
Continuous
 62
     7
100
AcDbCircle
 10
198.6286415316
 20
144.0244842385
 30
0.0
 40
2.099999999999998
100
AcDbArc
 50
0.0
 51
180.0
  0
LINE
  5
7C
330
40
100
AcDbEntity
  8
0012874
  6
Continuous
 62
     7
100
AcDbLine
 10
196.5286415316
 20
144.0244842385
 30
0.0
 11
196.5286415316
 21
133.2244842385
 31
0.0
  0
ARC
  5
7D
330
40
100
AcDbEntity
  8
0012874
  6
Continuous
 62
     7
100
AcDbCircle
 10
198.6286415316
 20
133.2244842385
 30
0.0
 40
2.099999999999998
100
AcDbArc
 50
180.0
 51
0.0
  0
LINE
  5
7E
330
40
100
AcDbEntity
  8
0012874
  6
Continuous
 62
     7
100
AcDbLine
 10
200.7286415316
 20
133.2244842385
 30
0.0
 11
200.7286415316
 21
144.0244842385
 31
0.0
  0
ARC
  5
7F
330
40
100
AcDbEntity
  8
0012874
  6
Continuous
 62
     7
100
AcDbCircle
 10
208.8286415316
 20
144.0244842385
 30
0.0
 40
2.099999999999998
100
AcDbArc
 50
0.0
 51
180.0
  0
LINE
  5
80
330
40
100
AcDbEntity
  8
0012874
  6
Continuous
 62
     7
100
AcDbLine
 10
206.7286415316
 20
144.0244842385
 30
0.0
 11
206.7286415316
 21
133.2244842385
 31
0.0
  0
ARC
  5
81
330
40
100
AcDbEntity
  8
0012874
  6
Continuous
 62
     7
100
AcDbCircle
 10
208.8286415316
 20
133.2244842385
 30
0.0
 40
2.099999999999998
100
AcDbArc
 50
180.0
 51
0.0
  0
LINE
  5
82
330
40
100
AcDbEntity
  8
0012874
  6
Continuous
 62
     7
100
AcDbLine
 10
210.9286415316
 20
133.2244842385
 30
0.0
 11
210.9286415316
 21
144.0244842385
 31
0.0
  0
ARC
  5
83
330
40
100
AcDbEntity
  8
0012874
  6
Continuous
 62
     7
100
AcDbCircle
 10
219.0286415316
 20
144.0244842385
 30
0.0
 40
2.100000000000018
100
AcDbArc
 50
0.0
 51
180.0
  0
LINE
  5
84
330
40
100
AcDbEntity
  8
0012874
  6
Continuous
 62
     7
100
AcDbLine
 10
216.9286415316
 20
144.0244842385
 30
0.0
 11
216.9286415316
 21
133.2244842385
 31
0.0
  0
ARC
  5
85
330
40
100
AcDbEntity
  8
0012874
  6
Continuous
 62
     7
100
AcDbCircle
 10
219.0286415316
 20
133.2244842385
 30
0.0
 40
2.100000000000005
100
AcDbArc
 50
180.0
 51
0.0
  0
LINE
  5
86
330
40
100
AcDbEntity
  8
0012874
  6
Continuous
 62
     7
100
AcDbLine
 10
221.1286415316
 20
133.2244842385
 30
0.0
 11
221.1286415316
 21
144.0244842385
 31
0.0
  0
ARC
  5
87
330
40
100
AcDbEntity
  8
0012874
  6
Continuous
 62
     7
100
AcDbCircle
 10
229.2286415316
 20
144.0244842385
 30
0.0
 40
2.099999999999991
100
AcDbArc
 50
0.0
 51
180.0
  0
LINE
  5
88
330
40
100
AcDbEntity
  8
0012874
  6
Continuous
 62
     7
100
AcDbLine
 10
227.1286415316
 20
144.0244842385
 30
0.0
 11
227.1286415316
 21
133.2244842385
 31
0.0
  0
ARC
  5
89
330
40
100
AcDbEntity
  8
0012874
  6
Continuous
 62
     7
100
AcDbCircle
 10
229.2286415316
 20
133.2244842385
 30
0.0
 40
2.100000000000005
100
AcDbArc
 50
180.0
 51
0.0
  0
LINE
  5
8A
330
40
100
AcDbEntity
  8
0012874
  6
Continuous
 62
     7
100
AcDbLine
 10
231.3286415316
 20
133.2244842385
 30
0.0
 11
231.3286415316
 21
144.0244842385
 31
0.0
  0
ARC
  5
8B
330
40
100
AcDbEntity
  8
0012874
  6
Continuous
 62
     7
100
AcDbCircle
 10
239.4286415316
 20
144.0244842385
 30
0.0
 40
2.100000000000018
100
AcDbArc
 50
0.0
 51
180.0
  0
LINE
  5
8C
330
40
100
AcDbEntity
  8
0012874
  6
Continuous
 62
     7
100
AcDbLine
 10
237.3286415316
 20
144.0244842385
 30
0.0
 11
237.3286415316
 21
133.2244842385
 31
0.0
  0
ARC
  5
8D
330
40
100
AcDbEntity
  8
0012874
  6
Continuous
 62
     7
100
AcDbCircle
 10
239.4286415316
 20
133.2244842385
 30
0.0
 40
2.100000000000005
100
AcDbArc
 50
180.0
 51
0.0
  0
LINE
  5
8E
330
40
100
AcDbEntity
  8
0012874
  6
Continuous
 62
     7
100
AcDbLine
 10
241.5286415316
 20
133.2244842385
 30
0.0
 11
241.5286415316
 21
144.0244842385
 31
0.0
  0
ARC
  5
8F
330
40
100
AcDbEntity
  8
0012874
  6
Continuous
 62
     7
100
AcDbCircle
 10
249.6286415316
 20
144.0244842385
 30
0.0
 40
2.100000000000005
100
AcDbArc
 50
0.0
 51
180.0
  0
LINE
  5
90
330
40
100
AcDbEntity
  8
0012874
  6
Continuous
 62
     7
100
AcDbLine
 10
247.5286415316
 20
144.0244842385
 30
0.0
 11
247.5286415316
 21
133.2244842385
 31
0.0
  0
ARC
  5
91
330
40
100
AcDbEntity
  8
0012874
  6
Continuous
 62
     7
100
AcDbCircle
 10
249.6286415316
 20
133.2244842385
 30
0.0
 40
2.100000000000005
100
AcDbArc
 50
180.0
 51
0.0
  0
LINE
  5
92
330
40
100
AcDbEntity
  8
0012874
  6
Continuous
 62
     7
100
AcDbLine
 10
251.7286415316
 20
133.2244842385
 30
0.0
 11
251.7286415316
 21
144.0244842385
 31
0.0
  0
ARC
  5
93
330
40
100
AcDbEntity
  8
0012874
  6
Continuous
 62
     7
100
AcDbCircle
 10
66.0286415316
 20
144.0244842385
 30
0.0
 40
2.100000000000018
100
AcDbArc
 50
0.0
 51
180.0
  0
LINE
  5
94
330
40
100
AcDbEntity
  8
0012874
  6
Continuous
 62
     7
100
AcDbLine
 10
63.9286415316
 20
144.0244842385
 30
0.0
 11
63.9286415316
 21
133.2244842385
 31
0.0
  0
ARC
  5
95
330
40
100
AcDbEntity
  8
0012874
  6
Continuous
 62
     7
100
AcDbCircle
 10
66.0286415316
 20
133.2244842385
 30
0.0
 40
2.100000000000005
100
AcDbArc
 50
180.0
 51
0.0
  0
LINE
  5
96
330
40
100
AcDbEntity
  8
0012874
  6
Continuous
 62
     7
100
AcDbLine
 10
68.1286415316
 20
133.2244842385
 30
0.0
 11
68.1286415316
 21
144.0244842385
 31
0.0
  0
SPLINE
  5
97
330
40
100
AcDbEntity
  8
0012874
  6
Continuous
 62
     7
100
AcDbSpline
210
0.0
220
0.0
230
1.0
 70
     8
 71
     3
 72
    18
 73
    14
 74
     0
 42
0.0000000060431638
 43
0.0000000001
 12
1.0
 22
0.0
 32
0.0
 13
1.0
 23
0.0
 33
0.0
 40
0.0
 40
0.0
 40
0.0
 40
0.0
 40
0.1061263437799097
 40
0.1061263437799097
 40
0.1786028712393579
 40
0.1786028712393579
 40
0.1786028712393579
 40
0.2965228557723064
 40
0.2965228557723064
 40
0.3769228452265898
 40
0.3769228452265898
 40
0.3769228452265898
 40
1.0
 40
1.0
 40
1.0
 40
1.0
 10
66.05529051398534
 20
123.1366315282567
 30
0.0
 10
66.00192297068836
 20
123.1249573781605
 30
0.0
 10
65.94021674875123
 20
123.1182864352484
 30
0.0
 10
65.82514298351711
 20
123.1182864352484
 30
0.0
 10
65.78845279750043
 20
123.1266251138885
 30
0.0
 10
65.76843996876406
 20
123.1466379426249
 30
0.0
 10
65.74842714002769
 20
123.1666507713613
 30
0.0
 10
65.73675298993145
 20
123.1950022787378
 30
0.0
 10
65.73675298993145
 20
123.2567085006749
 30
0.0
 10
65.74995177441895
 20
123.3334542459362
 30
0.0
 10
65.7767786474042
 20
123.4618399952227
 30
0.0
 10
65.84682354798149
 20
123.7970548765569
 30
0.0
 10
65.91686844855879
 20
124.1322697578911
 30
0.0
 10
65.98691334913609
 20
124.4674846392253
 30
0.0
  0
LINE
  5
98
330
40
100
AcDbEntity
  8
0012874
  6
Continuous
 62
     7
100
AcDbLine
 10
65.9869133491
 20
124.4674846392
 30
0.0
 11
66.2887735159
 21
124.4674846392
 31
0.0
  0
LINE
  5
99
330
40
100
AcDbEntity
  8
0012874
  6
Continuous
 62
     7
100
AcDbLine
 10
66.2887735159
 20
124.4674846392
 30
0.0
 11
66.3388055878
 21
124.7059708483
 31
0.0
  0
LINE
  5
9A
330
40
100
AcDbEntity
  8
0012874
  6
Continuous
 62
     7
100
AcDbLine
 10
66.3388055878
 20
124.7059708483
 30
0.0
 11
66.0352776852
 21
124.7059708483
 31
0.0
  0
LINE
  5
9B
330
40
100
AcDbEntity
  8
0012874
  6
Continuous
 62
     7
100
AcDbLine
 10
66.0352776852
 20
124.7059708483
 30
0.0
 11
66.1720320149
 21
125.3613909894
 31
0.0
  0
LINE
  5
9C
330
40
100
AcDbEntity
  8
0012874
  6
Continuous
 62
     7
100
AcDbLine
 10
66.1720320149
 20
125.3613909894
 30
0.0
 11
65.8201397763
 21
125.149588552
 31
0.0
  0
LINE
  5
9D
330
40
100
AcDbEntity
  8
0012874
  6
Continuous
 62
     7
100
AcDbLine
 10
65.8201397763
 20
125.149588552
 30
0.0
 11
65.7284143113
 21
124.7059708483
 31
0.0
  0
LINE
  5
9E
330
40
100
AcDbEntity
  8
0012874
  6
Continuous
 62
     7
100
AcDbLine
 10
65.7284143113
 20
124.7059708483
 30
0.0
 11
65.4832571593
 21
124.7059708483
 31
0.0
  0
LINE
  5
9F
330
40
100
AcDbEntity
  8
0012874
  6
Continuous
 62
     7
100
AcDbLine
 10
65.4832571593
 20
124.7059708483
 30
0.0
 11
65.4348928232
 21
124.4674846392
 31
0.0
  0
LINE
  5
A0
330
40
100
AcDbEntity
  8
0012874
  6
Continuous
 62
     7
100
AcDbLine
 10
65.4348928232
 20
124.4674846392
 30
0.0
 11
65.6783822395
 21
124.4674846392
 31
0.0
  0
SPLINE
  5
A1
330
40
100
AcDbEntity
  8
0012874
  6
Continuous
 62
     7
100
AcDbSpline
210
0.0
220
0.0
230
1.0
 70
     8
 71
     3
 72
    18
 73
    14
 74
     0
 42
0.0000000047232998
 43
0.0000000001
 12
1.0
 22
0.0
 32
0.0
 13
1.0
 23
0.0
 33
0.0
 40
0.0
 40
0.0
 40
0.0
 40
0.0
 40
0.514382584401152
 40
0.514382584401152
 40
0.514382584401152
 40
0.5900999866621458
 40
0.5900999866621458
 40
0.7481189131198724
 40
0.7481189131198724
 40
0.7481189131198724
 40
0.908008646530736
 40
0.908008646530736
 40
1.0
 40
1.0
 40
1.0
 40
1.0
 10
65.67838223945039
 20
124.4674846392253
 30
0.0
 10
65.60500186741703
 20
124.1144805767921
 30
0.0
 10
65.52815639554224
 20
123.7621614759555
 30
0.0
 10
65.45824112335033
 20
123.4084724519257
 30
0.0
 10
65.42988961597379
 20
123.2650471793151
 30
0.0
 10
65.41487999442153
 20
123.1716539785454
 30
0.0
 10
65.41487999442153
 20
123.0532447418552
 30
0.0
 10
65.4412583238508
 20
122.9911736861562
 30
0.0
 10
65.49659904509502
 20
122.9448419195332
 30
0.0
 10
65.56831168140035
 20
122.8848034333241
 30
0.0
 10
65.66670808935419
 20
122.8547841902195
 30
0.0
 10
65.85849769807773
 20
122.8547841902195
 30
0.0
 10
65.93021033438303
 20
122.8647906045877
 30
0.0
 10
66.0035907064164
 20
122.8848034333241
 30
0.0
  0
LINE
  5
A2
330
40
100
AcDbEntity
  8
0012874
  6
Continuous
 62
     7
100
AcDbLine
 10
66.0035907064
 20
122.8848034333
 30
0.0
 11
66.055290514
 21
123.1366315283
 31
0.0
  0
LINE
  5
A3
330
40
100
AcDbEntity
  8
0012874
  6
Continuous
 62
     7
100
AcDbLine
 10
55.3096851279
 20
123.3551438005
 30
0.0
 11
55.3096851279
 21
121.2690308437
 31
0.0
  0
LINE
  5
A4
330
40
100
AcDbEntity
  8
0012874
  6
Continuous
 62
     7
100
AcDbLine
 10
55.3096851279
 20
121.2690308437
 30
0.0
 11
54.6851004103
 21
121.2690308437
 31
0.0
  0
LINE
  5
A5
330
40
100
AcDbEntity
  8
0012874
  6
Continuous
 62
     7
100
AcDbLine
 10
54.6851004103
 20
121.2690308437
 30
0.0
 11
54.6851004103
 21
125.9690308437
 31
0.0
  0
SPLINE
  5
A6
330
40
100
AcDbEntity
  8
0012874
  6
Continuous
 62
     7
100
AcDbSpline
210
0.0
220
0.0
230
1.0
 70
     8
 71
     3
 72
    21
 73
    17
 74
     0
 42
0.0000000015120033
 43
0.0000000001
 12
1.0
 22
0.0
 32
0.0
 13
1.0
 23
0.0
 33
0.0
 40
0.0
 40
0.0
 40
0.0
 40
0.0
 40
0.3188524755255804
 40
0.3188524755255804
 40
0.3188524755255804
 40
0.4466871992896583
 40
0.4466871992896583
 40
0.5745219230537378
 40
0.5745219230537378
 40
0.5745219230537378
 40
0.6851965081129122
 40
0.6851965081129122
 40
0.8296133447145184
 40
0.8296133447145184
 40
0.8296133447145184
 40
1.0
 40
1.0
 40
1.0
 40
1.0
 10
54.68510041026745
 20
125.9690308436719
 30
0.0
 10
55.38047139587099
 20
125.9690308436719
 30
0.0
 10
56.07584238147453
 20
125.9690308436719
 30
0.0
 10
56.77121336707808
 20
125.9690308436719
 30
0.0
 10
57.18968512787542
 20
125.9690308436719
 30
0.0
 10
57.5082233338555
 20
125.9284328370274
 30
0.0
 10
57.94543263618107
 20
125.7597949632733
 30
0.0
 10
58.12031635711129
 20
125.6098946310474
 30
0.0
 10
58.25147914780898
 20
125.3944129034726
 30
0.0
 10
58.38125492968549
 20
125.1812098332469
 30
0.0
 10
58.44822333385549
 20
124.9447119067949
 30
0.0
 10
58.44822333385549
 20
124.3544793486553
 30
0.0
 10
58.33892100827409
 20
124.0734162257317
 30
0.0
 10
58.12343928069932
 20
123.8454428038048
 30
0.0
 10
57.90639856738494
 20
123.6158200201534
 30
0.0
 10
57.57380472920431
 20
123.4706919732401
 30
0.0
 10
57.12098080893854
 20
123.4082335014793
 30
0.0
  0
SPLINE
  5
A7
330
40
100
AcDbEntity
  8
0012874
  6
Continuous
 62
     7
100
AcDbSpline
210
0.0
220
0.0
230
1.0
 70
     8
 71
     3
 72
    14
 73
    10
 74
     0
 42
0.0000000045750909
 43
0.0000000001
 12
1.0
 22
0.0
 32
0.0
 13
1.0
 23
0.0
 33
0.0
 40
0.0
 40
0.0
 40
0.0
 40
0.0
 40
0.2031950052268714
 40
0.2031950052268714
 40
0.2031950052268714
 40
0.575352570870767
 40
0.575352570870767
 40
0.575352570870767
 40
1.0
 40
1.0
 40
1.0
 40
1.0
 10
57.12098080893854
 20
123.4082335014793
 30
0.0
 10
57.28649575910466
 20
123.3301604117783
 30
0.0
 10
57.41141270262626
 20
123.2489643984892
 30
0.0
 10
57.49573163950333
 20
123.1740142323763
 30
0.0
 10
57.6806517907234
 20
123.0096407646251
 30
0.0
 10
57.84862200495184
 20
122.7961404782234
 30
0.0
 10
58.01101403152989
 20
122.5494295147683
 30
0.0
 10
58.18079498607917
 20
122.2914930645877
 30
0.0
 10
58.34577320407919
 20
122.0303953194632
 30
0.0
 10
58.51034619662477
 20
121.7690308436719
 30
0.0
  0
LINE
  5
A8
330
40
100
AcDbEntity
  8
0012874
  6
Continuous
 62
     7
100
AcDbLine
 10
70.5200316894
 20
121.2690308437
 30
0.0
 11
58.0484891146
 21
121.2690308437
 31
0.0
  0
LINE
  5
A9
330
40
100
AcDbEntity
  8
0012874
  6
Continuous
 62
     7
100
AcDbLine
 10
55.3096851279
 20
125.4506255281
 30
0.0
 11
55.3096851279
 21
123.8922866576
 31
0.0
  0
SPLINE
  5
AA
330
40
100
AcDbEntity
  8
0012874
  6
Continuous
 62
     7
100
AcDbSpline
210
0.0
220
0.0
230
1.0
 70
     8
 71
     3
 72
    25
 73
    21
 74
     0
 42
0.0000000016937385
 43
0.0000000001
 12
1.0
 22
0.0
 32
0.0
 13
1.0
 23
0.0
 33
0.0
 40
0.0
 40
0.0
 40
0.0
 40
0.0
 40
0.2284802880085945
 40
0.2284802880085945
 40
0.2284802880085945
 40
0.3442035663753351
 40
0.3442035663753351
 40
0.3442035663753351
 40
0.424907704947
 40
0.424907704947
 40
0.424907704947
 40
0.4990904865566665
 40
0.4990904865566665
 40
0.6065798231747555
 40
0.6065798231747555
 40
0.6065798231747555
 40
0.7458944041694316
 40
0.7458944041694316
 40
0.7458944041694316
 40
1.0
 40
1.0
 40
1.0
 40
1.0
 10
55.30968512787543
 20
123.8922866576254
 30
0.0
 10
55.75522222643578
 20
123.8922866576254
 30
0.0
 10
56.20075932499613
 20
123.8922866576254
 30
0.0
 10
56.64629642355648
 20
123.8922866576254
 30
0.0
 10
56.9304824700681
 20
123.8922866576254
 30
0.0
 10
57.15533296840697
 20
123.9235158935058
 30
0.0
 10
57.31460207139702
 20
123.9797285180906
 30
0.0
 10
57.47485129194391
 20
124.0362870665189
 30
0.0
 10
57.59878811790864
 20
124.1327517739045
 30
0.0
 10
57.67998413119768
 20
124.2639145646022
 30
0.0
 10
57.76064771161268
 20
124.3942172714264
 30
0.0
 10
57.80490107471928
 20
124.5324859931736
 30
0.0
 10
57.80490107471928
 20
124.9072368237384
 30
0.0
 10
57.72682798501827
 20
125.0914893154327
 30
0.0
 10
57.56443595844021
 20
125.2320208768945
 30
0.0
 10
57.40049864930852
 20
125.3738897021046
 30
0.0
 10
57.14596419764287
 20
125.4475026044693
 30
0.0
 10
56.7961967557824
 20
125.4506255280573
 30
0.0
 10
56.30073237793026
 20
125.4550493171453
 30
0.0
 10
55.8051890038444
 20
125.4506255280573
 30
0.0
 10
55.30968512787543
 20
125.4506255280573
 30
0.0
  0
SPLINE
  5
AB
330
40
100
AcDbEntity
  8
0012874
  6
Continuous
 62
     7
100
AcDbSpline
210
0.0
220
0.0
230
1.0
 70
     8
 71
     3
 72
    22
 73
    18
 74
     0
 42
0.0000000026460816
 43
0.0000000001
 12
1.0
 22
0.0
 32
0.0
 13
1.0
 23
0.0
 33
0.0
 40
0.0
 40
0.0
 40
0.0
 40
0.0
 40
0.3068698414100483
 40
0.3068698414100483
 40
0.3068698414100483
 40
0.5162606884525387
 40
0.5162606884525387
 40
0.5162606884525387
 40
0.6164695960135068
 40
0.6164695960135068
 40
0.7166785035744724
 40
0.7166785035744724
 40
0.7166785035744724
 40
0.8088759039826804
 40
0.8088759039826804
 40
0.8088759039826804
 40
1.0
 40
1.0
 40
1.0
 40
1.0
 10
58.04848911458637
 20
121.2690308436719
 30
0.0
 10
57.84133518324641
 20
121.5948558713574
 30
0.0
 10
57.63418125190642
 20
121.9206808990429
 30
0.0
 10
57.42702732056645
 20
122.2465059267284
 30
0.0
 10
57.24673247676962
 20
122.5300852539063
 30
0.0
 10
57.09599742023422
 20
122.7461737008148
 30
0.0
 10
56.97732632388872
 20
122.8960740330407
 30
0.0
 10
56.86017502813673
 20
123.0440546171485
 30
0.0
 10
56.75559874913788
 20
123.1490308436719
 30
0.0
 10
56.56822333385547
 20
123.2677019400175
 30
0.0
 10
56.4745356262143
 20
123.308299946662
 30
0.0
 10
56.37772499498506
 20
123.3301604117783
 30
0.0
 10
56.30602761660933
 20
123.3463501423792
 30
0.0
 10
56.19034957970265
 20
123.3520208768945
 30
0.0
 10
56.03108047671262
 20
123.3551438004826
 30
0.0
 10
55.7907077759279
 20
123.359856990694
 30
0.0
 10
55.55015024415449
 20
123.3551438004826
 30
0.0
 10
55.30968512787543
 20
123.3551438004826
 30
0.0
  0
LINE
  5
AC
330
40
100
AcDbEntity
  8
0012874
  6
Continuous
 62
     7
100
AcDbLine
 10
53.8169276528
 20
121.8249112423
 30
0.0
 11
53.8169276528
 21
121.2690308437
 31
0.0
  0
LINE
  5
AD
330
40
100
AcDbEntity
  8
0012874
  6
Continuous
 62
     7
100
AcDbLine
 10
53.8169276528
 20
121.2690308437
 30
0.0
 11
50.3317449285
 21
121.2690308437
 31
0.0
  0
LINE
  5
AE
330
40
100
AcDbEntity
  8
0012874
  6
Continuous
 62
     7
100
AcDbLine
 10
50.3317449285
 20
121.2690308437
 30
0.0
 11
50.3317449285
 21
125.9690308437
 31
0.0
  0
LINE
  5
AF
330
40
100
AcDbEntity
  8
0012874
  6
Continuous
 62
     7
100
AcDbLine
 10
50.3317449285
 20
125.9690308437
 30
0.0
 11
53.7076253272
 21
125.9690308437
 31
0.0
  0
LINE
  5
B0
330
40
100
AcDbEntity
  8
0012874
  6
Continuous
 62
     7
100
AcDbLine
 10
53.7076253272
 20
125.9690308437
 30
0.0
 11
53.7076253272
 21
125.413150445
 31
0.0
  0
LINE
  5
B1
330
40
100
AcDbEntity
  8
0012874
  6
Continuous
 62
     7
100
AcDbLine
 10
53.7076253272
 20
125.413150445
 30
0.0
 11
50.9532067226
 21
125.413150445
 31
0.0
  0
LINE
  5
B2
330
40
100
AcDbEntity
  8
0012874
  6
Continuous
 62
     7
100
AcDbLine
 10
50.9532067226
 20
125.413150445
 30
0.0
 11
50.9532067226
 21
123.9859743653
 31
0.0
  0
LINE
  5
B3
330
40
100
AcDbEntity
  8
0012874
  6
Continuous
 62
     7
100
AcDbLine
 10
50.9532067226
 20
123.9859743653
 30
0.0
 11
53.5327416063
 21
123.9859743653
 31
0.0
  0
LINE
  5
B4
330
40
100
AcDbEntity
  8
0012874
  6
Continuous
 62
     7
100
AcDbLine
 10
53.5327416063
 20
123.9859743653
 30
0.0
 11
53.5327416063
 21
123.426971043
 31
0.0
  0
LINE
  5
B5
330
40
100
AcDbEntity
  8
0012874
  6
Continuous
 62
     7
100
AcDbLine
 10
53.5327416063
 20
123.426971043
 30
0.0
 11
50.9532067226
 21
123.426971043
 31
0.0
  0
LINE
  5
B6
330
40
100
AcDbEntity
  8
0012874
  6
Continuous
 62
     7
100
AcDbLine
 10
50.9532067226
 20
123.426971043
 30
0.0
 11
50.9532067226
 21
121.8249112423
 31
0.0
  0
LINE
  5
B7
330
40
100
AcDbEntity
  8
0012874
  6
Continuous
 62
     7
100
AcDbLine
 10
50.9532067226
 20
121.8249112423
 30
0.0
 11
53.8169276528
 21
121.8249112423
 31
0.0
  0
SPLINE
  5
B8
330
40
100
AcDbEntity
  8
0012874
  6
Continuous
 62
     7
100
AcDbSpline
210
0.0
220
0.0
230
1.0
 70
    11
 71
     3
 72
    33
 73
    29
 74
     0
 42
0.0000000019005482
 43
0.0000000001
 12
1.0
 22
0.0
 32
0.0
 13
1.0
 23
0.0
 33
0.0
 40
0.0
 40
0.0
 40
0.0
 40
0.0
 40
0.0721760954866653
 40
0.0721760954866653
 40
0.0721760954866653
 40
0.1502307625843914
 40
0.1502307625843914
 40
0.2179408352474749
 40
0.2179408352474749
 40
0.2179408352474749
 40
0.319912285247226
 40
0.319912285247226
 40
0.4218837352469775
 40
0.4218837352469775
 40
0.5202133477467381
 40
0.5202133477467381
 40
0.6185429602464948
 40
0.6185429602464948
 40
0.6908441459080786
 40
0.6908441459080786
 40
0.6908441459080786
 40
0.74912789085262
 40
0.74912789085262
 40
0.74912789085262
 40
0.8834830151345897
 40
0.8834830151345897
 40
0.8834830151345897
 40
1.0
 40
1.0
 40
1.0
 40
1.0
 10
81.32841431129131
 20
123.6269458322978
 30
0.0
 10
81.32841431129131
 20
123.4718464095909
 30
0.0
 10
81.3550980829398
 20
123.3517694371727
 30
0.0
 10
81.40679789050876
 20
123.2650471793151
 30
0.0
 10
81.47871211124178
 20
123.1444168735694
 30
0.0
 10
81.58024240622397
 20
123.0849317206878
 30
0.0
 10
81.83874144406872
 20
123.0849317206878
 30
0.0
 10
81.94881200211876
 20
123.1382992639848
 30
0.0
 10
82.04720841007257
 20
123.2467020863068
 30
0.0
 10
82.18835477569955
 20
123.4022023196246
 30
0.0
 10
82.29736876927721
 20
123.6252780965698
 30
0.0
 10
82.44079404188784
 20
124.2156565442926
 30
0.0
 10
82.4758164921765
 20
124.4574782248571
 30
0.0
 10
82.4758164921765
 20
124.8243800850239
 30
0.0
 10
82.44246177761589
 20
124.9561312075383
 30
0.0
 10
82.30237197646129
 20
125.1162338374293
 30
0.0
 10
82.2106465114196
 20
125.156259494902
 30
0.0
 10
82.01385369551195
 20
125.156259494902
 30
0.0
 10
81.93713785202256
 20
125.1345789304376
 30
0.0
 10
81.86542521571721
 20
125.0928855372369
 30
0.0
 10
81.79298791655515
 20
125.0507708284217
 30
0.0
 10
81.72533541456265
 20
124.9778117720027
 30
0.0
 10
81.66029372116942
 20
124.8744121568648
 30
0.0
 10
81.56842308696
 20
124.7283614050447
 30
0.0
 10
81.48518146972619
 20
124.5125135038821
 30
0.0
 10
81.41680430487693
 20
124.2239952229328
 30
0.0
 10
81.35794067280233
 20
123.9756194095448
 30
0.0
 10
81.32841431129131
 20
123.7770420478206
 30
0.0
 10
81.32841431129131
 20
123.6269458322978
 30
0.0
  0
SPLINE
  5
B9
330
40
100
AcDbEntity
  8
0012874
  6
Continuous
 62
     7
100
AcDbSpline
210
0.0
220
0.0
230
1.0
 70
    11
 71
     3
 72
    37
 73
    33
 74
     0
 42
0.000000001437495
 43
0.0000000001
 12
1.0
 22
0.0
 32
0.0
 13
1.0
 23
0.0
 33
0.0
 40
0.0
 40
0.0
 40
0.0
 40
0.0
 40
0.0956606184024858
 40
0.0956606184024858
 40
0.0956606184024858
 40
0.178656276707201
 40
0.178656276707201
 40
0.178656276707201
 40
0.2360303399524745
 40
0.2360303399524745
 40
0.2360303399524745
 40
0.2771386444945383
 40
0.2771386444945383
 40
0.3182469490366053
 40
0.3182469490366053
 40
0.3983733053474192
 40
0.3983733053474192
 40
0.3983733053474192
 40
0.5061192906921728
 40
0.5061192906921728
 40
0.6171907694117652
 40
0.6171907694117652
 40
0.6171907694117652
 40
0.7423143381907783
 40
0.7423143381907783
 40
0.7423143381907783
 40
0.819888036120354
 40
0.819888036120354
 40
0.8995773803571
 40
0.8995773803571
 40
0.8995773803571
 40
1.0
 40
1.0
 40
1.0
 40
1.0
 10
81.0348928231579
 20
123.7069971472433
 30
0.0
 10
81.0348928231579
 20
123.9187995847032
 30
0.0
 10
81.06657980199047
 20
124.1356052293472
 30
0.0
 10
81.12995375965565
 20
124.3540786097192
 30
0.0
 10
81.19377394083355
 20
124.5740902869377
 30
0.0
 10
81.26504035362613
 20
124.7493319772625
 30
0.0
 10
81.34175619711556
 20
124.8810830997769
 30
0.0
 10
81.41889431280799
 20
125.0135594289009
 30
0.0
 10
81.50019109127848
 20
125.1145661017012
 30
0.0
 10
81.58357787768003
 20
125.1896142094626
 30
0.0
 10
81.66613540322231
 20
125.2639159824507
 30
0.0
 10
81.74868371475507
 20
125.318029860521
 30
0.0
 10
81.90878634464602
 20
125.3880747610983
 30
0.0
 10
81.99884407395969
 20
125.4047521183786
 30
0.0
 10
82.28903009063704
 20
125.4047521183786
 30
0.0
 10
82.44913272052801
 20
125.3330394820733
 30
0.0
 10
82.57754837158637
 20
125.1912819451907
 30
0.0
 10
82.70679383337456
 20
125.0486083834764
 30
0.0
 10
82.76933798030991
 20
124.8427251780322
 30
0.0
 10
82.76933798030991
 20
124.2940401235101
 30
0.0
 10
82.7259768513811
 20
124.020531464113
 30
0.0
 10
82.63591912206743
 20
123.748690540444
 30
0.0
 10
82.52894330685695
 20
123.4257820611975
 30
0.0
 10
82.38575876286284
 20
123.1833281286416
 30
0.0
 10
82.19730462559535
 20
123.0232254987506
 30
0.0
 10
82.0539303294873
 20
122.9014207870128
 30
0.0
 10
81.8904412516377
 20
122.8397745686673
 30
0.0
 10
81.51853618428682
 20
122.8397745686673
 30
0.0
 10
81.35843355439587
 20
122.9131549407006
 30
0.0
 10
81.2300179033375
 20
123.0615834204954
 30
0.0
 10
81.10088831689058
 20
123.2108370983366
 30
0.0
 10
81.0348928231579
 20
123.425149809206
 30
0.0
 10
81.0348928231579
 20
123.7069971472433
 30
0.0
  0
LINE
  5
BA
330
40
100
AcDbEntity
  8
0012874
  6
Continuous
 62
     7
100
AcDbLine
 10
80.5962783267
 20
123.1683185071
 30
0.0
 11
80.5362398405
 21
122.8848034333
 31
0.0
  0
LINE
  5
BB
330
40
100
AcDbEntity
  8
0012874
  6
Continuous
 62
     7
100
AcDbLine
 10
80.5362398405
 20
122.8848034333
 30
0.0
 11
79.0419486282
 21
122.8848034333
 31
0.0
  0
SPLINE
  5
BC
330
40
100
AcDbEntity
  8
0012874
  6
Continuous
 62
     7
100
AcDbSpline
210
0.0
220
0.0
230
1.0
 70
     8
 71
     3
 72
    32
 73
    28
 74
     0
 42
0.0000000025574244
 43
0.0000000001
 12
1.0
 22
0.0
 32
0.0
 13
1.0
 23
0.0
 33
0.0
 40
0.0
 40
0.0
 40
0.0
 40
0.0
 40
0.103068246686758
 40
0.103068246686758
 40
0.103068246686758
 40
0.1976078819845585
 40
0.1976078819845585
 40
0.1976078819845585
 40
0.3804504919424642
 40
0.3804504919424642
 40
0.3804504919424642
 40
0.4935408626548236
 40
0.4935408626548236
 40
0.4935408626548236
 40
0.5769947391757576
 40
0.5769947391757576
 40
0.5769947391757576
 40
0.6273117745964769
 40
0.6273117745964769
 40
0.7119916634752479
 40
0.7119916634752479
 40
0.7119916634752479
 40
0.8079944423168285
 40
0.8079944423168285
 40
0.9039972211584141
 40
0.9039972211584141
 40
1.0
 40
1.0
 40
1.0
 40
1.0
 10
79.04194862816111
 20
122.8848034333241
 30
0.0
 10
79.07363560699368
 20
123.0332319131188
 30
0.0
 10
79.1186644716505
 20
123.1583120927211
 30
0.0
 10
79.17369975067554
 20
123.260043972131
 30
0.0
 10
79.22841465801392
 20
123.3611836493323
 30
0.0
 10
79.30545087318997
 20
123.4551690523106
 30
0.0
 10
79.3988440739597
 20
123.5468945173523
 30
0.0
 10
79.4914035422116
 20
123.6378011379568
 30
0.0
 10
79.67235273335673
 20
123.7903839336448
 30
0.0
 10
79.93919044984166
 20
124.0038541068327
 30
0.0
 10
80.10148960971588
 20
124.1336934347321
 30
0.0
 10
80.2126991092387
 20
124.2273306943889
 30
0.0
 10
80.2710698597198
 20
124.289036916326
 30
0.0
 10
80.35615074158909
 20
124.3789795628735
 30
0.0
 10
80.41949833951453
 20
124.4658169034973
 30
0.0
 10
80.45785626125922
 20
124.5508714256269
 30
0.0
 10
80.4842411192517
 20
124.6093769803058
 30
0.0
 10
80.49788191873198
 20
124.6726161337731
 30
0.0
 10
80.49788191873198
 20
124.8560670638565
 30
0.0
 10
80.45785626125922
 20
124.9544634718103
 30
0.0
 10
80.37613721058572
 20
125.0345147867558
 30
0.0
 10
80.29358446927834
 20
125.1153827782405
 30
0.0
 10
80.19435401623038
 20
125.156259494902
 30
0.0
 10
79.95753554285001
 20
125.156259494902
 30
0.0
 10
79.85580366344011
 20
125.1145661017012
 30
0.0
 10
79.67902367626886
 20
124.9511280003542
 30
0.0
 10
79.61731745433173
 20
124.8210446135678
 30
0.0
 10
79.578959532587
 20
124.6409291549405
 30
0.0
  0
LINE
  5
BD
330
40
100
AcDbEntity
  8
0012874
  6
Continuous
 62
     7
100
AcDbLine
 10
79.5789595326
 20
124.6409291549
 30
0.0
 11
79.2770993658
 21
124.6842902839
 31
0.0
  0
SPLINE
  5
BE
330
40
100
AcDbEntity
  8
0012874
  6
Continuous
 62
     7
100
AcDbSpline
210
0.0
220
0.0
230
1.0
 70
     8
 71
     3
 72
    30
 73
    26
 74
     0
 42
0.0000000022410225
 43
0.0000000001
 12
1.0
 22
0.0
 32
0.0
 13
1.0
 23
0.0
 33
0.0
 40
0.0
 40
0.0
 40
0.0
 40
0.0
 40
0.1360788721846728
 40
0.1360788721846728
 40
0.1360788721846728
 40
0.2690035711212842
 40
0.2690035711212842
 40
0.3590155719759945
 40
0.3590155719759945
 40
0.3590155719759945
 40
0.4421520296706846
 40
0.4421520296706846
 40
0.4421520296706846
 40
0.5227590063348023
 40
0.5227590063348023
 40
0.6395807116451182
 40
0.6395807116451182
 40
0.6395807116451182
 40
0.8343360685929684
 40
0.8343360685929684
 40
0.8343360685929684
 40
0.93729450469781
 40
0.93729450469781
 40
0.93729450469781
 40
1.0
 40
1.0
 40
1.0
 40
1.0
 10
79.27709936581346
 20
124.6842902838693
 30
0.0
 10
79.30545087318997
 20
124.9077668714254
 30
0.0
 10
79.39217313104757
 20
125.0828791228687
 30
0.0
 10
79.5355984036582
 20
125.211294773927
 30
0.0
 10
79.67985247521753
 20
125.3404524891604
 30
0.0
 10
79.85747139916816
 20
125.4047521183786
 30
0.0
 10
80.2126991092387
 20
125.4047521183786
 30
0.0
 10
80.34111476029709
 20
125.374732875274
 30
0.0
 10
80.45785626125922
 20
125.316362124793
 30
0.0
 10
80.57393066793017
 20
125.2583249214575
 30
0.0
 10
80.65965228435095
 20
125.1729368521823
 30
0.0
 10
80.71802303483206
 20
125.0662017655884
 30
0.0
 10
80.77709585786167
 20
124.9581828891913
 30
0.0
 10
80.80641302841768
 20
124.8477283852163
 30
0.0
 10
80.80641302841768
 20
124.5658810471791
 30
0.0
 10
80.74637454220857
 20
124.4057784172882
 30
0.0
 10
80.62796530551839
 20
124.2523467303093
 30
0.0
 10
80.55378965632187
 20
124.1562318045899
 30
0.0
 10
80.33944702456905
 20
123.9671639208161
 30
0.0
 10
79.9842193144985
 20
123.6853165827789
 30
0.0
 10
79.83078381516556
 20
123.5635766795523
 30
0.0
 10
79.71738159801356
 20
123.4635077309508
 30
0.0
 10
79.64233349025218
 20
123.3867918874614
 30
0.0
 10
79.56726725930613
 20
123.3100575180498
 30
0.0
 10
79.51225010346577
 20
123.2350279362106
 30
0.0
 10
79.47389218172107
 20
123.1683185070893
 30
0.0
  0
LINE
  5
BF
330
40
100
AcDbEntity
  8
0012874
  6
Continuous
 62
     7
100
AcDbLine
 10
79.4738921817
 20
123.1683185071
 30
0.0
 11
80.5962783267
 21
123.1683185071
 31
0.0
  0
LINE
  5
C0
330
40
100
AcDbEntity
  8
0012874
  6
Continuous
 62
     7
100
AcDbLine
 10
78.8518267552
 20
124.6809548124
 30
0.0
 11
78.5232828167
 21
124.6559387765
 31
0.0
  0
SPLINE
  5
C1
330
40
100
AcDbEntity
  8
0012874
  6
Continuous
 62
     7
100
AcDbSpline
210
0.0
220
0.0
230
1.0
 70
     8
 71
     3
 72
    51
 73
    47
 74
     0
 42
0.0000000015496497
 43
0.0000000001
 12
1.0
 22
0.0
 32
0.0
 13
1.0
 23
0.0
 33
0.0
 40
0.0
 40
0.0
 40
0.0
 40
0.0
 40
0.0215676385382432
 40
0.0215676385382432
 40
0.0593110059801697
 40
0.0593110059801697
 40
0.0593110059801697
 40
0.0954792894329483
 40
0.0954792894329483
 40
0.0954792894329483
 40
0.1368449708122615
 40
0.1368449708122615
 40
0.210760696555631
 40
0.210760696555631
 40
0.210760696555631
 40
0.2564187340021234
 40
0.2564187340021234
 40
0.2832337718675259
 40
0.2832337718675259
 40
0.2832337718675259
 40
0.3187202206675852
 40
0.3187202206675852
 40
0.3187202206675852
 40
0.3919232479418014
 40
0.3919232479418014
 40
0.3919232479418014
 40
0.4575200365630873
 40
0.4575200365630873
 40
0.4575200365630873
 40
0.5058400090487184
 40
0.5058400090487184
 40
0.5058400090487184
 40
0.5557804750875059
 40
0.5557804750875059
 40
0.6170710470442002
 40
0.6170710470442002
 40
0.6170710470442002
 40
0.6863265147445908
 40
0.6863265147445908
 40
0.6863265147445908
 40
0.7644282827156565
 40
0.7644282827156565
 40
0.881926517716375
 40
0.881926517716375
 40
0.881926517716375
 40
1.0
 40
1.0
 40
1.0
 40
1.0
 10
78.52328281674353
 20
124.6559387764928
 30
0.0
 10
78.52328281674353
 20
124.7259836770701
 30
0.0
 10
78.51827960955943
 20
124.7826866918231
 30
0.0
 10
78.48158942354274
 20
124.8927572498731
 30
0.0
 10
78.44823470898213
 20
124.9511280003542
 30
0.0
 10
78.39987037286924
 20
125.0011600721951
 30
0.0
 10
78.35317281456611
 20
125.0494678911294
 30
0.0
 10
78.28646434336315
 20
125.0878823300528
 30
0.0
 10
78.2030775569616
 20
125.1162338374293
 30
0.0
 10
78.11918249685307
 20
125.1447581578662
 30
0.0
 10
78.02629756979034
 20
125.1612627020861
 30
0.0
 10
77.74278249602511
 20
125.1612627020861
 30
0.0
 10
77.6010249591425
 20
125.1195693088853
 30
0.0
 10
77.50096081546064
 20
125.0378502582118
 30
0.0
 10
77.42389091509446
 20
124.9749098395794
 30
0.0
 10
77.38588705022653
 20
124.8910895141451
 30
0.0
 10
77.38588705022653
 20
124.724315941342
 30
0.0
 10
77.4008966717788
 20
124.669280662317
 30
0.0
 10
77.43258365061139
 20
124.6209163262041
 30
0.0
 10
77.46503512394159
 20
124.5713851300685
 30
0.0
 10
77.52264137992503
 20
124.5241876539784
 30
0.0
 10
77.60436043059856
 20
124.4774910535935
 30
0.0
 10
77.66398839724384
 20
124.4434179297962
 30
0.0
 10
77.80448871796224
 20
124.3790946456397
 30
0.0
 10
78.02629756979034
 20
124.2806982376859
 30
0.0
 10
78.20507529481362
 20
124.2013908258334
 30
0.0
 10
78.32982547229194
 20
124.1372729650752
 30
0.0
 10
78.3982026371412
 20
124.0922441004184
 30
0.0
 10
78.48936273285103
 20
124.032211842268
 30
0.0
 10
78.55830526703217
 20
123.9571575064479
 30
0.0
 10
78.60666960314505
 20
123.8704352485903
 30
0.0
 10
78.6543245047085
 20
123.7849850802696
 30
0.0
 10
78.6800499751784
 20
123.6869843185069
 30
0.0
 10
78.6800499751784
 20
123.4418271664864
 30
0.0
 10
78.63835658197765
 20
123.315079251156
 30
0.0
 10
78.55663753130415
 20
123.2016732216499
 30
0.0
 10
78.47276644869119
 20
123.0852806988401
 30
0.0
 10
78.35817697966849
 20
122.9965417271021
 30
0.0
 10
78.21308397132978
 20
122.934835505165
 30
0.0
 10
78.0659780369412
 20
122.8722732112296
 30
0.0
 10
77.89954965446
 20
122.8397745686673
 30
0.0
 10
77.42758044342729
 20
122.8397745686673
 30
0.0
 10
77.19576517723101
 20
122.9014807906044
 30
0.0
 10
77.01731745433172
 20
123.0265609702067
 30
0.0
 10
76.83853528565918
 20
123.1518755744164
 30
0.0
 10
76.74714426639073
 20
123.3734500016371
 30
0.0
 10
76.74547653066271
 20
123.695322997147
 30
0.0
  0
LINE
  5
C2
330
40
100
AcDbEntity
  8
0012874
  6
Continuous
 62
     7
100
AcDbLine
 10
76.7454765307
 20
123.6953229971
 30
0.0
 11
77.0723527334
 21
123.7253422403
 31
0.0
  0
SPLINE
  5
C3
330
40
100
AcDbEntity
  8
0012874
  6
Continuous
 62
     7
100
AcDbSpline
210
0.0
220
0.0
230
1.0
 70
     8
 71
     3
 72
    51
 73
    47
 74
     0
 42
0.0000000015546061
 43
0.0000000001
 12
1.0
 22
0.0
 32
0.0
 13
1.0
 23
0.0
 33
0.0
 40
0.0
 40
0.0
 40
0.0
 40
0.0
 40
0.0139202833043142
 40
0.0139202833043142
 40
0.0139202833043142
 40
0.0590107205957899
 40
0.0590107205957899
 40
0.1041011578872674
 40
0.1041011578872674
 40
0.1041011578872674
 40
0.1517747527218389
 40
0.1517747527218389
 40
0.2190786513118212
 40
0.2190786513118212
 40
0.2863825499018007
 40
0.2863825499018007
 40
0.3329014209860521
 40
0.3329014209860521
 40
0.3329014209860521
 40
0.4178513912987811
 40
0.4178513912987811
 40
0.4178513912987811
 40
0.4885725091405268
 40
0.4885725091405268
 40
0.4885725091405268
 40
0.5436044003554695
 40
0.5436044003554695
 40
0.5436044003554695
 40
0.5941884394790057
 40
0.5941884394790057
 40
0.6514674249571281
 40
0.6514674249571281
 40
0.6514674249571281
 40
0.7203879745771028
 40
0.7203879745771028
 40
0.7893085241970805
 40
0.7893085241970805
 40
0.8717429070758794
 40
0.8717429070758794
 40
0.8717429070758794
 40
0.9374423525786653
 40
0.9374423525786653
 40
0.9374423525786653
 40
0.9945602045720584
 40
0.9945602045720584
 40
1.0
 40
1.0
 40
1.0
 40
1.0
 10
77.07235273335675
 20
123.7253422402516
 30
0.0
 10
77.07124090953805
 20
123.6958789090564
 30
0.0
 10
77.07012908571936
 20
123.6664155778612
 30
0.0
 10
77.06901726190068
 20
123.636952246666
 30
0.0
 10
77.06537231371158
 20
123.5403611196549
 30
0.0
 10
77.09069782636507
 20
123.4501658451265
 30
0.0
 10
77.18075555567874
 20
123.2900632152356
 30
0.0
 10
77.2541359277121
 20
123.2283569932984
 30
0.0
 10
77.35753554284999
 20
123.1849958643696
 30
0.0
 10
77.46152993453518
 20
123.1413853130178
 30
0.0
 10
77.58267986613416
 20
123.1182864352484
 30
0.0
 10
77.92456569038048
 20
123.1182864352484
 30
0.0
 10
78.07966511308734
 20
123.1616475641772
 30
0.0
 10
78.2897998148192
 20
123.3384275513485
 30
0.0
 10
78.34316735811619
 20
123.4401594307583
 30
0.0
 10
78.34316735811619
 20
123.6319490394819
 30
0.0
 10
78.31481585073968
 20
123.7036616757872
 30
0.0
 10
78.25978057171464
 20
123.7687033691804
 30
0.0
 10
78.20404944433415
 20
123.8345674288119
 30
0.0
 10
78.04631039852671
 20
123.9204673204312
 30
0.0
 10
77.791146832138
 20
124.0305378784812
 30
0.0
 10
77.5942945507749
 20
124.1154545488732
 30
0.0
 10
77.4609351579879
 20
124.180634094004
 30
0.0
 10
77.38755478595455
 20
124.2273306943889
 30
0.0
 10
77.27478642010918
 20
124.299092381745
 30
0.0
 10
77.19242970577494
 20
124.3824301170957
 30
0.0
 10
77.13906216247796
 20
124.4691523749533
 30
0.0
 10
77.08495022211784
 20
124.5570842780385
 30
0.0
 10
77.05734311180446
 20
124.6559387764928
 30
0.0
 10
77.05734311180446
 20
124.8977604570572
 30
0.0
 10
77.09403329782114
 20
125.0145019580194
 30
0.0
 10
77.16407819839843
 20
125.1179015731573
 30
0.0
 10
77.23489748981663
 20
125.2224443366794
 30
0.0
 10
77.33752271411362
 20
125.3013525032407
 30
0.0
 10
77.6110313735107
 20
125.4114230612907
 30
0.0
 10
77.7644630604895
 20
125.4397745686673
 30
0.0
 10
78.1380358635684
 20
125.4397745686673
 30
0.0
 10
78.31148037928362
 20
125.4047521183786
 30
0.0
 10
78.4515701804382
 20
125.3363749535293
 30
0.0
 10
78.59231737908019
 20
125.2676769160969
 30
0.0
 10
78.69339186100265
 20
125.1746045879104
 30
0.0
 10
78.75676581866783
 20
125.0611985584043
 30
0.0
 10
78.82084996570696
 20
124.9465216637026
 30
0.0
 10
78.85182675516559
 20
124.8377219708481
 30
0.0
 10
78.85182675516559
 20
124.722648205614
 30
0.0
 10
78.85182675516559
 20
124.7059708483337
 30
0.0
 10
78.85182675516559
 20
124.6809548124132
 30
0.0
  0
LINE
  5
C4
330
40
100
AcDbEntity
  8
0012874
  6
Continuous
 62
     7
100
AcDbLine
 10
74.1271314377
 20
122.8848034333
 30
0.0
 11
74.6491327205
 21
125.394745704
 31
0.0
  0
LINE
  5
C5
330
40
100
AcDbEntity
  8
0012874
  6
Continuous
 62
     7
100
AcDbLine
 10
74.9243091157
 20
125.112898366
 30
0.0
 11
74.5190493337
 21
123.1683185071
 31
0.0
  0
SPLINE
  5
C6
330
40
100
AcDbEntity
  8
0012874
  6
Continuous
 62
     7
100
AcDbSpline
210
0.0
220
0.0
230
1.0
 70
     8
 71
     3
 72
    33
 73
    29
 74
     0
 42
0.0000000024618748
 43
0.0000000001
 12
1.0
 22
0.0
 32
0.0
 13
1.0
 23
0.0
 33
0.0
 40
0.0
 40
0.0
 40
0.0
 40
0.0
 40
0.098687067175298
 40
0.098687067175298
 40
0.098687067175298
 40
0.2184768563336364
 40
0.2184768563336364
 40
0.2184768563336364
 40
0.2784202651886635
 40
0.2784202651886635
 40
0.2784202651886635
 40
0.3535686568610644
 40
0.3535686568610644
 40
0.3535686568610644
 40
0.4670246171377619
 40
0.4670246171377619
 40
0.5804805774144616
 40
0.5804805774144616
 40
0.7063135515395287
 40
0.7063135515395287
 40
0.7063135515395287
 40
0.7943517716916371
 40
0.7943517716916371
 40
0.7943517716916371
 40
0.889750588615474
 40
0.889750588615474
 40
0.889750588615474
 40
1.0
 40
1.0
 40
1.0
 40
1.0
 10
74.51904933374159
 20
123.1683185070893
 30
0.0
 10
74.65191228007473
 20
123.1683185070893
 30
0.0
 10
74.78477522640783
 20
123.1683185070893
 30
0.0
 10
74.91763817274096
 20
123.1683185070893
 30
0.0
 10
75.09775363136828
 20
123.1683185070893
 30
0.0
 10
75.25785626125925
 20
123.1833281286416
 30
0.0
 10
75.39794606241382
 20
123.2166828432022
 30
0.0
 10
75.48452516699005
 20
123.2372969157203
 30
0.0
 10
75.5597164280328
 20
123.2667149150431
 30
0.0
 10
75.62142264996996
 20
123.3067405725159
 30
0.0
 10
75.7025449170616
 20
123.3593604214402
 30
0.0
 10
75.77652207267683
 20
123.4268175449341
 30
0.0
 10
75.84323150179803
 20
123.5118720670636
 30
0.0
 10
75.93052065482814
 20
123.623165737177
 30
0.0
 10
75.99999866023293
 20
123.7520260119001
 30
0.0
 10
76.10339827537085
 20
124.0388765571214
 30
0.0
 10
76.13008204701934
 20
124.2023146584684
 30
0.0
 10
76.13008204701934
 20
124.5892293473715
 30
0.0
 10
76.09505959673069
 20
124.7459965058064
 30
0.0
 10
76.02334696042537
 20
124.8543993281285
 30
0.0
 10
75.95086690209834
 20
124.9639622069949
 30
0.0
 10
75.86157659480638
 20
125.0361825224838
 30
0.0
 10
75.75150603675634
 20
125.0728727085005
 30
0.0
 10
75.66995375965566
 20
125.1000568008674
 30
0.0
 10
75.5430390707525
 20
125.1112306302452
 30
0.0
 10
75.36959455503731
 20
125.1128983659732
 30
0.0
 10
75.22117979702122
 20
125.1143254309541
 30
0.0
 10
75.07273759544783
 20
125.1128983659732
 30
0.0
 10
74.92430911565309
 20
125.1128983659732
 30
0.0
  0
SPLINE
  5
C7
330
40
100
AcDbEntity
  8
0012874
  6
Continuous
 62
     7
100
AcDbSpline
210
0.0
220
0.0
230
1.0
 70
     8
 71
     3
 72
    37
 73
    33
 74
     0
 42
0.0000000017498158
 43
0.0000000001
 12
1.0
 22
0.0
 32
0.0
 13
1.0
 23
0.0
 33
0.0
 40
0.0
 40
0.0
 40
0.0
 40
0.0
 40
0.1332789625874572
 40
0.1332789625874572
 40
0.1332789625874572
 40
0.2072857096995324
 40
0.2072857096995324
 40
0.2072857096995324
 40
0.2783067277519798
 40
0.2783067277519798
 40
0.2783067277519798
 40
0.3501293705634418
 40
0.3501293705634418
 40
0.3501293705634418
 40
0.4322565886572693
 40
0.4322565886572693
 40
0.5306466222152209
 40
0.5306466222152209
 40
0.5306466222152209
 40
0.6188274428544841
 40
0.6188274428544841
 40
0.6188274428544841
 40
0.694544642586548
 40
0.694544642586548
 40
0.694544642586548
 40
0.7678266934497298
 40
0.7678266934497298
 40
0.7678266934497298
 40
0.8409412432657464
 40
0.8409412432657464
 40
0.8409412432657464
 40
1.0
 40
1.0
 40
1.0
 40
1.0
 10
74.649132720528
 20
125.3947457040104
 30
0.0
 10
74.90207263927934
 20
125.3947457040104
 30
0.0
 10
75.15501255803068
 20
125.3947457040104
 30
0.0
 10
75.407952476782
 20
125.3947457040104
 30
0.0
 10
75.58973567113736
 20
125.3947457040104
 30
0.0
 10
75.72982547229195
 20
125.3814038181862
 30
0.0
 10
75.82655414451774
 20
125.3563877822657
 30
0.0
 10
75.96362910326401
 20
125.3209373619003
 30
0.0
 10
76.08171771090643
 20
125.2579913743119
 30
0.0
 10
76.17844638313223
 20
125.1662659092702
 30
0.0
 10
76.27434236213962
 20
125.075330067108
 30
0.0
 10
76.34855542739139
 20
124.9628021504504
 30
0.0
 10
76.39858749923228
 20
124.8260478207519
 30
0.0
 10
76.44788457736307
 20
124.6913024738611
 30
0.0
 10
76.47196787126565
 20
124.5375295398026
 30
0.0
 10
76.47196787126565
 20
124.1672922081798
 30
0.0
 10
76.44194862816109
 20
123.9821735423683
 30
0.0
 10
76.38024240622396
 20
123.8170677052933
 30
0.0
 10
76.31798928043976
 20
123.6504985308977
 30
0.0
 10
76.23848486934135
 20
123.5035333884235
 30
0.0
 10
76.14008846138753
 20
123.3784532088212
 30
0.0
 10
76.0408816283737
 20
123.2523428278714
 30
0.0
 10
75.93662470256776
 20
123.153308885537
 30
0.0
 10
75.82988961597381
 20
123.0815962492317
 30
0.0
 10
75.72200548891861
 20
123.0091116013665
 30
0.0
 10
75.59307114259342
 20
122.9581838053574
 30
0.0
 10
75.44631039852673
 20
122.9231613550688
 30
0.0
 10
75.33298994617465
 20
122.8961189743939
 30
0.0
 10
75.19615003932209
 20
122.8848034333241
 30
0.0
 10
75.0327119379751
 20
122.8848034333241
 30
0.0
 10
74.7308517712015
 20
122.8848034333241
 30
0.0
 10
74.42899160442792
 20
122.8848034333241
 30
0.0
 10
74.12713143765437
 20
122.8848034333241
 30
0.0
  0
SPLINE
  5
C8
330
40
100
AcDbEntity
  8
0012874
  6
Continuous
 62
     7
100
AcDbSpline
210
0.0
220
0.0
230
1.0
 70
     8
 71
     3
 72
    27
 73
    23
 74
     0
 42
0.000000002679093
 43
0.0000000001
 12
1.0
 22
0.0
 32
0.0
 13
1.0
 23
0.0
 33
0.0
 40
0.0
 40
0.0
 40
0.0
 40
0.0
 40
0.3379250067985389
 40
0.3379250067985389
 40
0.3379250067985389
 40
0.3682196813315327
 40
0.3682196813315327
 40
0.4201534091023817
 40
0.4201534091023817
 40
0.4720871368732295
 40
0.4720871368732295
 40
0.4720871368732295
 40
0.5505950391780757
 40
0.5505950391780757
 40
0.5505950391780757
 40
0.6410999463312407
 40
0.6410999463312407
 40
0.6410999463312407
 40
0.7642962298882139
 40
0.7642962298882139
 40
0.7642962298882139
 40
1.0
 40
1.0
 40
1.0
 40
1.0
 10
69.31904933374162
 20
122.8848034333241
 30
0.0
 10
69.40410385587117
 20
123.2945105105103
 30
0.0
 10
69.48915837800074
 20
123.7042175876965
 30
0.0
 10
69.5742129001303
 20
124.1139246648828
 30
0.0
 10
69.59156658789026
 20
124.1975172653997
 30
0.0
 10
69.6008966717788
 20
124.2573499374934
 30
0.0
 10
69.6008966717788
 20
124.3524108739912
 30
0.0
 10
69.58255157877046
 20
124.399107474376
 30
0.0
 10
69.50917120673711
 20
124.4724878464094
 30
0.0
 10
69.46080687062422
 20
124.4908329394177
 30
0.0
 10
69.40076838441512
 20
124.4925006751458
 30
0.0
 10
69.31415928056217
 20
124.4949064835861
 30
0.0
 10
69.22065292578777
 20
124.4624814320412
 30
0.0
 10
69.12559198929003
 20
124.4074461530162
 30
0.0
 10
69.02855883419274
 20
124.351269063223
 30
0.0
 10
68.95047973784679
 20
124.2723595590457
 30
0.0
 10
68.89044125163768
 20
124.1722954153638
 30
0.0
 10
68.82922554020878
 20
124.070269229649
 30
0.0
 10
68.78037069358767
 20
123.9288059990714
 30
0.0
 10
68.74034503611493
 20
123.7420195975319
 30
0.0
 10
68.67919201432171
 20
123.4566388291636
 30
0.0
 10
68.62137988751537
 20
123.1705421547267
 30
0.0
 10
68.56189731321562
 20
122.8848034333241
 30
0.0
  0
LINE
  5
C9
330
40
100
AcDbEntity
  8
0012874
  6
Continuous
 62
     7
100
AcDbLine
 10
68.5618973132
 20
122.8848034333
 30
0.0
 11
68.2533662035
 21
122.8848034333
 31
0.0
  0
LINE
  5
CA
330
40
100
AcDbEntity
  8
0012874
  6
Continuous
 62
     7
100
AcDbLine
 10
68.2533662035
 20
122.8848034333
 30
0.0
 11
68.6319422138
 21
124.7059708483
 31
0.0
  0
LINE
  5
CB
330
40
100
AcDbEntity
  8
0012874
  6
Continuous
 62
     7
100
AcDbLine
 10
68.6319422138
 20
124.7059708483
 30
0.0
 11
68.9404733235
 21
124.7059708483
 31
0.0
  0
LINE
  5
CC
330
40
100
AcDbEntity
  8
0012874
  6
Continuous
 62
     7
100
AcDbLine
 10
68.9404733235
 20
124.7059708483
 30
0.0
 11
68.8770993658
 21
124.4007752101
 31
0.0
  0
SPLINE
  5
CD
330
40
100
AcDbEntity
  8
0012874
  6
Continuous
 62
     7
100
AcDbSpline
210
0.0
220
0.0
230
1.0
 70
     8
 71
     3
 72
    16
 73
    12
 74
     0
 42
0.0000000074617333
 43
0.0000000001
 12
1.0
 22
0.0
 32
0.0
 13
1.0
 23
0.0
 33
0.0
 40
0.0
 40
0.0
 40
0.0
 40
0.0
 40
0.312257333129591
 40
0.312257333129591
 40
0.312257333129591
 40
0.5348729600410366
 40
0.5348729600410366
 40
0.7751564938502068
 40
0.7751564938502068
 40
0.7751564938502068
 40
1.0
 40
1.0
 40
1.0
 40
1.0
 10
68.87709936581344
 20
124.4007752101041
 30
0.0
 10
68.99217313104755
 20
124.5308585968905
 30
0.0
 10
69.09557274618547
 20
124.6209163262041
 30
0.0
 10
69.18729821122716
 20
124.6709483980451
 30
0.0
 10
69.27773835128102
 20
124.720279383529
 30
0.0
 10
69.37742008422268
 20
124.7459965058064
 30
0.0
 10
69.59589346459471
 20
124.7459965058064
 30
0.0
 10
69.69095440109247
 20
124.7159772627019
 30
0.0
 10
69.7676702445819
 20
124.6559387764928
 30
0.0
 10
69.84335181820012
 20
124.5967097188785
 30
0.0
 10
69.89275042418419
 20
124.5125135038821
 30
0.0
 10
69.91776646010464
 20
124.4057784172882
 30
0.0
  0
SPLINE
  5
CE
330
40
100
AcDbEntity
  8
0012874
  6
Continuous
 62
     7
100
AcDbSpline
210
0.0
220
0.0
230
1.0
 70
     8
 71
     3
 72
    20
 73
    16
 74
     0
 42
0.0000000034119438
 43
0.0000000001
 12
1.0
 22
0.0
 32
0.0
 13
1.0
 23
0.0
 33
0.0
 40
0.0
 40
0.0
 40
0.0
 40
0.0
 40
0.1130308046446511
 40
0.1130308046446511
 40
0.2260616092893001
 40
0.2260616092893001
 40
0.3773234213872821
 40
0.3773234213872821
 40
0.3773234213872821
 40
0.5252114115650883
 40
0.5252114115650883
 40
0.5888594073378147
 40
0.5888594073378147
 40
0.5888594073378147
 40
1.0
 40
1.0
 40
1.0
 40
1.0
 10
69.91776646010464
 20
124.4057784172882
 30
0.0
 10
70.00949192514635
 20
124.5191844467942
 30
0.0
 10
70.10788833310016
 20
124.6042389689238
 30
0.0
 10
70.31135209191991
 20
124.7176449984299
 30
0.0
 10
70.4197549142419
 20
124.7459965058064
 30
0.0
 10
70.6849248949988
 20
124.7459965058064
 30
0.0
 10
70.79999866023293
 20
124.7093063197898
 30
0.0
 10
70.87504676799433
 20
124.6359259477564
 30
0.0
 10
70.95011382251354
 20
124.5625270500043
 30
0.0
 10
70.9884527975004
 20
124.4624814320412
 30
0.0
 10
70.9884527975004
 20
124.2740272947737
 30
0.0
 10
70.9767786474042
 20
124.182301829732
 30
0.0
 10
70.95009487575571
 20
124.0538861786737
 30
0.0
 10
70.86906565918153
 20
123.6639330739103
 30
0.0
 10
70.78554495059001
 20
123.2744976817739
 30
0.0
 10
70.70326998800716
 20
122.8848034333241
 30
0.0
  0
LINE
  5
CF
330
40
100
AcDbEntity
  8
0012874
  6
Continuous
 62
     7
100
AcDbLine
 10
70.703269988
 20
122.8848034333
 30
0.0
 11
70.3930711426
 21
122.8848034333
 31
0.0
  0
SPLINE
  5
D0
330
40
100
AcDbEntity
  8
0012874
  6
Continuous
 62
     7
100
AcDbSpline
210
0.0
220
0.0
230
1.0
 70
     8
 71
     3
 72
    27
 73
    23
 74
     0
 42
0.0000000026637805
 43
0.0000000001
 12
1.0
 22
0.0
 32
0.0
 13
1.0
 23
0.0
 33
0.0
 40
0.0
 40
0.0
 40
0.0
 40
0.0
 40
0.3291852717410316
 40
0.3291852717410316
 40
0.3291852717410316
 40
0.3698336758134114
 40
0.3698336758134114
 40
0.4283673776776379
 40
0.4283673776776379
 40
0.4283673776776379
 40
0.4743836868896335
 40
0.4743836868896335
 40
0.4743836868896335
 40
0.5546028510964031
 40
0.5546028510964031
 40
0.5546028510964031
 40
0.6569205378769003
 40
0.6569205378769003
 40
0.7592382246573974
 40
0.7592382246573974
 40
0.7592382246573974
 40
1.0
 40
1.0
 40
1.0
 40
1.0
 10
70.39307114259344
 20
122.8848034333241
 30
0.0
 10
70.47645792899496
 20
123.2861718318701
 30
0.0
 10
70.55984471539651
 20
123.6875402304162
 30
0.0
 10
70.64323150179804
 20
124.0889086289623
 30
0.0
 10
70.66372519723934
 20
124.1875516163531
 30
0.0
 10
70.67658621635867
 20
124.2573499374934
 30
0.0
 10
70.67658621635867
 20
124.3590818169033
 30
0.0
 10
70.65824112335031
 20
124.4057784172882
 30
0.0
 10
70.61988320160562
 20
124.4408008675768
 30
0.0
 10
70.58235570909454
 20
124.4750650998695
 30
0.0
 10
70.52815773656393
 20
124.4908329394177
 30
0.0
 10
70.45978057171465
 20
124.4925006751458
 30
0.0
 10
70.36648354833233
 20
124.4947762123014
 30
0.0
 10
70.27299417017521
 20
124.4624814320412
 30
0.0
 10
70.17626549794942
 20
124.4074461530162
 30
0.0
 10
70.07881999523106
 20
124.3520030221592
 30
0.0
 10
70.00448871796225
 20
124.2773627662298
 30
0.0
 10
69.89775363136827
 20
124.0939118361464
 30
0.0
 10
69.85105703098343
 20
123.9538220349918
 30
0.0
 10
69.81103137351069
 20
123.7653678977243
 30
0.0
 10
69.74874191270935
 20
123.472088353118
 30
0.0
 10
69.68873075345508
 20
123.1783249214575
 30
0.0
 10
69.62758044342729
 20
122.8848034333241
 30
0.0
  0
LINE
  5
D1
330
40
100
AcDbEntity
  8
0012874
  6
Continuous
 62
     7
100
AcDbLine
 10
69.6275804434
 20
122.8848034333
 30
0.0
 11
69.3190493337
 21
122.8848034333
 31
0.0
  0
SPLINE
  5
D2
330
40
100
AcDbEntity
  8
0012874
  6
Continuous
 62
     7
100
AcDbSpline
210
0.0
220
0.0
230
1.0
 70
     8
 71
     3
 72
    18
 73
    14
 74
     0
 42
0.0000000058801963
 43
0.0000000001
 12
1.0
 22
0.0
 32
0.0
 13
1.0
 23
0.0
 33
0.0
 40
0.0
 40
0.0
 40
0.0
 40
0.0
 40
0.0216813094244017
 40
0.0216813094244017
 40
0.2710163678050189
 40
0.2710163678050189
 40
0.2710163678050189
 40
0.4831047770934349
 40
0.4831047770934349
 40
0.7095234843067316
 40
0.7095234843067316
 40
0.7095234843067316
 40
1.0
 40
1.0
 40
1.0
 40
1.0
 10
67.75804869230478
 20
123.9588252421759
 30
0.0
 10
67.7597164280328
 20
123.9905122210085
 30
0.0
 10
67.7597164280328
 20
124.0138605212009
 30
0.0
 10
67.7597164280328
 20
124.180634094004
 30
0.0
 10
67.7213585062881
 20
124.3007110664222
 30
0.0
 10
67.64297492707067
 20
124.3824301170957
 30
0.0
 10
67.56539048629642
 20
124.4633160234348
 30
0.0
 10
67.46619493989938
 20
124.50584256097
 30
0.0
 10
67.21103137351066
 20
124.50584256097
 30
0.0
 10
67.08928666536443
 20
124.4608136963132
 30
0.0
 10
66.97921610731439
 20
124.3690882312715
 30
0.0
 10
66.87094998464224
 20
124.278866462378
 30
0.0
 10
66.7890942343189
 20
124.1422761722593
 30
0.0
 10
66.7357266910219
 20
123.9588252421759
 30
0.0
  0
LINE
  5
D3
330
40
100
AcDbEntity
  8
0012874
  6
Continuous
 62
     7
100
AcDbLine
 10
68.029889616
 20
123.7203390331
 30
0.0
 11
66.6856946192
 21
123.7203390331
 31
0.0
  0
SPLINE
  5
D4
330
40
100
AcDbEntity
  8
0012874
  6
Continuous
 62
     7
100
AcDbSpline
210
0.0
220
0.0
230
1.0
 70
     8
 71
     3
 72
    17
 73
    13
 74
     0
 42
0.0000000062717675
 43
0.0000000001
 12
1.0
 22
0.0
 32
0.0
 13
1.0
 23
0.0
 33
0.0
 40
0.0
 40
0.0
 40
0.0
 40
0.0
 40
0.0413881499234959
 40
0.0413881499234959
 40
0.2897170494644729
 40
0.2897170494644729
 40
0.5380459490054523
 40
0.5380459490054523
 40
0.5380459490054523
 40
0.7690229745027296
 40
0.7690229745027296
 40
1.0
 40
1.0
 40
1.0
 40
1.0
 10
66.68569461918098
 20
123.7203390330675
 30
0.0
 10
66.68235914772491
 20
123.6836488470508
 30
0.0
 10
66.68069141199689
 20
123.6519618682182
 30
0.0
 10
66.68069141199689
 20
123.4535013165826
 30
0.0
 10
66.7190493337416
 20
123.3234179297962
 30
0.0
 10
66.8758164921765
 20
123.1433024711689
 30
0.0
 10
66.97254516440229
 20
123.098273606512
 30
0.0
 10
67.08595119390837
 20
123.0999413422401
 30
0.0
 10
67.19263868242317
 20
123.1015102758947
 30
0.0
 10
67.29608589564026
 20
123.1332960568007
 30
0.0
 10
67.50288512591607
 20
123.2700503864992
 30
0.0
 10
67.58293644086154
 20
123.370114530181
 30
0.0
 10
67.6396394556146
 20
123.5001979169674
 30
0.0
  0
LINE
  5
D5
330
40
100
AcDbEntity
  8
0012874
  6
Continuous
 62
     7
100
AcDbLine
 10
67.6396394556
 20
123.500197917
 30
0.0
 11
67.9414996224
 21
123.4701786739
 31
0.0
  0
SPLINE
  5
D6
330
40
100
AcDbEntity
  8
0012874
  6
Continuous
 62
     7
100
AcDbSpline
210
0.0
220
0.0
230
1.0
 70
     8
 71
     3
 72
    34
 73
    30
 74
     0
 42
0.0000000018158964
 43
0.0000000001
 12
1.0
 22
0.0
 32
0.0
 13
1.0
 23
0.0
 33
0.0
 40
0.0
 40
0.0
 40
0.0
 40
0.0
 40
0.0971041639436982
 40
0.0971041639436982
 40
0.0971041639436982
 40
0.2099423133125271
 40
0.2099423133125271
 40
0.2802491602269508
 40
0.2802491602269508
 40
0.2802491602269508
 40
0.3503317846186257
 40
0.3503317846186257
 40
0.3503317846186257
 40
0.4317482831038175
 40
0.4317482831038175
 40
0.5382160118921459
 40
0.5382160118921459
 40
0.5382160118921459
 40
0.6404936102112891
 40
0.6404936102112891
 40
0.6404936102112891
 40
0.727328591886137
 40
0.727328591886137
 40
0.8388519507038366
 40
0.8388519507038366
 40
0.8388519507038366
 40
0.9549119447565138
 40
0.9549119447565138
 40
1.0
 40
1.0
 40
1.0
 40
1.0
 10
67.94149962238816
 20
123.4701786738629
 30
0.0
 10
67.89813849345936
 20
123.3217501940681
 30
0.0
 10
67.79807434977752
 20
123.1799926571855
 30
0.0
 10
67.64130719134262
 20
123.0465737989431
 30
0.0
 10
67.48468408254138
 20
122.9132775361335
 30
0.0
 10
67.30108910282433
 20
122.8447777758513
 30
0.0
 10
66.94919686420985
 20
122.8447777758513
 30
0.0
 10
66.82578442033557
 20
122.8764647546839
 30
0.0
 10
66.71237839082947
 20
122.9381709766211
 30
0.0
 10
66.60025913088893
 20
122.9991770445299
 30
0.0
 10
66.51558557492184
 20
123.0899349278719
 30
0.0
 10
66.45554708871273
 20
123.2100119002901
 30
0.0
 10
66.39650924394044
 20
123.3280875898347
 30
0.0
 10
66.36715709512711
 20
123.4635077309508
 30
0.0
 10
66.36715709512711
 20
123.8137322338372
 30
0.0
 10
66.41385369551197
 20
124.0071895782888
 30
0.0
 10
66.50557916055367
 20
124.1939759798283
 30
0.0
 10
66.59664477254861
 20
124.379418680618
 30
0.0
 10
66.71738159801357
 20
124.5175167110662
 30
0.0
 10
66.86247460635225
 20
124.6092421761079
 30
0.0
 10
67.00800587939423
 20
124.7012447050425
 30
0.0
 10
67.16767024458187
 20
124.7459965058064
 30
0.0
 10
67.55625266921305
 20
124.7459965058064
 30
0.0
 10
67.72969718492824
 20
124.6776193409572
 30
0.0
 10
67.85811283598665
 20
124.5442004827147
 30
0.0
 10
67.98816375813074
 20
124.409082641526
 30
0.0
 10
68.05323791616624
 20
124.2256629586608
 30
0.0
 10
68.05323791616624
 20
123.9037899631509
 30
0.0
 10
68.04489923752607
 20
123.8120644981092
 30
0.0
 10
68.02988961597381
 20
123.7203390330675
 30
0.0
  0
LINE
  5
D7
330
40
100
AcDbEntity
  8
0012874
  6
Continuous
 62
     7
100
AcDbLine
 10
66.735726691
 20
123.9588252422
 30
0.0
 11
67.7580486923
 21
123.9588252422
 31
0.0
  0
LINE
  5
D8
330
40
100
AcDbEntity
  8
0012874
  6
Continuous
 62
     7
100
AcDbLine
 10
65.2197549142
 20
124.1689599439
 30
0.0
 11
64.9112238046
 21
124.1489471152
 31
0.0
  0
SPLINE
  5
D9
330
40
100
AcDbEntity
  8
0012874
  6
Continuous
 62
     7
100
AcDbSpline
210
0.0
220
0.0
230
1.0
 70
     8
 71
     3
 72
    38
 73
    34
 74
     0
 42
0.0000000021250207
 43
0.0000000001
 12
1.0
 22
0.0
 32
0.0
 13
1.0
 23
0.0
 33
0.0
 40
0.0
 40
0.0
 40
0.0
 40
0.0
 40
0.0637829389361779
 40
0.0637829389361779
 40
0.0637829389361779
 40
0.1346526294780071
 40
0.1346526294780071
 40
0.1929631343541968
 40
0.1929631343541968
 40
0.1929631343541968
 40
0.2323447494221134
 40
0.2323447494221134
 40
0.2717263644900302
 40
0.2717263644900302
 40
0.2717263644900302
 40
0.3365437187236583
 40
0.3365437187236583
 40
0.3365437187236583
 40
0.4477445621872879
 40
0.4477445621872879
 40
0.4477445621872879
 40
0.5405398669022413
 40
0.5405398669022413
 40
0.6024034033788765
 40
0.6024034033788765
 40
0.6642669398555113
 40
0.6642669398555113
 40
0.6642669398555113
 40
0.7552966033932317
 40
0.7552966033932317
 40
0.8776483016966168
 40
0.8776483016966168
 40
1.0
 40
1.0
 40
1.0
 40
1.0
 10
64.91122380455622
 20
124.1489471151714
 30
0.0
 10
64.90788833310016
 20
124.2590176732215
 30
0.0
 10
64.8678626756274
 20
124.3457399310791
 30
0.0
 10
64.7961500393221
 20
124.4107816244722
 30
0.0
 10
64.72435228416063
 20
124.4759005186885
 30
0.0
 10
64.61937005215084
 20
124.50584256097
 30
0.0
 10
64.37921610731439
 20
124.50584256097
 30
0.0
 10
64.29749705664089
 20
124.4808265250496
 30
0.0
 10
64.23745857043178
 20
124.4324621889367
 30
0.0
 10
64.17761674749056
 20
124.3842562760118
 30
0.0
 10
64.14906857684616
 20
124.3290625737988
 30
0.0
 10
64.14906857684616
 20
124.2156565442926
 30
0.0
 10
64.17575234849465
 20
124.1656244724517
 30
0.0
 10
64.22578442033559
 20
124.1222633435229
 30
0.0
 10
64.26064179018412
 20
124.0920536229875
 30
0.0
 10
64.34919686420984
 20
124.0455475000335
 30
0.0
 10
64.49095440109245
 20
123.9855090138244
 30
0.0
 10
64.72948503879026
 20
123.8844842731524
 30
0.0
 10
64.87620135426758
 20
123.800390348013
 30
0.0
 10
64.93957531193276
 20
123.7403518618039
 30
0.0
 10
65.03889201785034
 20
123.6462623509346
 30
0.0
 10
65.08800379172749
 20
123.530217160072
 30
0.0
 10
65.08800379172749
 20
123.3050728367878
 30
0.0
 10
65.05965228435096
 20
123.2166828432022
 30
0.0
 10
64.94958172630095
 20
123.043238327487
 30
0.0
 10
64.86452720417135
 20
122.9748611626377
 30
0.0
 10
64.75278891039329
 20
122.9231613550688
 30
0.0
 10
64.63967695318715
 20
122.8708259718838
 30
0.0
 10
64.50596402264475
 20
122.8447777758513
 30
0.0
 10
64.14239763393404
 20
122.8447777758513
 30
0.0
 10
63.96394991103474
 20
122.8964775834203
 30
0.0
 10
63.67042842290132
 20
123.1032768136961
 30
0.0
 10
63.60038352232403
 20
123.2717181222272
 30
0.0
 10
63.60705446523615
 20
123.5052011241515
 30
0.0
  0
LINE
  5
DA
330
40
100
AcDbEntity
  8
0012874
  6
Continuous
 62
     7
100
AcDbLine
 10
63.6070544652
 20
123.5052011242
 30
0.0
 11
63.9205887821
 21
123.5235462172
 31
0.0
  0
SPLINE
  5
DB
330
40
100
AcDbEntity
  8
0012874
  6
Continuous
 62
     7
100
AcDbSpline
210
0.0
220
0.0
230
1.0
 70
     8
 71
     3
 72
    41
 73
    37
 74
     0
 42
0.0000000021481696
 43
0.0000000001
 12
1.0
 22
0.0
 32
0.0
 13
1.0
 23
0.0
 33
0.0
 40
0.0
 40
0.0
 40
0.0
 40
0.0
 40
0.050716169285775
 40
0.050716169285775
 40
0.050716169285775
 40
0.1030511479805799
 40
0.1030511479805799
 40
0.1553861266753847
 40
0.1553861266753847
 40
0.227235843188591
 40
0.227235843188591
 40
0.227235843188591
 40
0.2769645081253549
 40
0.2769645081253549
 40
0.3131308098975472
 40
0.3131308098975472
 40
0.3131308098975472
 40
0.391519428840655
 40
0.391519428840655
 40
0.391519428840655
 40
0.4674355675235909
 40
0.4674355675235909
 40
0.4674355675235909
 40
0.5193141120191235
 40
0.5193141120191235
 40
0.5711926565146568
 40
0.5711926565146568
 40
0.6622447958333472
 40
0.6622447958333472
 40
0.6622447958333472
 40
0.7738226346552775
 40
0.7738226346552775
 40
0.897098150127895
 40
0.897098150127895
 40
0.897098150127895
 40
1.0
 40
1.0
 40
1.0
 40
1.0
 10
63.92058878210594
 20
123.5235462171599
 30
0.0
 10
63.92058878210594
 20
123.4351562235742
 30
0.0
 10
63.93393066793018
 20
123.3601081158128
 30
0.0
 10
63.96061443957868
 20
123.2967341581477
 30
0.0
 10
63.98670175044913
 20
123.2347767948303
 30
0.0
 10
64.0373302830681
 20
123.1833281286416
 30
0.0
 10
64.1840910271348
 20
123.1032768136961
 30
0.0
 10
64.26914554926435
 20
123.0849317206878
 30
0.0
 10
64.50262855118868
 20
123.0849317206878
 30
0.0
 10
64.60436043059856
 20
123.1116154923363
 30
0.0
 10
64.67273759544781
 20
123.1666507713613
 30
0.0
 10
64.7403001586942
 20
123.2210303954376
 30
0.0
 10
64.77446947485771
 20
123.2850600080515
 30
0.0
 10
64.77446947485771
 20
123.4118079233818
 30
0.0
 10
64.75445664612134
 20
123.4635077309508
 30
0.0
 10
64.71276325292055
 20
123.5102043313356
 30
0.0
 10
64.67024131819416
 20
123.5578288982292
 30
0.0
 10
64.56767024458188
 20
123.6169394179296
 30
0.0
 10
64.40423214323488
 20
123.6886520542349
 30
0.0
 10
64.24140766612236
 20
123.7600954472537
 30
0.0
 10
64.13739442674992
 20
123.8087290266531
 30
0.0
 10
64.09069782636506
 20
123.8370805340297
 30
0.0
 10
64.01514768818417
 20
123.8829502607824
 30
0.0
 10
63.95727896812262
 20
123.9388124134395
 30
0.0
 10
63.88056312463319
 20
124.0655603287699
 30
0.0
 10
63.86055029589682
 20
124.1389407008032
 30
0.0
 10
63.86055029589682
 20
124.3640850240874
 30
0.0
 10
63.91892104637789
 20
124.4874974679617
 30
0.0
 10
64.032327075884
 20
124.5908970830996
 30
0.0
 10
64.14664378205595
 20
124.6951270210799
 30
0.0
 10
64.30583573528104
 20
124.7459965058064
 30
0.0
 10
64.7411147602971
 20
124.7459965058064
 30
0.0
 10
64.91455927601228
 20
124.6926289625095
 30
0.0
 10
65.03296851270247
 20
124.5858938759155
 30
0.0
 10
65.15146846457893
 20
124.479077017886
 30
0.0
 10
65.21475170705781
 20
124.3407367238949
 30
0.0
 10
65.21975491424192
 20
124.1689599439078
 30
0.0
  0
LINE
  5
DC
330
40
100
AcDbEntity
  8
0012874
  6
Continuous
 62
     7
100
AcDbLine
 10
63.3485554274
 20
124.7059708483
 30
0.0
 11
63.6720961586
 21
124.7059708483
 31
0.0
  0
SPLINE
  5
DD
330
40
100
AcDbEntity
  8
0012874
  6
Continuous
 62
     7
100
AcDbSpline
210
0.0
220
0.0
230
1.0
 70
     8
 71
     3
 72
    15
 73
    11
 74
     0
 42
0.0000000029305112
 43
0.0000000001
 12
1.0
 22
0.0
 32
0.0
 13
1.0
 23
0.0
 33
0.0
 40
0.0
 40
0.0
 40
0.0
 40
0.0
 40
0.6944103924140683
 40
0.6944103924140683
 40
0.6944103924140683
 40
0.810085554607613
 40
0.810085554607613
 40
0.9257607168011595
 40
0.9257607168011595
 40
1.0
 40
1.0
 40
1.0
 40
1.0
 10
63.67209615862934
 20
124.7059708483337
 30
0.0
 10
63.2862932935449
 20
124.0194196402944
 30
0.0
 10
62.90049042846044
 20
123.332868432255
 30
0.0
 10
62.51468756337597
 20
122.6463172242157
 30
0.0
 10
62.40168793943901
 20
122.4452299971809
 30
0.0
 10
62.30288512591606
 20
122.3094346071535
 30
0.0
 10
62.12944061020087
 20
122.1793512203671
 30
0.0
 10
62.02937646651902
 20
122.1459965058065
 30
0.0
 10
61.84592553643564
 20
122.1459965058065
 30
0.0
 10
61.7742129001303
 20
122.1576706559027
 30
0.0
 10
61.70583573528104
 20
122.1826866918231
 30
0.0
  0
LINE
  5
DE
330
40
100
AcDbEntity
  8
0012874
  6
Continuous
 62
     7
100
AcDbLine
 10
61.7058357353
 20
122.1826866918
 30
0.0
 11
61.725848564
 21
122.47620818
 31
0.0
  0
SPLINE
  5
DF
330
40
100
AcDbEntity
  8
0012874
  6
Continuous
 62
     7
100
AcDbSpline
210
0.0
220
0.0
230
1.0
 70
     8
 71
     3
 72
    16
 73
    12
 74
     0
 42
0.0000000120625217
 43
0.0000000001
 12
1.0
 22
0.0
 32
0.0
 13
1.0
 23
0.0
 33
0.0
 40
0.0
 40
0.0
 40
0.0
 40
0.0
 40
0.2095933503784936
 40
0.2095933503784936
 40
0.4250087382675028
 40
0.4250087382675028
 40
0.4250087382675028
 40
0.7516385063522185
 40
0.7516385063522185
 40
0.7516385063522185
 40
1.0
 40
1.0
 40
1.0
 40
1.0
 10
61.72584856401742
 20
122.4762081799565
 30
0.0
 10
61.78922252168259
 20
122.4578630869482
 30
0.0
 10
61.85259647934777
 20
122.4495244083081
 30
0.0
 10
61.97434118749401
 20
122.4495244083081
 30
0.0
 10
62.02604099506296
 20
122.4628662941323
 30
0.0
 10
62.06439891680768
 20
122.4928855372368
 30
0.0
 10
62.11323444203013
 20
122.5311046439327
 30
0.0
 10
62.16946626767361
 20
122.6012883595589
 30
0.0
 10
62.22783701815468
 20
122.7046879746968
 30
0.0
 10
62.26136171958835
 20
122.764074588665
 30
0.0
 10
62.29454644727592
 20
122.8236531232963
 30
0.0
 10
62.32790116183654
 20
122.883135697596
 30
0.0
  0
LINE
  5
E0
330
40
100
AcDbEntity
  8
0012874
  6
Continuous
 62
     7
100
AcDbLine
 10
62.3279011618
 20
122.8831356976
 30
0.0
 11
62.0243732593
 21
124.7059708483
 31
0.0
  0
LINE
  5
E1
330
40
100
AcDbEntity
  8
0012874
  6
Continuous
 62
     7
100
AcDbLine
 10
62.0243732593
 20
124.7059708483
 30
0.0
 11
62.3262334261
 21
124.7059708483
 31
0.0
  0
SPLINE
  5
E2
330
40
100
AcDbEntity
  8
0012874
  6
Continuous
 62
     7
100
AcDbSpline
210
0.0
220
0.0
230
1.0
 70
     8
 71
     3
 72
    11
 73
     7
 74
     0
 42
0.0000000067604395
 43
0.0000000001
 12
1.0
 22
0.0
 32
0.0
 13
1.0
 23
0.0
 33
0.0
 40
0.0
 40
0.0
 40
0.0
 40
0.0
 40
0.62825676723626
 40
0.62825676723626
 40
0.62825676723626
 40
1.0
 40
1.0
 40
1.0
 40
1.0
 10
62.32623342610849
 20
124.7059708483337
 30
0.0
 10
62.37237411458402
 20
124.3996633862854
 30
0.0
 10
62.41851480305954
 20
124.0933559242371
 30
0.0
 10
62.46465549153504
 20
123.7870484621887
 30
0.0
 10
62.49202292794312
 20
123.6053682518171
 30
0.0
 10
62.51468756337597
 20
123.423482073478
 30
0.0
 10
62.53470039211234
 20
123.2416988791227
 30
0.0
  0
LINE
  5
E3
330
40
100
AcDbEntity
  8
0012874
  6
Continuous
 62
     7
100
AcDbLine
 10
62.5347003921
 20
123.2416988791
 30
0.0
 11
63.3485554274
 21
124.7059708483
 31
0.0
  0
LINE
  5
E4
330
40
100
AcDbEntity
  8
0012874
  6
Continuous
 62
     7
100
AcDbLine
 10
61.7208453568
 20
124.6809548124
 30
0.0
 11
61.3939691541
 21
124.6559387765
 31
0.0
  0
SPLINE
  5
E5
330
40
100
AcDbEntity
  8
0012874
  6
Continuous
 62
     7
100
AcDbSpline
210
0.0
220
0.0
230
1.0
 70
     8
 71
     3
 72
    52
 73
    48
 74
     0
 42
0.0000000015488647
 43
0.0000000001
 12
1.0
 22
0.0
 32
0.0
 13
1.0
 23
0.0
 33
0.0
 40
0.0
 40
0.0
 40
0.0
 40
0.0
 40
0.026443311087185
 40
0.026443311087185
 40
0.026443311087185
 40
0.0592893318230168
 40
0.0592893318230168
 40
0.0592893318230168
 40
0.0954649509175289
 40
0.0954649509175289
 40
0.0954649509175289
 40
0.1375755765023413
 40
0.1375755765023413
 40
0.2109295694565278
 40
0.2109295694565278
 40
0.2109295694565278
 40
0.2566304236944028
 40
0.2566304236944028
 40
0.2834706079293457
 40
0.2834706079293457
 40
0.2834706079293457
 40
0.3189590920973943
 40
0.3189590920973943
 40
0.3189590920973943
 40
0.3918908840021614
 40
0.3918908840021614
 40
0.3918908840021614
 40
0.4574597730848548
 40
0.4574597730848548
 40
0.4574597730848548
 40
0.5059181728425448
 40
0.5059181728425448
 40
0.5059181728425448
 40
0.5559035550512076
 40
0.5559035550512076
 40
0.6172492513982034
 40
0.6172492513982034
 40
0.6172492513982034
 40
0.6864613307814712
 40
0.6864613307814712
 40
0.6864613307814712
 40
0.7645155415926748
 40
0.7645155415926748
 40
0.8819422304236907
 40
0.8819422304236907
 40
0.8819422304236907
 40
1.0
 40
1.0
 40
1.0
 40
1.0
 10
61.39396915413928
 20
124.6559387764928
 30
0.0
 10
61.39396915413928
 20
124.7259836770701
 30
0.0
 10
61.38729821122715
 20
124.7826866918231
 30
0.0
 10
61.37562406113095
 20
124.8227123492959
 30
0.0
 10
61.35496548512068
 20
124.8935417527596
 30
0.0
 10
61.31725331064988
 20
124.9511280003542
 30
0.0
 10
61.27055671026502
 20
125.0011600721951
 30
0.0
 10
61.22474745620573
 20
125.0502414158301
 30
0.0
 10
61.15715068075892
 20
125.0878823300528
 30
0.0
 10
61.07376389435737
 20
125.1162338374293
 30
0.0
 10
60.98986883424884
 20
125.1447581578662
 30
0.0
 10
60.89698390718612
 20
125.1612627020861
 30
0.0
 10
60.61346883342089
 20
125.1612627020861
 30
0.0
 10
60.47171129653825
 20
125.1195693088853
 30
0.0
 10
60.36997941712838
 20
125.0378502582118
 30
0.0
 10
60.29240927451399
 20
124.9755398157839
 30
0.0
 10
60.25490565189425
 20
124.8910895141451
 30
0.0
 10
60.25490565189425
 20
124.724315941342
 30
0.0
 10
60.27158300917457
 20
124.669280662317
 30
0.0
 10
60.30326998800714
 20
124.6209163262041
 30
0.0
 10
60.33572146133736
 20
124.5713851300685
 30
0.0
 10
60.3916599815928
 20
124.5241876539784
 30
0.0
 10
60.47504676799431
 20
124.4774910535935
 30
0.0
 10
60.53370190702828
 20
124.4446441757345
 30
0.0
 10
60.67350731962998
 20
124.3790946456397
 30
0.0
 10
60.89531617145808
 20
124.2806982376859
 30
0.0
 10
61.07548740509228
 20
124.2007726528406
 30
0.0
 10
61.19884407395968
 20
124.1372729650752
 30
0.0
 10
61.26722123880896
 20
124.0922441004184
 30
0.0
 10
61.35954459748924
 20
124.0314457910436
 30
0.0
 10
61.42732386869989
 20
123.9571575064479
 30
0.0
 10
61.47735594054082
 20
123.8704352485903
 30
0.0
 10
61.52624965780601
 20
123.7856861386639
 30
0.0
 10
61.55073631257418
 20
123.6869843185069
 30
0.0
 10
61.55073631257418
 20
123.4418271664864
 30
0.0
 10
61.50904291937343
 20
123.315079251156
 30
0.0
 10
61.42565613297188
 20
123.2016732216499
 30
0.0
 10
61.34126271214718
 20
123.0868981693284
 30
0.0
 10
61.22886331706423
 20
122.9965417271021
 30
0.0
 10
61.08210257299753
 20
122.934835505165
 30
0.0
 10
60.93616316086842
 20
122.8734746159744
 30
0.0
 10
60.77023599185577
 20
122.8397745686673
 30
0.0
 10
60.29826678082306
 20
122.8397745686673
 30
0.0
 10
60.06645151462678
 20
122.9014807906044
 30
0.0
 10
59.88633605599946
 20
123.0265609702067
 30
0.0
 10
59.70700194154455
 20
123.1510985496893
 30
0.0
 10
59.61616286805846
 20
123.3734500016371
 30
0.0
 10
59.61449513233044
 20
123.695322997147
 30
0.0
  0
LINE
  5
E6
330
40
100
AcDbEntity
  8
0012874
  6
Continuous
 62
     7
100
AcDbLine
 10
59.6144951323
 20
123.6953229971
 30
0.0
 11
59.9430390708
 21
123.7253422403
 31
0.0
  0
SPLINE
  5
E7
330
40
100
AcDbEntity
  8
0012874
  6
Continuous
 62
     7
100
AcDbSpline
210
0.0
220
0.0
230
1.0
 70
     8
 71
     3
 72
    53
 73
    49
 74
     0
 42
0.0000000015555073
 43
0.0000000001
 12
1.0
 22
0.0
 32
0.0
 13
1.0
 23
0.0
 33
0.0
 40
0.0
 40
0.0
 40
0.0
 40
0.0
 40
0.0139279295162094
 40
0.0139279295162094
 40
0.0139279295162094
 40
0.0577976464619989
 40
0.0577976464619989
 40
0.0577976464619989
 40
0.1039292770824251
 40
0.1039292770824251
 40
0.1039292770824251
 40
0.1600699665979061
 40
0.1600699665979061
 40
0.239987889319944
 40
0.239987889319944
 40
0.239987889319944
 40
0.3145741291728393
 40
0.3145741291728393
 40
0.3661263831888107
 40
0.3661263831888107
 40
0.4176786372047812
 40
0.4176786372047812
 40
0.4176786372047812
 40
0.4884441251585018
 40
0.4884441251585018
 40
0.4884441251585018
 40
0.5436731416407827
 40
0.5436731416407827
 40
0.5436731416407827
 40
0.5942702858438738
 40
0.5942702858438738
 40
0.6515641108973734
 40
0.6515641108973734
 40
0.6515641108973734
 40
0.7140850984473004
 40
0.7140850984473004
 40
0.7140850984473004
 40
0.7862250893864359
 40
0.7862250893864359
 40
0.8716724572949273
 40
0.8716724572949273
 40
0.8716724572949273
 40
0.9374079905604938
 40
0.9374079905604938
 40
0.9374079905604938
 40
0.9945572165704776
 40
0.9945572165704776
 40
1.0
 40
1.0
 40
1.0
 40
1.0
 10
59.94303907075249
 20
123.7253422402516
 30
0.0
 10
59.94192724693382
 20
123.6958789090564
 30
0.0
 10
59.94081542311513
 20
123.6664155778612
 30
0.0
 10
59.93970359929643
 20
123.636952246666
 30
0.0
 10
59.93605865110735
 20
123.5403611196549
 30
0.0
 10
59.96138416376085
 20
123.4501658451265
 30
0.0
 10
60.00641302841767
 20
123.370114530181
 30
0.0
 10
60.0510410426473
 20
123.2907758382173
 30
0.0
 10
60.12482226510784
 20
123.2283569932984
 30
0.0
 10
60.22655414451775
 20
123.1849958643696
 30
0.0
 10
60.33029891305852
 20
123.1407767826965
 30
0.0
 10
60.45169846780188
 20
123.1182864352484
 30
0.0
 10
60.79525202777625
 20
123.1182864352484
 30
0.0
 10
60.94868371475506
 20
123.1616475641772
 30
0.0
 10
61.053751065621
 20
123.2500375577628
 30
0.0
 10
61.1597949941064
 20
123.3392491166473
 30
0.0
 10
61.21218595978392
 20
123.4401594307583
 30
0.0
 10
61.21218595978392
 20
123.6319490394819
 30
0.0
 10
61.18550218813542
 20
123.7036616757872
 30
0.0
 10
61.07209615862935
 20
123.8337450625736
 30
0.0
 10
60.91699673592249
 20
123.9204673204312
 30
0.0
 10
60.66183316953377
 20
124.0305378784812
 30
0.0
 10
60.46498088817068
 20
124.1154545488732
 30
0.0
 10
60.32995375965564
 20
124.180634094004
 30
0.0
 10
60.25824112335032
 20
124.2273306943889
 30
0.0
 10
60.14504791541833
 20
124.3010378995539
 30
0.0
 10
60.0614483074427
 20
124.3824301170957
 30
0.0
 10
60.00808076414571
 20
124.4691523749533
 30
0.0
 10
59.95396882378557
 20
124.5570842780386
 30
0.0
 10
59.92802944920022
 20
124.6559387764928
 30
0.0
 10
59.92802944920022
 20
124.8977604570572
 30
0.0
 10
59.96305189948886
 20
125.0145019580194
 30
0.0
 10
60.0347645357942
 20
125.1179015731573
 30
0.0
 10
60.10671650814201
 20
125.2216462774727
 30
0.0
 10
60.20820905150939
 20
125.3013525032407
 30
0.0
 10
60.34496338120793
 20
125.3563877822657
 30
0.0
 10
60.48028242931996
 20
125.4108454479693
 30
0.0
 10
60.63348166215724
 20
125.4397745686673
 30
0.0
 10
61.00872220096418
 20
125.4397745686673
 30
0.0
 10
61.18049898095135
 20
125.4047521183786
 30
0.0
 10
61.32058878210594
 20
125.3363749535293
 30
0.0
 10
61.4613359807479
 20
125.2676769160969
 30
0.0
 10
61.56241046267039
 20
125.1746045879104
 30
0.0
 10
61.62578442033556
 20
125.0611985584043
 30
0.0
 10
61.68986856737471
 20
124.9465216637027
 30
0.0
 10
61.72084535683331
 20
124.8377219708481
 30
0.0
 10
61.72084535683331
 20
124.722648205614
 30
0.0
 10
61.72084535683331
 20
124.7059708483337
 30
0.0
 10
61.72084535683331
 20
124.6809548124132
 30
0.0
  0
LINE
  5
E8
330
40
100
AcDbEntity
  8
0012874
  6
Continuous
 62
     7
100
AcDbLine
 10
70.5200316894
 20
121.2690308437
 30
0.0
 11
70.6761615856
 21
121.7690308437
 31
0.0
  0
LINE
  5
E9
330
40
100
AcDbEntity
  8
0012874
  6
Continuous
 62
     7
100
AcDbLine
 10
70.6761615856
 20
121.7690308437
 30
0.0
 11
58.5103461966
 21
121.7690308437
 31
0.0
  0
ENDBLK
  5
EB
330
40
100
AcDbEntity
  8
0
100
AcDbBlockEnd
  0
BLOCK
  5
F2
330
EC
100
AcDbEntity
  8
0
100
AcDbBlockBegin
  2
SE1
 70
     0
 10
0.0
 20
0.0
 30
0.0
  3
SE1
  1

  0
LINE
  5
EE
330
EC
100
AcDbEntity
  8
0012874
  6
Continuous
 62
     7
100
AcDbLine
 10
257.7286415316
 20
67.3656242197
 30
0.0
 11
47.7286415316
 21
67.3656242197
 31
0.0
  0
LINE
  5
EF
330
EC
100
AcDbEntity
  8
0012874
  6
Continuous
 62
     7
100
AcDbLine
 10
257.7286415316
 20
79.3656242197
 30
0.0
 11
47.7286415316
 21
79.3656242197
 31
0.0
  0
LINE
  5
F0
330
EC
100
AcDbEntity
  8
0012874
  6
Continuous
 62
     7
100
AcDbLine
 10
47.7286415316
 20
67.3656242197
 30
0.0
 11
47.7286415316
 21
79.3656242197
 31
0.0
  0
LINE
  5
F1
330
EC
100
AcDbEntity
  8
0012874
  6
Continuous
 62
     7
100
AcDbLine
 10
257.7286415316
 20
67.3656242197
 30
0.0
 11
257.7286415316
 21
79.3656242197
 31
0.0
  0
ENDBLK
  5
F3
330
EC
100
AcDbEntity
  8
0
100
AcDbBlockEnd
  0
BLOCK
  5
FD
330
F4
100
AcDbEntity
  8
0
100
AcDbBlockBegin
  2
GDimGGroup
 70
     0
 10
0.0
 20
0.0
 30
0.0
  3
GDimGGroup
  1

  0
HATCH
  5
F6
330
F4
100
AcDbEntity
  8
Default
  6
Continuous
 62
     7
100
AcDbHatch
 10
0.0
 20
0.0
 30
0.0
210
0.0
220
0.0
230
1.0
  2
SOLID
 70
     1
 71
     0
 91
        1
 92
        1
 93
        3
 72
     1
 10
51.22864163963989
 20
158.4783175583677
 11
47.72864153160647
 21
157.8949842070288
 72
     1
 10
47.72864153160647
 20
157.8949842070288
 11
51.22864163963989
 21
157.3116508556899
 72
     1
 10
51.22864163963989
 20
157.3116508556899
 11
51.22864163963989
 21
158.4783175583677
 97
        0
 75
     0
 76
     1
 98
        0
  0
HATCH
  5
F7
330
F4
100
AcDbEntity
  8
Default
  6
Continuous
 62
     7
100
AcDbHatch
 10
0.0
 20
0.0
 30
0.0
210
0.0
220
0.0
230
1.0
  2
SOLID
 70
     1
 71
     0
 91
        1
 92
        1
 93
        3
 72
     1
 10
254.2286348670621
 20
158.4783175583677
 11
254.2286348670621
 21
157.3116508556899
 72
     1
 10
254.2286348670621
 20
157.3116508556899
 11
257.7286349750956
 21
157.8949842070288
 72
     1
 10
257.7286349750956
 20
157.8949842070288
 11
254.2286348670622
 21
158.4783175583677
 97
        0
 75
     0
 76
     1
 98
        0
  0
LINE
  5
F8
330
F4
100
AcDbEntity
  8
Default
  6
Continuous
 62
     7
100
AcDbLine
 10
47.7286415316
 20
133.0244842385
 30
0.0
 11
47.7286415316
 21
159.644984261
 31
0.0
  0
LINE
  5
F9
330
F4
100
AcDbEntity
  8
Default
  6
Continuous
 62
     7
100
AcDbLine
 10
257.7286415316
 20
133.0244842385
 30
0.0
 11
257.7286415316
 21
159.644984261
 31
0.0
  0
LINE
  5
FA
330
F4
100
AcDbEntity
  8
Default
  6
Continuous
 62
     7
100
AcDbLine
 10
47.7286415316
 20
157.894984207
 30
0.0
 11
257.7286349751
 21
157.894984207
 31
0.0
  0
TEXT
  5
FC
330
F4
100
AcDbEntity
  8
Default
  6
Continuous
 62
     7
100
AcDbText
 10
149.904774617
 20
158.769984207
 30
0.0
 40
3.5
  1
210
  7
SEACAD_Solid_Edge_ISO
 11
149.904774617
 21
162.269984207
 31
0.0
100
AcDbText
 73
     3
  0
ENDBLK
  5
FE
330
F4
100
AcDbEntity
  8
0
100
AcDbBlockEnd
  0
BLOCK
  5
107
330
FF
100
AcDbEntity
  8
0
100
AcDbBlockBegin
  2
GDimGGroup1
 70
     0
 10
0.0
 20
0.0
 30
0.0
  3
GDimGGroup1
  1

  0
HATCH
  5
101
330
FF
100
AcDbEntity
  8
Default
  6
Continuous
 62
     7
100
AcDbHatch
 10
0.0
 20
0.0
 30
0.0
210
0.0
220
0.0
230
1.0
  2
SOLID
 70
     1
 71
     0
 91
        1
 92
        1
 93
        3
 72
     1
 10
34.8121916861484
 20
144.5244841304667
 11
35.9788583888262
 21
144.5244841304667
 72
     1
 10
35.9788583888262
 20
144.5244841304667
 11
35.3955250374873
 21
148.0244842385001
 72
     1
 10
35.3955250374873
 20
148.0244842385001
 11
34.8121916861484
 21
144.5244841304667
 97
        0
 75
     0
 76
     1
 98
        0
  0
HATCH
  5
102
330
FF
100
AcDbEntity
  8
Default
  6
Continuous
 62
     7
100
AcDbHatch
 10
0.0
 20
0.0
 30
0.0
210
0.0
220
0.0
230
1.0
  2
SOLID
 70
     1
 71
     0
 91
        1
 92
        1
 93
        3
 72
     1
 10
34.8121916861484
 20
121.5244850170858
 11
35.3955250374873
 21
118.0244849090523
 72
     1
 10
35.3955250374873
 20
118.0244849090523
 11
35.9788583888262
 21
121.5244850170858
 72
     1
 10
35.9788583888262
 20
121.5244850170858
 11
34.8121916861484
 21
121.5244850170858
 97
        0
 75
     0
 76
     1
 98
        0
  0
LINE
  5
103
330
FF
100
AcDbEntity
  8
Default
  6
Continuous
 62
     7
100
AcDbLine
 10
47.7286415316
 20
148.0244842385
 30
0.0
 11
33.6455249835
 21
148.0244842385
 31
0.0
  0
LINE
  5
104
330
FF
100
AcDbEntity
  8
Default
  6
Continuous
 62
     7
100
AcDbLine
 10
47.7286415316
 20
118.0244842385
 30
0.0
 11
33.6455249835
 21
118.0244842385
 31
0.0
  0
LINE
  5
105
330
FF
100
AcDbEntity
  8
Default
  6
Continuous
 62
     7
100
AcDbLine
 10
35.3955250375
 20
148.0244842385
 30
0.0
 11
35.3955250375
 21
118.0244849091
 31
0.0
  0
TEXT
  5
106
330
FF
100
AcDbEntity
  8
Default
  6
Continuous
 62
     7
100
AcDbText
 10
34.5205250375
 20
131.0756209374
 30
0.0
 40
3.5
  1
30
 50
90.0
  7
SEACAD_Solid_Edge_ISO
 11
31.0205250375
 21
131.0756209374
 31
0.0
100
AcDbText
 73
     3
  0
ENDBLK
  5
108
330
FF
100
AcDbEntity
  8
0
100
AcDbBlockEnd
  0
BLOCK
  5
111
330
109
100
AcDbEntity
  8
0
100
AcDbBlockBegin
  2
GDimGGroup2
 70
     0
 10
0.0
 20
0.0
 30
0.0
  3
GDimGGroup2
  1

  0
HATCH
  5
10B
330
109
100
AcDbEntity
  8
Default
  6
Continuous
 62
     7
100
AcDbHatch
 10
0.0
 20
0.0
 30
0.0
210
0.0
220
0.0
230
1.0
  2
SOLID
 70
     1
 71
     0
 91
        1
 92
        1
 93
        3
 72
     1
 10
34.8121916861484
 20
70.86562432768812
 11
35.3955250374873
 21
67.3656242196547
 72
     1
 10
35.3955250374873
 20
67.3656242196547
 11
35.9788583888262
 21
70.86562432768812
 72
     1
 10
35.9788583888262
 20
70.86562432768812
 11
34.8121916861484
 21
70.86562432768812
 97
        0
 75
     0
 76
     1
 98
        0
  0
HATCH
  5
10C
330
109
100
AcDbEntity
  8
Default
  6
Continuous
 62
     7
100
AcDbHatch
 10
0.0
 20
0.0
 30
0.0
210
0.0
220
0.0
230
1.0
  2
SOLID
 70
     1
 71
     0
 91
        1
 92
        1
 93
        3
 72
     1
 10
34.8121916861484
 20
75.86562421592942
 11
35.9788583888262
 21
75.86562421592942
 72
     1
 10
35.9788583888262
 20
75.86562421592942
 11
35.3955250374873
 21
79.36562432396283
 72
     1
 10
35.3955250374873
 20
79.36562432396283
 11
34.8121916861484
 21
75.86562421592942
 97
        0
 75
     0
 76
     1
 98
        0
  0
LINE
  5
10D
330
109
100
AcDbEntity
  8
Default
  6
Continuous
 62
     7
100
AcDbLine
 10
47.7286415316
 20
67.3656242197
 30
0.0
 11
33.6455249835
 21
67.3656242197
 31
0.0
  0
LINE
  5
10E
330
109
100
AcDbEntity
  8
Default
  6
Continuous
 62
     7
100
AcDbLine
 10
47.7286415316
 20
79.3656242197
 30
0.0
 11
33.6455249835
 21
79.3656242197
 31
0.0
  0
LINE
  5
10F
330
109
100
AcDbEntity
  8
Default
  6
Continuous
 62
     7
100
AcDbLine
 10
35.3955250375
 20
67.3656242197
 30
0.0
 11
35.3955250375
 21
79.365624324
 31
0.0
  0
TEXT
  5
110
330
109
100
AcDbEntity
  8
Default
  6
Continuous
 62
     7
100
AcDbText
 10
34.5205250375
 20
71.5758515445
 30
0.0
 40
3.5
  1
12
 50
90.0
  7
SEACAD_Solid_Edge_ISO
 11
31.0205250375
 21
71.5758515445
 31
0.0
100
AcDbText
 73
     3
  0
ENDBLK
  5
112
330
109
100
AcDbEntity
  8
0
100
AcDbBlockEnd
  0
BLOCK
  5
116
330
113
100
AcDbEntity
  8
0
100
AcDbBlockBegin
  2
SEANNOT_GROUP
 70
     0
 10
0.0
 20
0.0
 30
0.0
  3
SEANNOT_GROUP
  1

  0
TEXT
  5
115
330
113
100
AcDbEntity
  8
Default
  6
Continuous
 62
     7
100
AcDbText
 10
243.1483969886
 20
25.7525109624
 30
0.0
 40
3.5
  1
712220000
  7
SEACAD_Solid_Edge_ANSIB
 11
243.1483969886
 21
29.2525109624
 31
0.0
100
AcDbText
 73
     3
  0
ENDBLK
  5
117
330
113
100
AcDbEntity
  8
0
100
AcDbBlockEnd
  0
BLOCK
  5
11B
330
118
100
AcDbEntity
  8
0
100
AcDbBlockBegin
  2
SEANNOT_GROUP1
 70
     0
 10
0.0
 20
0.0
 30
0.0
  3
SEANNOT_GROUP1
  1

  0
TEXT
  5
11A
330
118
100
AcDbEntity
  8
Default
  6
Continuous
 62
     7
100
AcDbText
 10
243.1477357349
 20
20.0537100543
 30
0.0
 40
3.5
  1
14.10.2015
  7
SEACAD_Solid_Edge_ANSI
 11
243.1477357349
 21
23.5537100543
 31
0.0
100
AcDbText
 73
     3
  0
ENDBLK
  5
11C
330
118
100
AcDbEntity
  8
0
100
AcDbBlockEnd
  0
BLOCK
  5
11F
330
11D
100
AcDbEntity
  8
0
100
AcDbBlockBegin
  2
SEANNOT_GROUP2
 70
     0
 10
0.0
 20
0.0
 30
0.0
  3
SEANNOT_GROUP2
  1

  0
TEXT
  5
11E
330
11D
100
AcDbEntity
  8
Default
  6
Continuous
 62
     7
100
AcDbText
 10
243.1795282745
 20
31.5598894014
 30
0.0
 40
3.5
  1
DSR 20
  7
SEACAD_Solid_Edge_ANSIB
 11
243.1795282745
 21
35.0598894014
 31
0.0
100
AcDbText
 73
     3
  0
ENDBLK
  5
120
330
11D
100
AcDbEntity
  8
0
100
AcDbBlockEnd
  0
BLOCK
  5
123
330
121
100
AcDbEntity
  8
0
100
AcDbBlockBegin
  2
SEANNOT_GROUP3
 70
     0
 10
0.0
 20
0.0
 30
0.0
  3
SEANNOT_GROUP3
  1

  0
TEXT
  5
122
330
121
100
AcDbEntity
  8
Default
  6
Continuous
 62
     7
100
AcDbText
 10
243.2357917511
 20
14.1955389783
 30
0.0
 40
3.5
  1
1:1
  7
SEACAD_Solid_Edge_ANSI
 11
243.2357917511
 21
17.6955389783
 31
0.0
100
AcDbText
 73
     3
  0
ENDBLK
  5
124
330
121
100
AcDbEntity
  8
0
100
AcDbBlockEnd
  0
BLOCK
  5
16B
330
125
100
AcDbEntity
  8
0
100
AcDbBlockBegin
  2
Block1
 70
     0
 10
0.0
 20
0.0
 30
0.0
  3
Block1
  1

  0
LINE
  5
126
330
125
100
AcDbEntity
  8
Default
  6
Continuous
 62
     7
100
AcDbLine
 10
42.3415792923
 20
6.5926277851
 30
0.0
 11
40.225655308
 21
3.525
 31
0.0
  0
LINE
  5
127
330
125
100
AcDbEntity
  8
Default
  6
Continuous
 62
     7
100
AcDbLine
 10
40.225655308
 20
3.525
 30
0.0
 11
41.2882372215
 21
1.9958060288
 31
0.0
  0
LINE
  5
128
330
125
100
AcDbEntity
  8
Default
  6
Continuous
 62
     7
100
AcDbLine
 10
41.2882372215
 20
1.9958060288
 30
0.0
 11
40.2556847969
 21
0.5266710354
 31
0.0
  0
LINE
  5
129
330
125
100
AcDbEntity
  8
Default
  6
Continuous
 62
     7
100
AcDbLine
 10
40.2556847969
 20
0.5266710354
 30
0.0
 11
39.2231323722
 21
2.1459534731
 31
0.0
  0
LINE
  5
12A
330
125
100
AcDbEntity
  8
Default
  6
Continuous
 62
     7
100
AcDbLine
 10
39.2231323722
 20
2.1459534731
 30
0.0
 11
37.7031782438
 21
0.0
 31
0.0
  0
LINE
  5
12B
330
125
100
AcDbEntity
  8
Default
  6
Continuous
 62
     7
100
AcDbLine
 10
37.7031782438
 20
0.0
 30
0.0
 11
35.6265235911
 21
0.0
 31
0.0
  0
LINE
  5
12C
330
125
100
AcDbEntity
  8
Default
  6
Continuous
 62
     7
100
AcDbLine
 10
35.6265235911
 20
0.0
 30
0.0
 11
38.209059633
 21
3.525
 31
0.0
  0
LINE
  5
12D
330
125
100
AcDbEntity
  8
Default
  6
Continuous
 62
     7
100
AcDbLine
 10
38.209059633
 20
3.525
 30
0.0
 11
36.1046854522
 21
6.5926277851
 31
0.0
  0
LINE
  5
12E
330
125
100
AcDbEntity
  8
Default
  6
Continuous
 62
     7
100
AcDbLine
 10
36.1046854522
 20
6.5926277851
 30
0.0
 11
38.209059633
 21
6.5926277851
 31
0.0
  0
LINE
  5
12F
330
125
100
AcDbEntity
  8
Default
  6
Continuous
 62
     7
100
AcDbLine
 10
38.209059633
 20
6.5926277851
 30
0.0
 11
39.2231323722
 21
4.8855668414
 31
0.0
  0
LINE
  5
130
330
125
100
AcDbEntity
  8
Default
  6
Continuous
 62
     7
100
AcDbLine
 10
39.2231323722
 20
4.8855668414
 30
0.0
 11
40.225655308
 21
6.5926277851
 31
0.0
  0
LINE
  5
131
330
125
100
AcDbEntity
  8
Default
  6
Continuous
 62
     7
100
AcDbLine
 10
40.225655308
 20
6.5926277851
 30
0.0
 11
42.3415792923
 21
6.5926277851
 31
0.0
  0
SPLINE
  5
132
330
125
100
AcDbEntity
  8
Default
  6
Continuous
 62
     7
100
AcDbSpline
210
0.0
220
0.0
230
1.0
 70
     8
 71
     3
 72
    13
 73
     9
 74
     0
 42
0.0000000012369638
 43
0.0000000001
 12
1.0
 22
0.0
 32
0.0
 13
1.0
 23
0.0
 33
0.0
 40
0.0
 40
0.0
 40
0.0
 40
0.0
 40
0.9091644120227717
 40
0.9091644120227717
 40
0.9091644120227717
 40
0.9554905618911577
 40
0.9554905618911577
 40
1.0
 40
1.0
 40
1.0
 40
1.0
 10
40.88399410222804
 20
0.427342726081259
 30
0.0
 10
42.29076015727392
 20
2.423148754914811
 30
0.0
 10
43.69752621231979
 20
4.418954783748362
 30
0.0
 10
45.10429226736566
 20
6.414760812581914
 30
0.0
 10
45.18660375034128
 20
6.531537694833034
 30
0.0
 10
45.28446920052424
 20
6.592627785058978
 30
0.0
 10
45.51546526867628
 20
6.592627785058978
 30
0.0
 10
45.61941349934469
 20
6.53256880733945
 30
0.0
 10
45.71181192660551
 20
6.414760812581914
 30
0.0
  0
SPLINE
  5
133
330
125
100
AcDbEntity
  8
Default
  6
Continuous
 62
     7
100
AcDbSpline
210
0.0
220
0.0
230
1.0
 70
     8
 71
     3
 72
    16
 73
    12
 74
     0
 42
0.0000000006014133
 43
0.0000000001
 12
1.0
 22
0.0
 32
0.0
 13
1.0
 23
0.0
 33
0.0
 40
0.0
 40
0.0
 40
0.0
 40
0.0
 40
0.4418652593848311
 40
0.4418652593848311
 40
0.4418652593848311
 40
0.455090010411123
 40
0.455090010411123
 40
0.4811129075918901
 40
0.4811129075918901
 40
0.4811129075918901
 40
1.0
 40
1.0
 40
1.0
 40
1.0
 10
45.71181192660551
 20
6.414760812581914
 30
0.0
 10
47.11857798165137
 20
4.418954783748362
 30
0.0
 10
48.52534403669725
 20
2.42314875491481
 30
0.0
 10
49.93211009174313
 20
0.427342726081259
 30
0.0
 10
49.98455330475264
 20
0.352940532254955
 30
0.0
 10
50.01295871559633
 20
0.281815203145479
 30
0.0
 10
50.01295871559633
 20
0.0692988204456104
 30
0.0
 10
49.91363040629096
 20
0.0000000000000009
 30
0.0
 10
49.71497378768021
 20
0.0000000000000009
 30
0.0
 10
46.84754259501965
 20
0.0000000000000009
 30
0.0
 10
43.98011140235911
 20
0.0000000000000009
 30
0.0
 10
41.11268020969855
 20
0.0000000000000009
 30
0.0
  0
SPLINE
  5
134
330
125
100
AcDbEntity
  8
Default
  6
Continuous
 62
     7
100
AcDbSpline
210
0.0
220
0.0
230
1.0
 70
     8
 71
     3
 72
    11
 73
     7
 74
     0
 42
0.0000000141737466
 43
0.0000000001
 12
1.0
 22
0.0
 32
0.0
 13
1.0
 23
0.0
 33
0.0
 40
0.0
 40
0.0
 40
0.0
 40
0.0
 40
0.6560933575639865
 40
0.6560933575639865
 40
0.6560933575639865
 40
1.0
 40
1.0
 40
1.0
 40
1.0
 10
41.11268020969855
 20
0.0000000000000009
 30
0.0
 10
40.90709370904325
 20
0.0000000000000009
 30
0.0
 10
40.80545543905635
 20
0.0739187418086509
 30
0.0
 10
40.80314547837483
 20
0.2194462647444313
 30
0.0
 10
40.80230295367286
 20
0.2725253209688669
 30
0.0
 10
40.83086500655307
 20
0.3418741808650076
 30
0.0
 10
40.88399410222804
 20
0.427342726081259
 30
0.0
  0
LINE
  5
135
330
125
100
AcDbEntity
  8
Default
  6
Continuous
 62
     7
100
AcDbLine
 10
35.1853211009
 20
6.6087975098
 30
0.0
 11
35.1853211009
 21
0.0
 31
0.0
  0
SPLINE
  5
136
330
125
100
AcDbEntity
  8
Default
  6
Continuous
 62
     7
100
AcDbSpline
210
0.0
220
0.0
230
1.0
 70
     8
 71
     3
 72
    14
 73
    10
 74
     0
 42
0.0000000052950889
 43
0.0000000001
 12
1.0
 22
0.0
 32
0.0
 13
1.0
 23
0.0
 33
0.0
 40
0.0
 40
0.0
 40
0.0
 40
0.0
 40
0.1210177131110554
 40
0.1210177131110554
 40
0.1210177131110554
 40
0.2419901306838391
 40
0.2419901306838391
 40
0.2419901306838391
 40
1.0
 40
1.0
 40
1.0
 40
1.0
 10
33.47364023591088
 20
6.320052424639582
 30
0.0
 10
33.47364023591088
 20
6.400901048492791
 30
0.0
 10
33.50135976408912
 20
6.467889908256881
 30
0.0
 10
33.55910878112713
 20
6.523328964613368
 30
0.0
 10
33.61680971405436
 20
6.578721860223512
 30
0.0
 10
33.68153669724771
 20
6.608797509829621
 30
0.0
 10
33.76238532110091
 20
6.608797509829621
 30
0.0
 10
34.23669724770642
 20
6.608797509829621
 30
0.0
 10
34.71100917431193
 20
6.608797509829621
 30
0.0
 10
35.18532110091743
 20
6.608797509829621
 30
0.0
  0
LINE
  5
137
330
125
100
AcDbEntity
  8
Default
  6
Continuous
 62
     7
100
AcDbLine
 10
33.4736402359
 20
0.0
 30
0.0
 11
33.4736402359
 21
6.3200524246
 31
0.0
  0
LINE
  5
138
330
125
100
AcDbEntity
  8
Default
  6
Continuous
 62
     7
100
AcDbLine
 10
35.1853211009
 20
0.0
 30
0.0
 11
33.4736402359
 21
0.0
 31
0.0
  0
SPLINE
  5
139
330
125
100
AcDbEntity
  8
Default
  6
Continuous
 62
     7
100
AcDbSpline
210
0.0
220
0.0
230
1.0
 70
     8
 71
     3
 72
    16
 73
    12
 74
     0
 42
0.0000000009758823
 43
0.0000000001
 12
1.0
 22
0.0
 32
0.0
 13
1.0
 23
0.0
 33
0.0
 40
0.0
 40
0.0
 40
0.0
 40
0.0
 40
0.6159054655977501
 40
0.6159054655977501
 40
0.6159054655977501
 40
0.6376683166669079
 40
0.6376683166669079
 40
0.6603379531972834
 40
0.6603379531972834
 40
0.6603379531972834
 40
1.0
 40
1.0
 40
1.0
 40
1.0
 10
28.82137942332896
 20
0.0
 30
0.0
 10
28.82137942332896
 20
2.101294233289646
 30
0.0
 10
28.82137942332896
 20
4.202588466579293
 30
0.0
 10
28.82137942332896
 20
6.303882699868939
 30
0.0
 10
28.82137942332896
 20
6.38473132372215
 30
0.0
 10
28.84909895150721
 20
6.451720183486239
 30
0.0
 10
28.96228702490171
 20
6.564908256880734
 30
0.0
 10
29.02927588466579
 20
6.592627785058978
 30
0.0
 10
29.110124508519
 20
6.592627785058978
 30
0.0
 10
30.26895478374836
 20
6.592627785058978
 30
0.0
 10
31.42778505897771
 20
6.592627785058978
 30
0.0
 10
32.58661533420707
 20
6.592627785058978
 30
0.0
  0
LINE
  5
13A
330
125
100
AcDbEntity
  8
Default
  6
Continuous
 62
     7
100
AcDbLine
 10
30.5399901704
 20
0.0
 30
0.0
 11
28.8213794233
 21
0.0
 31
0.0
  0
LINE
  5
13B
330
125
100
AcDbEntity
  8
Default
  6
Continuous
 62
     7
100
AcDbLine
 10
30.5399901704
 20
2.5848460026
 30
0.0
 11
30.5399901704
 21
0.0
 31
0.0
  0
LINE
  5
13C
330
125
100
AcDbEntity
  8
Default
  6
Continuous
 62
     7
100
AcDbLine
 10
32.4872870249
 20
2.5848460026
 30
0.0
 11
30.5399901704
 21
2.5848460026
 31
0.0
  0
LINE
  5
13D
330
125
100
AcDbEntity
  8
Default
  6
Continuous
 62
     7
100
AcDbLine
 10
32.4872870249
 20
4.0424311927
 30
0.0
 11
32.4872870249
 21
2.5848460026
 31
0.0
  0
LINE
  5
13E
330
125
100
AcDbEntity
  8
Default
  6
Continuous
 62
     7
100
AcDbLine
 10
30.5399901704
 20
4.0424311927
 30
0.0
 11
32.4872870249
 21
4.0424311927
 31
0.0
  0
LINE
  5
13F
330
125
100
AcDbEntity
  8
Default
  6
Continuous
 62
     7
100
AcDbLine
 10
30.5399901704
 20
5.1419724771
 30
0.0
 11
30.5399901704
 21
4.0424311927
 31
0.0
  0
LINE
  5
140
330
125
100
AcDbEntity
  8
Default
  6
Continuous
 62
     7
100
AcDbLine
 10
32.5866153342
 20
5.1419724771
 30
0.0
 11
30.5399901704
 21
5.1419724771
 31
0.0
  0
LINE
  5
141
330
125
100
AcDbEntity
  8
Default
  6
Continuous
 62
     7
100
AcDbLine
 10
32.5866153342
 20
6.5926277851
 30
0.0
 11
32.5866153342
 21
5.1419724771
 31
0.0
  0
LINE
  5
142
330
125
100
AcDbEntity
  8
Default
  6
Continuous
 62
     7
100
AcDbLine
 10
28.0706422018
 20
4.0424311927
 30
0.0
 11
28.0706422018
 21
2.5848460026
 31
0.0
  0
LINE
  5
143
330
125
100
AcDbEntity
  8
Default
  6
Continuous
 62
     7
100
AcDbLine
 10
25.9362385321
 20
4.0424311927
 30
0.0
 11
28.0706422018
 21
4.0424311927
 31
0.0
  0
LINE
  5
144
330
125
100
AcDbEntity
  8
Default
  6
Continuous
 62
     7
100
AcDbLine
 10
25.9362385321
 20
2.5848460026
 30
0.0
 11
25.9362385321
 21
4.0424311927
 31
0.0
  0
LINE
  5
145
330
125
100
AcDbEntity
  8
Default
  6
Continuous
 62
     7
100
AcDbLine
 10
28.0706422018
 20
2.5848460026
 30
0.0
 11
25.9362385321
 21
2.5848460026
 31
0.0
  0
SPLINE
  5
146
330
125
100
AcDbEntity
  8
Default
  6
Continuous
 62
     7
100
AcDbSpline
210
0.0
220
0.0
230
1.0
 70
    11
 71
     3
 72
    47
 73
    43
 74
     0
 42
0.0000000008494054
 43
0.0000000001
 12
1.0
 22
0.0
 32
0.0
 13
1.0
 23
0.0
 33
0.0
 40
0.0
 40
0.0
 40
0.0
 40
0.0
 40
0.0637917384076936
 40
0.0637917384076936
 40
0.0637917384076936
 40
0.1265834997779105
 40
0.1265834997779105
 40
0.1893752611481286
 40
0.1893752611481286
 40
0.1893752611481286
 40
0.2604081010642026
 40
0.2604081010642026
 40
0.3159741129340349
 40
0.3159741129340349
 40
0.3159741129340349
 40
0.3751091105868484
 40
0.3751091105868484
 40
0.3751091105868484
 40
0.435995169879425
 40
0.435995169879425
 40
0.435995169879425
 40
0.4997689343159713
 40
0.4997689343159713
 40
0.5635426987525196
 40
0.5635426987525196
 40
0.5635426987525196
 40
0.624232315369434
 40
0.624232315369434
 40
0.624232315369434
 40
0.6835869381889372
 40
0.6835869381889372
 40
0.6835869381889372
 40
0.7357943705008892
 40
0.7357943705008892
 40
0.8025337685079206
 40
0.8025337685079206
 40
0.8692731665149518
 40
0.8692731665149518
 40
0.9360125645219831
 40
0.9360125645219831
 40
0.9360125645219831
 40
1.0
 40
1.0
 40
1.0
 40
1.0
 10
21.44336500655308
 20
1.450655307994758
 30
0.0
 10
21.70208060288335
 20
1.450655307994758
 30
0.0
 10
21.94462647444299
 20
1.501474442988205
 30
0.0
 10
22.16869266055046
 20
1.600802752293579
 30
0.0
 10
22.39468942225328
 20
1.700986883770089
 30
0.0
 10
22.5937254259502
 20
1.836418741808651
 30
0.0
 10
22.93097968545217
 20
2.187532765399738
 30
0.0
 10
23.06495740498034
 20
2.395429226736567
 30
0.0
 10
23.15966579292267
 20
2.63335517693316
 30
0.0
 10
23.25469013236262
 20
2.87207485894082
 30
0.0
 10
23.30519331585845
 20
3.132306684141548
 30
0.0
 10
23.30519331585845
 20
3.642807994757537
 30
0.0
 10
23.25668414154652
 20
3.862254259501967
 30
0.0
 10
23.15966579292267
 20
4.074770642201835
 30
0.0
 10
23.06391850987524
 20
4.284502786020031
 30
0.0
 10
22.93097968545217
 20
4.472083879423329
 30
0.0
 10
22.76235255570118
 20
4.636091087811272
 30
0.0
 10
22.59487996078263
 20
4.798975392458079
 30
0.0
 10
22.39506880733945
 20
4.927146133682831
 30
0.0
 10
22.16869266055046
 20
5.021854521625164
 30
0.0
 10
21.94345992894685
 20
5.116084541989939
 30
0.0
 10
21.70208060288335
 20
5.167382044560944
 30
0.0
 10
21.18464941022281
 20
5.167382044560944
 30
0.0
 10
20.94210353866317
 20
5.118872870249017
 30
0.0
 10
20.71572739187418
 20
5.021854521625164
 30
0.0
 10
20.49213912866634
 20
4.926030980250372
 30
0.0
 10
20.29300458715597
 20
4.797788335517694
 30
0.0
 10
20.12437745740498
 20
4.636091087811272
 30
0.0
 10
19.95459636352431
 20
4.473287299158574
 30
0.0
 10
19.82177260812581
 20
4.284977064220183
 30
0.0
 10
19.72244429882045
 20
4.074770642201835
 30
0.0
 10
19.62222370164274
 20
3.86267589003505
 30
0.0
 10
19.57229685452162
 20
3.642807994757537
 30
0.0
 10
19.57229685452162
 20
3.132306684141548
 30
0.0
 10
19.62311598951508
 20
2.871281127129752
 30
0.0
 10
19.82177260812581
 20
2.395429226736567
 30
0.0
 10
19.95575032765399
 20
2.187532765399738
 30
0.0
 10
20.29300458715597
 20
1.836418741808651
 30
0.0
 10
20.49166120576671
 20
1.700131061598952
 30
0.0
 10
20.71572739187418
 20
1.600802752293579
 30
0.0
 10
20.941724153577
 20
1.500618620817073
 30
0.0
 10
21.18464941022281
 20
1.450655307994758
 30
0.0
 10
21.44336500655308
 20
1.450655307994758
 30
0.0
  0
SPLINE
  5
147
330
125
100
AcDbEntity
  8
Default
  6
Continuous
 62
     7
100
AcDbSpline
210
0.0
220
0.0
230
1.0
 70
    11
 71
     3
 72
    49
 73
    45
 74
     0
 42
0.0000000004385322
 43
0.0000000001
 12
1.0
 22
0.0
 32
0.0
 13
1.0
 23
0.0
 33
0.0
 40
0.0
 40
0.0
 40
0.0
 40
0.0
 40
0.0617996483207596
 40
0.0617996483207596
 40
0.0617996483207596
 40
0.1220737652654132
 40
0.1220737652654132
 40
0.1220737652654132
 40
0.1820249318660078
 40
0.1820249318660078
 40
0.1820249318660078
 40
0.2438982680995642
 40
0.2438982680995642
 40
0.3109516975991858
 40
0.3109516975991858
 40
0.3109516975991858
 40
0.3722543214771952
 40
0.3722543214771952
 40
0.3722543214771952
 40
0.4335172266527087
 40
0.4335172266527087
 40
0.4335172266527087
 40
0.4994898970728853
 40
0.4994898970728853
 40
0.5657506577569065
 40
0.5657506577569065
 40
0.5657506577569065
 40
0.626961718898901
 40
0.626961718898901
 40
0.6886100019061948
 40
0.6886100019061948
 40
0.6886100019061948
 40
0.7556907268882871
 40
0.7556907268882871
 40
0.8175892499404324
 40
0.8175892499404324
 40
0.8175892499404324
 40
0.8774725210786118
 40
0.8774725210786118
 40
0.8774725210786118
 40
0.9379094648157675
 40
0.9379094648157675
 40
0.9379094648157675
 40
1.0
 40
1.0
 40
1.0
 40
1.0
 10
21.44336500655308
 20
6.83055373525557
 30
0.0
 10
21.91919464291449
 20
6.832852429151036
 30
0.0
 10
22.37658912188729
 20
6.745085190039319
 30
0.0
 10
22.81317169069462
 20
6.581077981651377
 30
0.0
 10
23.25051470703607
 20
6.416785102496653
 30
0.0
 10
23.63782765399738
 20
6.181454783748363
 30
0.0
 10
23.97508191349934
 20
5.878849934469201
 30
0.0
 10
24.31246764930903
 20
5.576127116722139
 30
0.0
 10
24.58491153342071
 20
5.218201179554391
 30
0.0
 10
24.78587811271298
 20
4.800098296199214
 30
0.0
 10
24.9863762849025
 20
4.38296991497732
 30
0.0
 10
25.08848296199213
 20
3.926933158584535
 30
0.0
 10
25.08848296199213
 20
2.892070773263434
 30
0.0
 10
24.99839449541284
 20
2.402359108781128
 30
0.0
 10
24.81590760157274
 20
1.958846657929228
 30
0.0
 10
24.63260786737497
 20
1.513358696334639
 30
0.0
 10
24.38163499344692
 20
1.129570773263435
 30
0.0
 10
24.06055045871559
 20
0.8038663171690699
 30
0.0
 10
23.7406207864759
 20
0.4793333402928437
 30
0.0
 10
23.3560124508519
 20
0.2286861074705122
 30
0.0
 10
22.90788007863696
 20
0.0485091743119273
 30
0.0
 10
22.46253572118054
 20
-0.1305468044592142
 30
0.0
 10
21.97234600262123
 20
-0.2194462647444295
 30
0.0
 10
20.91207404980341
 20
-0.2194462647444295
 30
0.0
 10
20.42467234600262
 20
-0.1293577981651364
 30
0.0
 10
19.9788499344692
 20
0.0485091743119273
 30
0.0
 10
19.53023971314575
 20
0.2274883817829441
 30
0.0
 10
19.14495412844037
 20
0.4804718217562263
 30
0.0
 10
18.49585517693316
 20
1.129570773263435
 30
0.0
 10
18.24406946264745
 20
1.513024246395807
 30
0.0
 10
18.06158256880734
 20
1.958846657929228
 30
0.0
 10
17.87990551563201
 20
2.402690597965156
 30
0.0
 10
17.78669724770642
 20
2.892070773263434
 30
0.0
 10
17.78669724770642
 20
3.926933158584535
 30
0.0
 10
17.88833551769332
 20
4.384305373525557
 30
0.0
 10
18.0916120576671
 20
4.800098296199214
 30
0.0
 10
18.2953544565906
 20
5.21684411217912
 30
0.0
 10
18.56284403669725
 20
5.57855504587156
 30
0.0
 10
18.90009829619921
 20
5.878849934469201
 30
0.0
 10
19.23849979910015
 20
6.18016634116182
 30
0.0
 10
19.62773591087812
 20
6.414760812581914
 30
0.0
 10
20.06662844036697
 20
6.581077981651377
 30
0.0
 10
20.50677543450266
 20
6.747870526797538
 30
0.0
 10
20.96520314547837
 20
6.82824377457405
 30
0.0
 10
21.44336500655308
 20
6.83055373525557
 30
0.0
  0
LINE
  5
148
330
125
100
AcDbEntity
  8
Default
  6
Continuous
 62
     7
100
AcDbLine
 10
15.3335190039
 20
2.3145806029
 30
0.0
 11
13.8343545216
 21
2.3145806029
 31
0.0
  0
SPLINE
  5
149
330
125
100
AcDbEntity
  8
Default
  6
Continuous
 62
     7
100
AcDbSpline
210
0.0
220
0.0
230
1.0
 70
     8
 71
     3
 72
    43
 73
    39
 74
     0
 42
0.0000000009932047
 43
0.0000000001
 12
1.0
 22
0.0
 32
0.0
 13
1.0
 23
0.0
 33
0.0
 40
0.0
 40
0.0
 40
0.0
 40
0.0
 40
0.0949373847537602
 40
0.0949373847537602
 40
0.0949373847537602
 40
0.1911787086491429
 40
0.1911787086491429
 40
0.2677918678027036
 40
0.2677918678027036
 40
0.2677918678027036
 40
0.3406026976746725
 40
0.3406026976746725
 40
0.3406026976746725
 40
0.4151543081273698
 40
0.4151543081273698
 40
0.4151543081273698
 40
0.4895478942304584
 40
0.4895478942304584
 40
0.5659890102262922
 40
0.5659890102262922
 40
0.6424301262221261
 40
0.6424301262221261
 40
0.6424301262221261
 40
0.714798401889747
 40
0.714798401889747
 40
0.714798401889747
 40
0.7953127750919691
 40
0.7953127750919691
 40
0.8472575319966263
 40
0.8472575319966263
 40
0.8472575319966263
 40
0.898191982468852
 40
0.898191982468852
 40
0.898191982468852
 40
0.9471592991231073
 40
0.9471592991231073
 40
0.9471592991231073
 40
1.0
 40
1.0
 40
1.0
 40
1.0
 10
15.25498034076016
 20
4.25956749672346
 30
0.0
 10
15.1348623853211
 20
4.578342070773264
 30
0.0
 10
14.95468545216252
 20
4.832437745740499
 30
0.0
 10
14.7144495412844
 20
5.024164482306685
 30
0.0
 10
14.47167626156505
 20
5.217916234390401
 30
0.0
 10
14.17622870249017
 20
5.312909567496725
 30
0.0
 10
13.54560943643512
 20
5.312909567496725
 30
0.0
 10
13.30075360419397
 20
5.252850589777196
 30
0.0
 10
13.08361730013106
 20
5.13042267365662
 30
0.0
 10
12.86823374940279
 20
5.008983012075785
 30
0.0
 10
12.69092398427261
 20
4.84629750982962
 30
0.0
 10
12.54770642201835
 20
4.647640891218874
 30
0.0
 10
12.40527884987617
 20
4.450080065344236
 30
0.0
 10
12.29823066841416
 20
4.227228047182176
 30
0.0
 10
12.22662188728703
 20
3.980062254259503
 30
0.0
 10
12.15421681189757
 20
3.730147961786198
 30
0.0
 10
12.11574377457405
 20
3.481110747051115
 30
0.0
 10
12.11574377457405
 20
2.970609436435126
 30
0.0
 10
12.15501310615989
 20
2.721133682830931
 30
0.0
 10
12.30747051114023
 20
2.231422018348625
 30
0.0
 10
12.41834862385321
 20
2.009665792922674
 30
0.0
 10
12.56387614678899
 20
1.815629095674968
 30
0.0
 10
12.7105124508519
 20
1.620114023591089
 30
0.0
 10
12.88958060288335
 20
1.46220511140236
 30
0.0
 10
13.10440694626475
 20
1.344397116644824
 30
0.0
 10
13.32020716906946
 20
1.226055058977723
 30
0.0
 10
13.56870904325033
 20
1.16653014416776
 30
0.0
 10
14.03994102228047
 20
1.16653014416776
 30
0.0
 10
14.21780799475754
 20
1.189629750982963
 30
0.0
 10
14.39105504587156
 20
1.240448885976409
 30
0.0
 10
14.5615512434976
 20
1.290461103946714
 30
0.0
 10
14.7144495412844
 20
1.362876802096987
 30
0.0
 10
14.84842726081258
 20
1.457585190039319
 30
0.0
 10
14.98086470130555
 20
1.551204760042966
 30
0.0
 10
15.08866317169069
 20
1.672411533420708
 30
0.0
 10
15.17644167758847
 20
1.815629095674968
 30
0.0
 10
15.26256022686942
 20
1.956138307659666
 30
0.0
 10
15.31503931847969
 20
2.12285386631717
 30
0.0
 10
15.33351900393184
 20
2.314580602883356
 30
0.0
  0
LINE
  5
14A
330
125
100
AcDbEntity
  8
Default
  6
Continuous
 62
     7
100
AcDbLine
 10
16.8835026212
 20
4.9456258191
 30
0.0
 11
15.2549803408
 21
4.2595674967
 31
0.0
  0
SPLINE
  5
14B
330
125
100
AcDbEntity
  8
Default
  6
Continuous
 62
     7
100
AcDbSpline
210
0.0
220
0.0
230
1.0
 70
     8
 71
     3
 72
    51
 73
    47
 74
     0
 42
0.0000000004766382
 43
0.0000000001
 12
1.0
 22
0.0
 32
0.0
 13
1.0
 23
0.0
 33
0.0
 40
0.0
 40
0.0
 40
0.0
 40
0.0
 40
0.0095402040290222
 40
0.0095402040290222
 40
0.0095402040290222
 40
0.0400756007423482
 40
0.0400756007423482
 40
0.0400756007423482
 40
0.0693620114069116
 40
0.0693620114069116
 40
0.0986484220714753
 40
0.0986484220714753
 40
0.0986484220714753
 40
0.1302632519246672
 40
0.1302632519246672
 40
0.1302632519246672
 40
0.2055179711079718
 40
0.2055179711079718
 40
0.2055179711079718
 40
0.281182745691462
 40
0.281182745691462
 40
0.3511962093102096
 40
0.3511962093102096
 40
0.3511962093102096
 40
0.4149417185613706
 40
0.4149417185613706
 40
0.4149417185613706
 40
0.4786592191897758
 40
0.4786592191897758
 40
0.4786592191897758
 40
0.5478830793697405
 40
0.5478830793697405
 40
0.6199007276287178
 40
0.6199007276287178
 40
0.6199007276287178
 40
0.6846819262147057
 40
0.6846819262147057
 40
0.6846819262147057
 40
0.7494892886116509
 40
0.7494892886116509
 40
0.7494892886116509
 40
0.8193637744922013
 40
0.8193637744922013
 40
0.9096818872461009
 40
0.9096818872461009
 40
1.0
 40
1.0
 40
1.0
 40
1.0
 10
17.14221821756225
 20
3.658977719528179
 30
0.0
 10
17.14221821756225
 20
3.59275884665793
 30
0.0
 10
17.14221821756225
 20
3.526539973787681
 30
0.0
 10
17.14221821756225
 20
3.460321100917432
 30
0.0
 10
17.14221821756225
 20
3.243184796854522
 30
0.0
 10
17.12835845347313
 20
3.030668414154654
 30
0.0
 10
17.11680865006553
 20
2.825081913499345
 30
0.0
 10
17.10526611434193
 20
2.619624777619178
 30
0.0
 10
17.08446920052425
 20
2.41852883355177
 30
0.0
 10
17.01055045871559
 20
2.021215596330276
 30
0.0
 10
16.95742136304062
 20
1.824868938401049
 30
0.0
 10
16.88350262123198
 20
1.633142201834863
 30
0.0
 10
16.80988280520848
 20
1.442190804023907
 30
0.0
 10
16.70563564875491
 20
1.249688728702491
 30
0.0
 10
16.5670380078637
 20
1.057961992136305
 30
0.0
 10
16.23809819736261
 20
0.6029285876097794
 30
0.0
 10
15.84633027522936
 20
0.2679554390563577
 30
0.0
 10
15.37971821756225
 20
0.06467889908257
 30
0.0
 10
14.91226036066398
 20
-0.1389661078830131
 30
0.0
 10
14.40029488859764
 20
-0.2425458715596323
 30
0.0
 10
13.32847313237222
 20
-0.2425458715596323
 30
0.0
 10
12.85262123197903
 20
-0.1593872870249009
 30
0.0
 10
12.41834862385321
 20
0.0092398427260818
 30
0.0
 10
11.9860833240235
 20
0.1770875389365569
 30
0.0
 10
11.61448230668415
 20
0.4157929226736576
 30
0.0
 10
11.30725753604194
 20
0.7183977719528185
 30
0.0
 10
10.99887791762487
 20
1.022140102874894
 30
0.0
 10
10.76210681520315
 20
1.39059633027523
 30
0.0
 10
10.58885976408912
 20
1.822558977719529
 30
0.0
 10
10.41673087643255
 20
2.251733670943243
 30
0.0
 10
10.33245412844037
 20
2.725753604193972
 30
0.0
 10
10.33245412844037
 20
3.776785714285715
 30
0.0
 10
10.41792267365662
 20
4.264187418086501
 30
0.0
 10
10.58885976408912
 20
4.700769986893841
 30
0.0
 10
10.76010389980871
 20
5.138136765961434
 30
0.0
 10
11.00465268676278
 20
5.511566186107471
 30
0.0
 10
11.31880733944954
 20
5.823410878112714
 30
0.0
 10
11.6318070432484
 20
6.134109113501288
 30
0.0
 10
12.00948558322411
 20
6.373181520314549
 30
0.0
 10
12.44837811271297
 20
6.544118610747052
 30
0.0
 10
12.88849518360602
 20
6.715532627831713
 30
0.0
 10
13.37467234600262
 20
6.795904325032767
 30
0.0
 10
14.58740170380079
 20
6.795904325032767
 30
0.0
 10
15.18106159895151
 20
6.643446920052426
 30
0.0
 10
16.20206422018348
 20
6.033617300131063
 30
0.0
 10
16.59937745740498
 20
5.56931520314548
 30
0.0
 10
16.88350262123198
 20
4.945625819134994
 30
0.0
  0
LINE
  5
14C
330
125
100
AcDbEntity
  8
Default
  6
Continuous
 62
     7
100
AcDbLine
 10
13.8343545216
 20
3.6589777195
 30
0.0
 11
17.1422182176
 21
3.6589777195
 31
0.0
  0
LINE
  5
14D
330
125
100
AcDbEntity
  8
Default
  6
Continuous
 62
     7
100
AcDbLine
 10
13.8343545216
 20
2.3145806029
 30
0.0
 11
13.8343545216
 21
3.6589777195
 31
0.0
  0
SPLINE
  5
14E
330
125
100
AcDbEntity
  8
Default
  6
Continuous
 62
     7
100
AcDbSpline
210
0.0
220
0.0
230
1.0
 70
     8
 71
     3
 72
    16
 73
    12
 74
     0
 42
0.000000000976763
 43
0.0000000001
 12
1.0
 22
0.0
 32
0.0
 13
1.0
 23
0.0
 33
0.0
 40
0.0
 40
0.0
 40
0.0
 40
0.0
 40
0.6164577788718584
 40
0.6164577788718584
 40
0.6164577788718584
 40
0.6381328433885463
 40
0.6381328433885463
 40
0.6607110355934293
 40
0.6607110355934293
 40
0.6607110355934293
 40
1.0
 40
1.0
 40
1.0
 40
1.0
 10
6.022067496723459
 20
0.0000000000000018
 30
0.0
 10
6.022067496723459
 20
2.101294233289647
 30
0.0
 10
6.022067496723459
 20
4.202588466579293
 30
0.0
 10
6.022067496723459
 20
6.303882699868939
 30
0.0
 10
6.022067496723459
 20
6.38473132372215
 30
0.0
 10
6.049787024901704
 20
6.451720183486239
 30
0.0
 10
6.162975098296197
 20
6.564908256880734
 30
0.0
 10
6.229963958060289
 20
6.592627785058978
 30
0.0
 10
6.30850262123198
 20
6.592627785058978
 30
0.0
 10
7.465022935779817
 20
6.592627785058978
 30
0.0
 10
8.621543250327658
 20
6.592627785058978
 30
0.0
 10
9.778063564875495
 20
6.592627785058978
 30
0.0
  0
LINE
  5
14F
330
125
100
AcDbEntity
  8
Default
  6
Continuous
 62
     7
100
AcDbLine
 10
9.7780635649
 20
0.0
 30
0.0
 11
6.0220674967
 21
0.0
 31
0.0
  0
LINE
  5
150
330
125
100
AcDbEntity
  8
Default
  6
Continuous
 62
     7
100
AcDbLine
 10
9.7780635649
 20
1.450655308
 30
0.0
 11
9.7780635649
 21
0.0
 31
0.0
  0
LINE
  5
151
330
125
100
AcDbEntity
  8
Default
  6
Continuous
 62
     7
100
AcDbLine
 10
7.731438401
 20
1.450655308
 30
0.0
 11
9.7780635649
 21
1.450655308
 31
0.0
  0
LINE
  5
152
330
125
100
AcDbEntity
  8
Default
  6
Continuous
 62
     7
100
AcDbLine
 10
7.731438401
 20
2.5848460026
 30
0.0
 11
7.731438401
 21
1.450655308
 31
0.0
  0
LINE
  5
153
330
125
100
AcDbEntity
  8
Default
  6
Continuous
 62
     7
100
AcDbLine
 10
9.6787352556
 20
2.5848460026
 30
0.0
 11
7.731438401
 21
2.5848460026
 31
0.0
  0
LINE
  5
154
330
125
100
AcDbEntity
  8
Default
  6
Continuous
 62
     7
100
AcDbLine
 10
9.6787352556
 20
4.0424311927
 30
0.0
 11
9.6787352556
 21
2.5848460026
 31
0.0
  0
LINE
  5
155
330
125
100
AcDbEntity
  8
Default
  6
Continuous
 62
     7
100
AcDbLine
 10
7.731438401
 20
4.0424311927
 30
0.0
 11
9.6787352556
 21
4.0424311927
 31
0.0
  0
LINE
  5
156
330
125
100
AcDbEntity
  8
Default
  6
Continuous
 62
     7
100
AcDbLine
 10
7.731438401
 20
5.1419724771
 30
0.0
 11
7.731438401
 21
4.0424311927
 31
0.0
  0
LINE
  5
157
330
125
100
AcDbEntity
  8
Default
  6
Continuous
 62
     7
100
AcDbLine
 10
9.7780635649
 20
5.1419724771
 30
0.0
 11
7.731438401
 21
5.1419724771
 31
0.0
  0
LINE
  5
158
330
125
100
AcDbEntity
  8
Default
  6
Continuous
 62
     7
100
AcDbLine
 10
9.7780635649
 20
6.5926277851
 30
0.0
 11
9.7780635649
 21
5.1419724771
 31
0.0
  0
LINE
  5
159
330
125
100
AcDbEntity
  8
Default
  6
Continuous
 62
     7
100
AcDbLine
 10
1.7093709043
 20
5.280570118
 30
0.0
 11
1.7093709043
 21
3.6312581913
 31
0.0
  0
LINE
  5
15A
330
125
100
AcDbEntity
  8
Default
  6
Continuous
 62
     7
100
AcDbLine
 10
1.7093709043
 20
3.6312581913
 30
0.0
 11
1.8803079948
 21
3.6312581913
 31
0.0
  0
SPLINE
  5
15B
330
125
100
AcDbEntity
  8
Default
  6
Continuous
 62
     7
100
AcDbSpline
210
0.0
220
0.0
230
1.0
 70
     8
 71
     3
 72
    29
 73
    25
 74
     0
 42
0.0000000028633018
 43
0.0000000001
 12
1.0
 22
0.0
 32
0.0
 13
1.0
 23
0.0
 33
0.0
 40
0.0
 40
0.0
 40
0.0
 40
0.0
 40
0.1203556671631279
 40
0.1203556671631279
 40
0.1203556671631279
 40
0.2363519504887718
 40
0.2363519504887718
 40
0.2363519504887718
 40
0.3551316836966588
 40
0.3551316836966588
 40
0.4739114169045465
 40
0.4739114169045465
 40
0.5942337440501996
 40
0.5942337440501996
 40
0.7145560711958533
 40
0.7145560711958533
 40
0.7145560711958533
 40
0.8303426976884648
 40
0.8303426976884648
 40
0.8303426976884648
 40
0.9506957818555967
 40
0.9506957818555967
 40
0.9506957818555967
 40
1.0
 40
1.0
 40
1.0
 40
1.0
 10
1.880307994757537
 20
3.631258191349935
 30
0.0
 10
2.018905635648757
 20
3.631258191349935
 30
0.0
 10
2.157503276539977
 20
3.640498034076017
 30
0.0
 10
2.296100917431193
 20
3.661287680209699
 30
0.0
 10
2.436957688573287
 20
3.682416195881014
 30
0.0
 10
2.564056356487548
 20
3.719036697247708
 30
0.0
 10
2.679554390563567
 20
3.776785714285715
 30
0.0
 10
2.795976408912189
 20
3.834996723460025
 30
0.0
 10
2.889760812581915
 20
3.915383355176934
 30
0.0
 10
3.028358453473135
 20
4.132519659239843
 30
0.0
 10
3.063007863695937
 20
4.278047182175624
 30
0.0
 10
3.063007863695937
 20
4.636091087811272
 30
0.0
 10
3.028358453473135
 20
4.779308650065532
 30
0.0
 10
2.889760812581915
 20
4.996444954128441
 30
0.0
 10
2.797362385321101
 20
5.079603538663172
 30
0.0
 10
2.679554390563567
 20
5.13735255570118
 30
0.0
 10
2.564521785639126
 20
5.193741087526886
 30
0.0
 10
2.437008519003932
 20
5.229750982961993
 30
0.0
 10
2.296100917431193
 20
5.250540629095676
 30
0.0
 10
2.157454063805833
 20
5.270996722253517
 30
0.0
 10
2.018905635648757
 20
5.28057011795544
 30
0.0
 10
1.880307994757537
 20
5.28057011795544
 30
0.0
 10
1.823328964613371
 20
5.28057011795544
 30
0.0
 10
1.766349934469201
 20
5.28057011795544
 30
0.0
 10
1.709370904325031
 20
5.28057011795544
 30
0.0
  0
LINE
  5
15C
330
125
100
AcDbEntity
  8
Default
  6
Continuous
 62
     7
100
AcDbLine
 10
1.7093709043
 20
0.0
 30
0.0
 11
0.0
 21
0.0
 31
0.0
  0
LINE
  5
15D
330
125
100
AcDbEntity
  8
Default
  6
Continuous
 62
     7
100
AcDbLine
 10
1.7093709043
 20
2.5340268676
 30
0.0
 11
1.7093709043
 21
0.0
 31
0.0
  0
LINE
  5
15E
330
125
100
AcDbEntity
  8
Default
  6
Continuous
 62
     7
100
AcDbLine
 10
3.3402031455
 20
0.0
 30
0.0
 11
1.7093709043
 21
2.5340268676
 31
0.0
  0
LINE
  5
15F
330
125
100
AcDbEntity
  8
Default
  6
Continuous
 62
     7
100
AcDbLine
 10
5.4769167759
 20
0.0
 30
0.0
 11
3.3402031455
 21
0.0
 31
0.0
  0
LINE
  5
160
330
125
100
AcDbEntity
  8
Default
  6
Continuous
 62
     7
100
AcDbLine
 10
3.4002621232
 20
2.7003440367
 30
0.0
 11
5.4769167759
 21
0.0
 31
0.0
  0
SPLINE
  5
161
330
125
100
AcDbEntity
  8
Default
  6
Continuous
 62
     7
100
AcDbSpline
210
0.0
220
0.0
230
1.0
 70
     8
 71
     3
 72
    39
 73
    35
 74
     0
 42
0.0000000006617465
 43
0.0000000001
 12
1.0
 22
0.0
 32
0.0
 13
1.0
 23
0.0
 33
0.0
 40
0.0
 40
0.0
 40
0.0
 40
0.0
 40
0.4184837171182216
 40
0.4184837171182216
 40
0.4184837171182216
 40
0.4329116956232541
 40
0.4329116956232541
 40
0.447940839899329
 40
0.447940839899329
 40
0.447940839899329
 40
0.5989875461512338
 40
0.5989875461512338
 40
0.5989875461512338
 40
0.65983019696195
 40
0.65983019696195
 40
0.65983019696195
 40
0.7141636694202442
 40
0.7141636694202442
 40
0.7141636694202442
 40
0.7672492360561214
 40
0.7672492360561214
 40
0.7672492360561214
 40
0.8311842098663922
 40
0.8311842098663922
 40
0.8732466926363075
 40
0.8732466926363075
 40
0.8732466926363075
 40
0.9147241024096695
 40
0.9147241024096695
 40
0.9147241024096695
 40
0.9560702513872078
 40
0.9560702513872078
 40
0.9560702513872078
 40
1.0
 40
1.0
 40
1.0
 40
1.0
 10
0.0
 20
0.0
 30
0.0
 10
0.0
 20
2.101294233289646
 30
0.0
 10
0.0
 20
4.202588466579293
 30
0.0
 10
0.0
 20
6.303882699868939
 30
0.0
 10
0.0
 20
6.38473132372215
 30
0.0
 10
0.0277195281782454
 20
6.451720183486239
 30
0.0
 10
0.1409076015727422
 20
6.564908256880734
 30
0.0
 10
0.2055865006553077
 20
6.592627785058978
 30
0.0
 10
0.2771952817824364
 20
6.592627785058978
 30
0.0
 10
1.035632372214941
 20
6.592627785058978
 30
0.0
 10
1.794069462647446
 20
6.592627785058977
 30
0.0
 10
2.552506553079947
 20
6.592627785058978
 30
0.0
 10
2.878211009174311
 20
6.592627785058978
 30
0.0
 10
3.180815858453474
 20
6.553358453473132
 30
0.0
 10
3.458011140235911
 20
6.472509829619922
 30
0.0
 10
3.736714364351247
 20
6.39122138925295
 30
0.0
 10
3.977752293577982
 20
6.271543250327655
 30
0.0
 10
4.18333879423329
 20
6.105226081258192
 30
0.0
 10
4.387795784926965
 20
5.939822673056568
 30
0.0
 10
4.550622542595022
 20
5.731012450851901
 30
0.0
 10
4.666120576671034
 20
5.476916775884666
 30
0.0
 10
4.782488801414747
 20
5.220906681448501
 30
0.0
 10
4.839367627785059
 20
4.917906290956751
 30
0.0
 10
4.839367627785059
 20
4.335796199213631
 30
0.0
 10
4.809338138925298
 20
4.116349934469202
 30
0.0
 10
4.744659239842726
 20
3.913073394495413
 30
0.0
 10
4.679525282839784
 20
3.708366672486163
 30
0.0
 10
4.589891874180864
 20
3.520380078636961
 30
0.0
 10
4.467463958060289
 20
3.356372870249018
 30
0.0
 10
4.343928732125118
 20
3.19088228456228
 30
0.0
 10
4.19488859764089
 20
3.049148099606816
 30
0.0
 10
4.014711664482306
 20
2.9336500655308
 30
0.0
 10
3.836171940175813
 20
2.819201524308691
 30
0.0
 10
3.631258191349932
 20
2.739613368283093
 30
0.0
 10
3.400262123197905
 20
2.700344036697248
 30
0.0
  0
HATCH
  5
162
330
125
100
AcDbEntity
  8
Default
  6
Continuous
 62
     7
100
AcDbHatch
 10
0.0
 20
0.0
 30
0.0
210
0.0
220
0.0
230
1.0
  2
SOLID
 70
     1
 71
     0
 91
        2
 92
        1
 93
        6
 72
     4
 94
        3
 73
     0
 74
     0
 95
       39
 96
       35
 40
0.0
 40
0.0
 40
0.0
 40
0.0
 40
0.0439297486127922
 40
0.0439297486127922
 40
0.0439297486127922
 40
0.0852758975903305
 40
0.0852758975903305
 40
0.0852758975903305
 40
0.1267533073636925
 40
0.1267533073636925
 40
0.1267533073636925
 40
0.1688157901336078
 40
0.1688157901336078
 40
0.2327507639438786
 40
0.2327507639438786
 40
0.2327507639438786
 40
0.2858363305797558
 40
0.2858363305797558
 40
0.2858363305797558
 40
0.34016980303805
 40
0.34016980303805
 40
0.34016980303805
 40
0.4010124538487662
 40
0.4010124538487662
 40
0.4010124538487662
 40
0.552059160100671
 40
0.552059160100671
 40
0.552059160100671
 40
0.5670883043767458
 40
0.5670883043767458
 40
0.5815162828817784
 40
0.5815162828817784
 40
0.5815162828817784
 40
1.0
 40
1.0
 40
1.0
 40
1.0
 10
3.400262123197905
 20
2.700344036697248
 10
3.631258191349932
 20
2.739613368283093
 10
3.836171940175813
 20
2.819201524308691
 10
4.014711664482306
 20
2.9336500655308
 10
4.19488859764089
 20
3.049148099606816
 10
4.343928732125118
 20
3.19088228456228
 10
4.467463958060289
 20
3.356372870249018
 10
4.589891874180864
 20
3.520380078636961
 10
4.679525282839784
 20
3.708366672486163
 10
4.744659239842726
 20
3.913073394495413
 10
4.809338138925298
 20
4.116349934469202
 10
4.839367627785059
 20
4.335796199213631
 10
4.839367627785059
 20
4.917906290956751
 10
4.782488801414747
 20
5.220906681448501
 10
4.666120576671034
 20
5.476916775884666
 10
4.550622542595022
 20
5.731012450851901
 10
4.387795784926965
 20
5.939822673056568
 10
4.18333879423329
 20
6.105226081258192
 10
3.977752293577982
 20
6.271543250327655
 10
3.736714364351247
 20
6.39122138925295
 10
3.458011140235911
 20
6.472509829619922
 10
3.180815858453474
 20
6.553358453473132
 10
2.878211009174311
 20
6.592627785058978
 10
2.552506553079947
 20
6.592627785058978
 10
1.794069462647446
 20
6.592627785058977
 10
1.035632372214941
 20
6.592627785058978
 10
0.2771952817824364
 20
6.592627785058978
 10
0.2055865006553077
 20
6.592627785058978
 10
0.1409076015727422
 20
6.564908256880734
 10
0.0277195281782454
 20
6.451720183486239
 10
0.0
 20
6.38473132372215
 10
0.0
 20
6.303882699868939
 10
0.0
 20
4.202588466579293
 10
0.0
 20
2.101294233289646
 10
0.0
 20
0.0
 72
     1
 10
0.0
 20
0.0
 11
1.709370904325033
 21
0.0000000000000009
 72
     1
 10
1.709370904325031
 20
0.0000000000000009
 11
1.709370904325031
 21
2.534026867627786
 72
     1
 10
1.709370904325031
 20
2.534026867627786
 11
3.340203145478373
 21
0.0000000000000004
 72
     1
 10
3.340203145478373
 20
0.0000000000000009
 11
5.476916775884664
 21
0.0000000000000009
 72
     1
 10
5.476916775884668
 20
0.0000000000000009
 11
3.400262123197905
 21
2.700344036697248
 97
        0
 92
        1
 93
        3
 72
     1
 10
1.709370904325031
 20
5.28057011795544
 11
1.709370904325031
 21
3.631258191349935
 72
     1
 10
1.709370904325031
 20
3.631258191349935
 11
1.880307994757535
 21
3.631258191349935
 72
     4
 94
        3
 73
     0
 74
     0
 95
       29
 96
       25
 40
0.0
 40
0.0
 40
0.0
 40
0.0
 40
0.120355667163128
 40
0.120355667163128
 40
0.120355667163128
 40
0.2363519504887718
 40
0.2363519504887718
 40
0.2363519504887718
 40
0.3551316836966587
 40
0.3551316836966587
 40
0.4739114169045465
 40
0.4739114169045465
 40
0.5942337440501996
 40
0.5942337440501996
 40
0.7145560711958533
 40
0.7145560711958533
 40
0.7145560711958533
 40
0.8303426976884648
 40
0.8303426976884648
 40
0.8303426976884648
 40
0.9506957818555967
 40
0.9506957818555967
 40
0.9506957818555967
 40
1.0
 40
1.0
 40
1.0
 40
1.0
 10
1.880307994757537
 20
3.631258191349935
 10
2.018905635648757
 20
3.631258191349935
 10
2.157503276539977
 20
3.640498034076017
 10
2.296100917431193
 20
3.661287680209699
 10
2.436957688573287
 20
3.682416195881014
 10
2.564056356487548
 20
3.719036697247708
 10
2.679554390563567
 20
3.776785714285715
 10
2.795976408912189
 20
3.834996723460025
 10
2.889760812581915
 20
3.915383355176934
 10
3.028358453473135
 20
4.132519659239843
 10
3.063007863695937
 20
4.278047182175624
 10
3.063007863695937
 20
4.636091087811272
 10
3.028358453473135
 20
4.779308650065532
 10
2.889760812581915
 20
4.996444954128441
 10
2.797362385321101
 20
5.079603538663172
 10
2.679554390563567
 20
5.13735255570118
 10
2.564521785639126
 20
5.193741087526886
 10
2.437008519003932
 20
5.229750982961993
 10
2.296100917431193
 20
5.250540629095676
 10
2.157454063805833
 20
5.270996722253517
 10
2.018905635648757
 20
5.28057011795544
 10
1.880307994757537
 20
5.28057011795544
 10
1.823328964613371
 20
5.28057011795544
 10
1.766349934469201
 20
5.28057011795544
 10
1.709370904325031
 20
5.28057011795544
 97
        0
 75
     0
 76
     1
 98
        0
  0
HATCH
  5
163
330
125
100
AcDbEntity
  8
Default
  6
Continuous
 62
     7
100
AcDbHatch
 10
0.0
 20
0.0
 30
0.0
210
0.0
220
0.0
230
1.0
  2
SOLID
 70
     1
 71
     0
 91
        1
 92
        1
 93
       11
 72
     4
 94
        3
 73
     0
 74
     0
 95
       16
 96
       12
 40
0.0
 40
0.0
 40
0.0
 40
0.0
 40
0.3392889644065707
 40
0.3392889644065707
 40
0.3392889644065707
 40
0.3618671566114537
 40
0.3618671566114537
 40
0.3835422211281416
 40
0.3835422211281416
 40
0.3835422211281416
 40
1.0
 40
1.0
 40
1.0
 40
1.0
 10
9.778063564875495
 20
6.592627785058978
 10
8.621543250327658
 20
6.592627785058978
 10
7.465022935779817
 20
6.592627785058978
 10
6.30850262123198
 20
6.592627785058978
 10
6.229963958060289
 20
6.592627785058978
 10
6.162975098296197
 20
6.564908256880734
 10
6.049787024901704
 20
6.451720183486239
 10
6.022067496723459
 20
6.38473132372215
 10
6.022067496723459
 20
6.303882699868939
 10
6.022067496723459
 20
4.202588466579293
 10
6.022067496723459
 20
2.101294233289647
 10
6.022067496723459
 20
0.0000000000000018
 72
     1
 10
6.022067496723459
 20
0.0000000000000018
 11
9.778063564875495
 21
0.0000000000000009
 72
     1
 10
9.778063564875495
 20
0.0000000000000009
 11
9.778063564875495
 21
1.450655307994759
 72
     1
 10
9.778063564875495
 20
1.450655307994758
 11
7.731438401048491
 21
1.450655307994758
 72
     1
 10
7.731438401048493
 20
1.450655307994758
 11
7.731438401048493
 21
2.584846002621233
 72
     1
 10
7.731438401048493
 20
2.584846002621233
 11
9.678735255570121
 21
2.584846002621233
 72
     1
 10
9.678735255570121
 20
2.584846002621233
 11
9.678735255570121
 21
4.042431192660551
 72
     1
 10
9.678735255570121
 20
4.042431192660551
 11
7.731438401048493
 21
4.042431192660551
 72
     1
 10
7.731438401048493
 20
4.042431192660551
 11
7.731438401048493
 21
5.141972477064221
 72
     1
 10
7.731438401048493
 20
5.141972477064221
 11
9.778063564875497
 21
5.141972477064221
 72
     1
 10
9.778063564875495
 20
5.141972477064221
 11
9.778063564875495
 21
6.592627785058978
 97
        0
 75
     0
 76
     1
 98
        0
  0
HATCH
  5
164
330
125
100
AcDbEntity
  8
Default
  6
Continuous
 62
     7
100
AcDbHatch
 10
0.0
 20
0.0
 30
0.0
210
0.0
220
0.0
230
1.0
  2
SOLID
 70
     1
 71
     0
 91
        1
 92
        1
 93
        6
 72
     4
 94
        3
 73
     0
 74
     0
 95
       51
 96
       47
 40
0.0
 40
0.0
 40
0.0
 40
0.0
 40
0.0903181127538991
 40
0.0903181127538991
 40
0.1806362255077987
 40
0.1806362255077987
 40
0.2505107113883491
 40
0.2505107113883491
 40
0.2505107113883491
 40
0.3153180737852943
 40
0.3153180737852943
 40
0.3153180737852943
 40
0.3800992723712822
 40
0.3800992723712822
 40
0.3800992723712822
 40
0.4521169206302595
 40
0.4521169206302595
 40
0.5213407808102242
 40
0.5213407808102242
 40
0.5213407808102242
 40
0.5850582814386294
 40
0.5850582814386294
 40
0.5850582814386294
 40
0.6488037906897904
 40
0.6488037906897904
 40
0.6488037906897904
 40
0.718817254308538
 40
0.718817254308538
 40
0.7944820288920282
 40
0.7944820288920282
 40
0.7944820288920282
 40
0.8697367480753329
 40
0.8697367480753329
 40
0.8697367480753329
 40
0.9013515779285247
 40
0.9013515779285247
 40
0.9013515779285247
 40
0.9306379885930884
 40
0.9306379885930884
 40
0.9599243992576518
 40
0.9599243992576518
 40
0.9599243992576518
 40
0.9904597959709778
 40
0.9904597959709778
 40
0.9904597959709778
 40
1.0
 40
1.0
 40
1.0
 40
1.0
 10
16.88350262123198
 20
4.945625819134994
 10
16.59937745740498
 20
5.56931520314548
 10
16.20206422018348
 20
6.033617300131063
 10
15.18106159895151
 20
6.643446920052426
 10
14.58740170380079
 20
6.795904325032767
 10
13.37467234600262
 20
6.795904325032767
 10
12.88849518360602
 20
6.715532627831713
 10
12.44837811271297
 20
6.544118610747052
 10
12.00948558322411
 20
6.373181520314549
 10
11.6318070432484
 20
6.134109113501288
 10
11.31880733944954
 20
5.823410878112714
 10
11.00465268676278
 20
5.511566186107471
 10
10.76010389980871
 20
5.138136765961434
 10
10.58885976408912
 20
4.700769986893841
 10
10.41792267365662
 20
4.264187418086501
 10
10.33245412844037
 20
3.776785714285715
 10
10.33245412844037
 20
2.725753604193972
 10
10.41673087643255
 20
2.251733670943243
 10
10.58885976408912
 20
1.822558977719529
 10
10.76210681520315
 20
1.39059633027523
 10
10.99887791762487
 20
1.022140102874894
 10
11.30725753604194
 20
0.7183977719528185
 10
11.61448230668415
 20
0.4157929226736576
 10
11.9860833240235
 20
0.1770875389365569
 10
12.41834862385321
 20
0.0092398427260818
 10
12.85262123197903
 20
-0.1593872870249009
 10
13.32847313237222
 20
-0.2425458715596323
 10
14.40029488859764
 20
-0.2425458715596323
 10
14.91226036066398
 20
-0.1389661078830131
 10
15.37971821756225
 20
0.06467889908257
 10
15.84633027522936
 20
0.2679554390563577
 10
16.23809819736261
 20
0.6029285876097794
 10
16.5670380078637
 20
1.057961992136305
 10
16.70563564875491
 20
1.249688728702491
 10
16.80988280520848
 20
1.442190804023907
 10
16.88350262123198
 20
1.633142201834863
 10
16.95742136304062
 20
1.824868938401049
 10
17.01055045871559
 20
2.021215596330276
 10
17.08446920052425
 20
2.41852883355177
 10
17.10526611434193
 20
2.619624777619178
 10
17.11680865006553
 20
2.825081913499345
 10
17.12835845347313
 20
3.030668414154654
 10
17.14221821756225
 20
3.243184796854522
 10
17.14221821756225
 20
3.460321100917432
 10
17.14221821756225
 20
3.526539973787681
 10
17.14221821756225
 20
3.59275884665793
 10
17.14221821756225
 20
3.658977719528179
 72
     1
 10
17.14221821756225
 20
3.658977719528179
 11
13.83435452162517
 21
3.658977719528179
 72
     1
 10
13.83435452162517
 20
3.658977719528179
 11
13.83435452162517
 21
2.314580602883356
 72
     1
 10
13.83435452162517
 20
2.314580602883356
 11
15.33351900393184
 21
2.314580602883356
 72
     4
 94
        3
 73
     0
 74
     0
 95
       43
 96
       39
 40
0.0
 40
0.0
 40
0.0
 40
0.0
 40
0.0528407008768927
 40
0.0528407008768927
 40
0.0528407008768927
 40
0.101808017531148
 40
0.101808017531148
 40
0.101808017531148
 40
0.1527424680033737
 40
0.1527424680033737
 40
0.1527424680033737
 40
0.2046872249080309
 40
0.2046872249080309
 40
0.285201598110253
 40
0.285201598110253
 40
0.285201598110253
 40
0.3575698737778739
 40
0.3575698737778739
 40
0.3575698737778739
 40
0.4340109897737078
 40
0.4340109897737078
 40
0.5104521057695417
 40
0.5104521057695417
 40
0.5848456918726302
 40
0.5848456918726302
 40
0.5848456918726302
 40
0.6593973023253275
 40
0.6593973023253275
 40
0.6593973023253275
 40
0.7322081321972964
 40
0.7322081321972964
 40
0.7322081321972964
 40
0.808821291350857
 40
0.808821291350857
 40
0.9050626152462398
 40
0.9050626152462398
 40
0.9050626152462398
 40
1.0
 40
1.0
 40
1.0
 40
1.0
 10
15.33351900393184
 20
2.314580602883356
 10
15.31503931847969
 20
2.12285386631717
 10
15.26256022686942
 20
1.956138307659666
 10
15.17644167758847
 20
1.815629095674968
 10
15.08866317169069
 20
1.672411533420708
 10
14.98086470130555
 20
1.551204760042966
 10
14.84842726081258
 20
1.457585190039319
 10
14.7144495412844
 20
1.362876802096987
 10
14.5615512434976
 20
1.290461103946714
 10
14.39105504587156
 20
1.240448885976409
 10
14.21780799475754
 20
1.189629750982963
 10
14.03994102228047
 20
1.16653014416776
 10
13.56870904325033
 20
1.16653014416776
 10
13.32020716906946
 20
1.226055058977723
 10
13.10440694626475
 20
1.344397116644824
 10
12.88958060288335
 20
1.46220511140236
 10
12.7105124508519
 20
1.620114023591089
 10
12.56387614678899
 20
1.815629095674968
 10
12.41834862385321
 20
2.009665792922674
 10
12.30747051114023
 20
2.231422018348625
 10
12.15501310615989
 20
2.721133682830931
 10
12.11574377457405
 20
2.970609436435126
 10
12.11574377457405
 20
3.481110747051115
 10
12.15421681189757
 20
3.730147961786198
 10
12.22662188728703
 20
3.980062254259503
 10
12.29823066841416
 20
4.227228047182176
 10
12.40527884987617
 20
4.450080065344236
 10
12.54770642201835
 20
4.647640891218874
 10
12.69092398427261
 20
4.84629750982962
 10
12.86823374940279
 20
5.008983012075785
 10
13.08361730013106
 20
5.13042267365662
 10
13.30075360419397
 20
5.252850589777196
 10
13.54560943643512
 20
5.312909567496725
 10
14.17622870249017
 20
5.312909567496725
 10
14.47167626156505
 20
5.217916234390401
 10
14.7144495412844
 20
5.024164482306685
 10
14.95468545216252
 20
4.832437745740499
 10
15.1348623853211
 20
4.578342070773264
 10
15.25498034076016
 20
4.25956749672346
 72
     1
 10
15.25498034076016
 20
4.25956749672346
 11
16.88350262123198
 21
4.945625819134994
 97
        0
 75
     0
 76
     1
 98
        0
  0
HATCH
  5
165
330
125
100
AcDbEntity
  8
Default
  6
Continuous
 62
     7
100
AcDbHatch
 10
0.0
 20
0.0
 30
0.0
210
0.0
220
0.0
230
1.0
  2
SOLID
 70
     1
 71
     0
 91
        2
 92
        1
 93
        1
 72
     4
 94
        3
 73
     0
 74
     0
 95
       49
 96
       45
 40
0.0
 40
0.0
 40
0.0
 40
0.0
 40
0.0620905351842325
 40
0.0620905351842325
 40
0.0620905351842325
 40
0.1225274789213882
 40
0.1225274789213882
 40
0.1225274789213882
 40
0.1824107500595676
 40
0.1824107500595676
 40
0.1824107500595676
 40
0.2443092731117129
 40
0.2443092731117129
 40
0.3113899980938052
 40
0.3113899980938052
 40
0.3113899980938052
 40
0.373038281101099
 40
0.373038281101099
 40
0.4342493422430935
 40
0.4342493422430935
 40
0.4342493422430935
 40
0.5005101029271146
 40
0.5005101029271146
 40
0.5664827733472912
 40
0.5664827733472912
 40
0.5664827733472912
 40
0.6277456785228048
 40
0.6277456785228048
 40
0.6277456785228048
 40
0.6890483024008142
 40
0.6890483024008142
 40
0.6890483024008142
 40
0.7561017319004357
 40
0.7561017319004357
 40
0.8179750681339922
 40
0.8179750681339922
 40
0.8179750681339922
 40
0.8779262347345869
 40
0.8779262347345869
 40
0.8779262347345869
 40
0.9382003516792404
 40
0.9382003516792404
 40
0.9382003516792404
 40
1.0
 40
1.0
 40
1.0
 40
1.0
 10
21.44336500655308
 20
6.83055373525557
 10
20.96520314547837
 20
6.82824377457405
 10
20.50677543450266
 20
6.747870526797538
 10
20.06662844036697
 20
6.581077981651377
 10
19.62773591087812
 20
6.414760812581914
 10
19.23849979910015
 20
6.18016634116182
 10
18.90009829619921
 20
5.878849934469201
 10
18.56284403669725
 20
5.57855504587156
 10
18.2953544565906
 20
5.21684411217912
 10
18.0916120576671
 20
4.800098296199214
 10
17.88833551769332
 20
4.384305373525557
 10
17.78669724770642
 20
3.926933158584535
 10
17.78669724770642
 20
2.892070773263434
 10
17.87990551563201
 20
2.402690597965156
 10
18.06158256880734
 20
1.958846657929228
 10
18.24406946264745
 20
1.513024246395807
 10
18.49585517693316
 20
1.129570773263435
 10
19.14495412844037
 20
0.4804718217562263
 10
19.53023971314575
 20
0.2274883817829441
 10
19.9788499344692
 20
0.0485091743119273
 10
20.42467234600262
 20
-0.1293577981651364
 10
20.91207404980341
 20
-0.2194462647444295
 10
21.97234600262123
 20
-0.2194462647444295
 10
22.46253572118054
 20
-0.1305468044592142
 10
22.90788007863696
 20
0.0485091743119273
 10
23.3560124508519
 20
0.2286861074705122
 10
23.7406207864759
 20
0.4793333402928437
 10
24.06055045871559
 20
0.8038663171690699
 10
24.38163499344692
 20
1.129570773263435
 10
24.63260786737497
 20
1.513358696334639
 10
24.81590760157274
 20
1.958846657929228
 10
24.99839449541284
 20
2.402359108781128
 10
25.08848296199213
 20
2.892070773263434
 10
25.08848296199213
 20
3.926933158584535
 10
24.9863762849025
 20
4.38296991497732
 10
24.78587811271298
 20
4.800098296199214
 10
24.58491153342071
 20
5.218201179554391
 10
24.31246764930903
 20
5.576127116722139
 10
23.97508191349934
 20
5.878849934469201
 10
23.63782765399738
 20
6.181454783748363
 10
23.25051470703607
 20
6.416785102496653
 10
22.81317169069462
 20
6.581077981651377
 10
22.37658912188729
 20
6.745085190039319
 10
21.91919464291449
 20
6.832852429151036
 10
21.44336500655308
 20
6.83055373525557
 97
        0
 92
        1
 93
        1
 72
     4
 94
        3
 73
     0
 74
     0
 95
       47
 96
       43
 40
0.0
 40
0.0
 40
0.0
 40
0.0
 40
0.0637917384076936
 40
0.0637917384076936
 40
0.0637917384076936
 40
0.1265834997779105
 40
0.1265834997779105
 40
0.1893752611481285
 40
0.1893752611481285
 40
0.1893752611481285
 40
0.2604081010642026
 40
0.2604081010642026
 40
0.3159741129340349
 40
0.3159741129340349
 40
0.3159741129340349
 40
0.3751091105868485
 40
0.3751091105868485
 40
0.3751091105868485
 40
0.435995169879425
 40
0.435995169879425
 40
0.435995169879425
 40
0.4997689343159712
 40
0.4997689343159712
 40
0.5635426987525196
 40
0.5635426987525196
 40
0.5635426987525196
 40
0.624232315369434
 40
0.624232315369434
 40
0.624232315369434
 40
0.6835869381889372
 40
0.6835869381889372
 40
0.6835869381889372
 40
0.7357943705008892
 40
0.7357943705008892
 40
0.8025337685079206
 40
0.8025337685079206
 40
0.8692731665149518
 40
0.8692731665149518
 40
0.9360125645219831
 40
0.9360125645219831
 40
0.9360125645219831
 40
1.0
 40
1.0
 40
1.0
 40
1.0
 10
21.44336500655308
 20
1.450655307994758
 10
21.70208060288335
 20
1.450655307994758
 10
21.94462647444299
 20
1.501474442988205
 10
22.16869266055046
 20
1.600802752293579
 10
22.39468942225328
 20
1.700986883770089
 10
22.5937254259502
 20
1.836418741808651
 10
22.93097968545217
 20
2.187532765399738
 10
23.06495740498034
 20
2.395429226736567
 10
23.15966579292267
 20
2.63335517693316
 10
23.25469013236262
 20
2.87207485894082
 10
23.30519331585845
 20
3.132306684141548
 10
23.30519331585845
 20
3.642807994757537
 10
23.25668414154652
 20
3.862254259501967
 10
23.15966579292267
 20
4.074770642201835
 10
23.06391850987524
 20
4.284502786020031
 10
22.93097968545217
 20
4.472083879423329
 10
22.76235255570118
 20
4.636091087811272
 10
22.59487996078263
 20
4.798975392458079
 10
22.39506880733945
 20
4.927146133682831
 10
22.16869266055046
 20
5.021854521625164
 10
21.94345992894685
 20
5.116084541989939
 10
21.70208060288335
 20
5.167382044560944
 10
21.18464941022281
 20
5.167382044560944
 10
20.94210353866317
 20
5.118872870249017
 10
20.71572739187418
 20
5.021854521625164
 10
20.49213912866634
 20
4.926030980250372
 10
20.29300458715597
 20
4.797788335517694
 10
20.12437745740498
 20
4.636091087811272
 10
19.95459636352431
 20
4.473287299158574
 10
19.82177260812581
 20
4.284977064220183
 10
19.72244429882045
 20
4.074770642201835
 10
19.62222370164274
 20
3.86267589003505
 10
19.57229685452162
 20
3.642807994757537
 10
19.57229685452162
 20
3.132306684141548
 10
19.62311598951508
 20
2.871281127129752
 10
19.82177260812581
 20
2.395429226736567
 10
19.95575032765399
 20
2.187532765399738
 10
20.29300458715597
 20
1.836418741808651
 10
20.49166120576671
 20
1.700131061598952
 10
20.71572739187418
 20
1.600802752293579
 10
20.941724153577
 20
1.500618620817073
 10
21.18464941022281
 20
1.450655307994758
 10
21.44336500655308
 20
1.450655307994758
 97
        0
 75
     0
 76
     1
 98
        0
  0
HATCH
  5
166
330
125
100
AcDbEntity
  8
Default
  6
Continuous
 62
     7
100
AcDbHatch
 10
0.0
 20
0.0
 30
0.0
210
0.0
220
0.0
230
1.0
  2
SOLID
 70
     1
 71
     0
 91
        1
 92
        1
 93
        4
 72
     1
 10
28.07064220183486
 20
2.584846002621233
 11
28.07064220183486
 21
4.042431192660551
 72
     1
 10
28.07064220183486
 20
4.042431192660551
 11
25.93623853211009
 21
4.042431192660551
 72
     1
 10
25.93623853211009
 20
4.042431192660551
 11
25.93623853211009
 21
2.584846002621233
 72
     1
 10
25.93623853211009
 20
2.584846002621233
 11
28.07064220183486
 21
2.584846002621233
 97
        0
 75
     0
 76
     1
 98
        0
  0
HATCH
  5
167
330
125
100
AcDbEntity
  8
Default
  6
Continuous
 62
     7
100
AcDbHatch
 10
0.0
 20
0.0
 30
0.0
210
0.0
220
0.0
230
1.0
  2
SOLID
 70
     1
 71
     0
 91
        1
 92
        1
 93
        9
 72
     4
 94
        3
 73
     0
 74
     0
 95
       16
 96
       12
 40
0.0
 40
0.0
 40
0.0
 40
0.0
 40
0.3396620468027166
 40
0.3396620468027166
 40
0.3396620468027166
 40
0.3623316833330921
 40
0.3623316833330921
 40
0.3840945344022499
 40
0.3840945344022499
 40
0.3840945344022499
 40
1.0
 40
1.0
 40
1.0
 40
1.0
 10
32.58661533420707
 20
6.592627785058978
 10
31.42778505897771
 20
6.592627785058978
 10
30.26895478374836
 20
6.592627785058978
 10
29.110124508519
 20
6.592627785058978
 10
29.02927588466579
 20
6.592627785058978
 10
28.96228702490171
 20
6.564908256880734
 10
28.84909895150721
 20
6.451720183486239
 10
28.82137942332896
 20
6.38473132372215
 10
28.82137942332896
 20
6.303882699868939
 10
28.82137942332896
 20
4.202588466579293
 10
28.82137942332896
 20
2.101294233289646
 10
28.82137942332896
 20
0.0
 72
     1
 10
28.82137942332896
 20
0.0
 11
30.53999017038007
 21
0.0000000000000009
 72
     1
 10
30.53999017038007
 20
0.0000000000000009
 11
30.53999017038007
 21
2.584846002621234
 72
     1
 10
30.53999017038007
 20
2.584846002621234
 11
32.4872870249017
 21
2.584846002621233
 72
     1
 10
32.4872870249017
 20
2.584846002621233
 11
32.4872870249017
 21
4.042431192660551
 72
     1
 10
32.4872870249017
 20
4.042431192660551
 11
30.53999017038007
 21
4.042431192660551
 72
     1
 10
30.53999017038007
 20
4.042431192660551
 11
30.53999017038007
 21
5.141972477064221
 72
     1
 10
30.53999017038007
 20
5.141972477064221
 11
32.58661533420707
 21
5.141972477064221
 72
     1
 10
32.58661533420707
 20
5.141972477064221
 11
32.58661533420707
 21
6.592627785058978
 97
        0
 75
     0
 76
     1
 98
        0
  0
HATCH
  5
168
330
125
100
AcDbEntity
  8
Default
  6
Continuous
 62
     7
100
AcDbHatch
 10
0.0
 20
0.0
 30
0.0
210
0.0
220
0.0
230
1.0
  2
SOLID
 70
     1
 71
     0
 91
        1
 92
        1
 93
        4
 72
     4
 94
        3
 73
     0
 74
     0
 95
       14
 96
       10
 40
0.0
 40
0.0
 40
0.0
 40
0.0
 40
0.7580098693161609
 40
0.7580098693161609
 40
0.7580098693161609
 40
0.8789822868889446
 40
0.8789822868889446
 40
0.8789822868889446
 40
1.0
 40
1.0
 40
1.0
 40
1.0
 10
35.18532110091743
 20
6.608797509829621
 10
34.71100917431193
 20
6.608797509829621
 10
34.23669724770642
 20
6.608797509829621
 10
33.76238532110091
 20
6.608797509829621
 10
33.68153669724771
 20
6.608797509829621
 10
33.61680971405436
 20
6.578721860223512
 10
33.55910878112713
 20
6.523328964613368
 10
33.50135976408912
 20
6.467889908256881
 10
33.47364023591088
 20
6.400901048492791
 10
33.47364023591088
 20
6.320052424639582
 72
     1
 10
33.47364023591088
 20
6.320052424639582
 11
33.47364023591088
 21
0.0000000000000009
 72
     1
 10
33.47364023591088
 20
0.0000000000000009
 11
35.18532110091743
 21
0.0000000000000009
 72
     1
 10
35.18532110091743
 20
0.0000000000000009
 11
35.18532110091743
 21
6.608797509829621
 97
        0
 75
     0
 76
     1
 98
        0
  0
HATCH
  5
169
330
125
100
AcDbEntity
  8
Default
  6
Continuous
 62
     7
100
AcDbHatch
 10
0.0
 20
0.0
 30
0.0
210
0.0
220
0.0
230
1.0
  2
SOLID
 70
     1
 71
     0
 91
        1
 92
        1
 93
       12
 72
     1
 10
39.22313237221493
 20
4.885566841415466
 11
38.20905963302751
 21
6.592627785058978
 72
     1
 10
38.20905963302752
 20
6.592627785058978
 11
36.10468545216251
 21
6.592627785058978
 72
     1
 10
36.10468545216251
 20
6.592627785058978
 11
38.20905963302751
 21
3.525
 72
     1
 10
38.20905963302752
 20
3.525000000000001
 11
35.62652359108781
 21
0.0000000000000013
 72
     1
 10
35.6265235910878
 20
0.0000000000000009
 11
37.70317824377457
 21
0.0000000000000009
 72
     1
 10
37.70317824377457
 20
0.0000000000000009
 11
39.22313237221493
 21
2.145953473132373
 72
     1
 10
39.22313237221493
 20
2.145953473132373
 11
40.25568479685452
 21
0.5266710353866326
 72
     1
 10
40.25568479685452
 20
0.5266710353866322
 11
41.28823722149409
 21
1.995806028833553
 72
     1
 10
41.28823722149409
 20
1.995806028833553
 11
40.22565530799475
 21
3.525000000000001
 72
     1
 10
40.22565530799475
 20
3.525000000000001
 11
42.34157929226736
 21
6.592627785058978
 72
     1
 10
42.34157929226736
 20
6.592627785058978
 11
40.22565530799475
 21
6.592627785058978
 72
     1
 10
40.22565530799475
 20
6.592627785058978
 11
39.22313237221493
 21
4.885566841415466
 97
        0
 75
     0
 76
     1
 98
        0
  0
HATCH
  5
16A
330
125
100
AcDbEntity
  8
Default
  6
Continuous
 62
     7
100
AcDbHatch
 10
0.0
 20
0.0
 30
0.0
210
0.0
220
0.0
230
1.0
  2
SOLID
 70
     1
 71
     0
 91
        1
 92
        1
 93
        3
 72
     4
 94
        3
 73
     0
 74
     0
 95
       13
 96
        9
 40
0.0
 40
0.0
 40
0.0
 40
0.0
 40
0.0445094381088423
 40
0.0445094381088423
 40
0.0908355879772283
 40
0.0908355879772283
 40
0.0908355879772283
 40
1.0
 40
1.0
 40
1.0
 40
1.0
 10
45.71181192660551
 20
6.414760812581914
 10
45.61941349934469
 20
6.53256880733945
 10
45.51546526867628
 20
6.592627785058978
 10
45.28446920052424
 20
6.592627785058978
 10
45.18660375034128
 20
6.531537694833034
 10
45.10429226736566
 20
6.414760812581914
 10
43.69752621231979
 20
4.418954783748362
 10
42.29076015727392
 20
2.423148754914811
 10
40.88399410222804
 20
0.427342726081259
 72
     4
 94
        3
 73
     0
 74
     0
 95
       11
 96
        7
 40
0.0
 40
0.0
 40
0.0
 40
0.0
 40
0.3439066424360135
 40
0.3439066424360135
 40
0.3439066424360135
 40
1.0
 40
1.0
 40
1.0
 40
1.0
 10
40.88399410222804
 20
0.427342726081259
 10
40.83086500655307
 20
0.3418741808650076
 10
40.80230295367286
 20
0.2725253209688669
 10
40.80314547837483
 20
0.2194462647444313
 10
40.80545543905635
 20
0.0739187418086509
 10
40.90709370904325
 20
0.0000000000000009
 10
41.11268020969855
 20
0.0000000000000009
 72
     4
 94
        3
 73
     0
 74
     0
 95
       16
 96
       12
 40
0.0
 40
0.0
 40
0.0
 40
0.0
 40
0.5188870924081099
 40
0.5188870924081099
 40
0.5188870924081099
 40
0.544909989588877
 40
0.544909989588877
 40
0.5581347406151689
 40
0.5581347406151689
 40
0.5581347406151689
 40
1.0
 40
1.0
 40
1.0
 40
1.0
 10
41.11268020969855
 20
0.0000000000000009
 10
43.98011140235911
 20
0.0000000000000009
 10
46.84754259501965
 20
0.0000000000000009
 10
49.71497378768021
 20
0.0000000000000009
 10
49.91363040629096
 20
0.0000000000000009
 10
50.01295871559633
 20
0.0692988204456104
 10
50.01295871559633
 20
0.281815203145479
 10
49.98455330475264
 20
0.352940532254955
 10
49.93211009174313
 20
0.427342726081259
 10
48.52534403669725
 20
2.42314875491481
 10
47.11857798165137
 20
4.418954783748362
 10
45.71181192660551
 20
6.414760812581914
 97
        0
 75
     0
 76
     1
 98
        0
  0
ENDBLK
  5
16C
330
125
100
AcDbEntity
  8
0
100
AcDbBlockEnd
  0
BLOCK
  5
176
330
16D
100
AcDbEntity
  8
0
100
AcDbBlockBegin
  2
RF-Massblatt_2016
 70
     0
 10
0.0
 20
0.0
 30
0.0
  3
RF-Massblatt_2016
  1

  0
MTEXT
  5
16E
102
{ACAD_XDICTIONARY
360
180
102
}
330
16D
100
AcDbEntity
  8
Default
100
AcDbMText
 10
15.2206856049
 20
34.8070876502
 30
0.0
 40
2.5
 41
48.9706096033
 71
     1
 72
     1
  3
{\fVectora Com 45 Light|b1||i0||c0|p34;\C7;\H2.5;\W1.;REGO-FIX AG\P}{\fVectora Com 45 Light|b0||i0||c0|p34;\C7;\H2.5;\W1.;Obermattweg 60\P}{\fVectora Com 45 Light|b0||i0||c0|p34;\C7;\H2.5;\W1.;4456 Tenniken / Switzerland\P}{\fVectora Com 45 Light|b0
  3
||i0||c0|p34;\C7;\H2.5;\W1.;\P}{\fVectora Com 45 Light|b0||i0||c0|p34;\C7;\H2.5;\W1.;P +41 61 976 14 66\P}{\fVectora Com 45 Light|b0||i0||c0|p34;\C7;\H2.5;\W1.;F +41 61 976 14 14\P}{\fVectora Com 45 Light|b1||i0||c0|p34;\C7;\H2.5;\W1.;www.rego-fix.c
  1
om}
 73
     1
 44
1.0
1001
ACAD
1000
ACAD_MTEXT_DEFINED_HEIGHT_BEGIN
1070
    46
1040
31.3191355437
1000
ACAD_MTEXT_DEFINED_HEIGHT_END
  0
MTEXT
  5
16F
102
{ACAD_XDICTIONARY
360
182
102
}
330
16D
100
AcDbEntity
  8
Default
100
AcDbMText
 10
90.3836341545
 20
34.4892285804
 30
0.0
 40
2.5
 41
104.0282149141
 71
     1
 72
     1
  3
{\fSolid Edge ISO|b0||i0||c0|p34;\C7;\H2.;\W1.;This is a non-controlled copy. All information given herein is subject to change without notice\P}{\fSolid Edge ISO|b0||i0||c0|p34;\C7;\H2.;\W1.;\P}{\fSolid Edge ISO|b0||i0||c0|p34;\C7;\H2.;\W1.;The inf
  3
ormation given herein has been carefully checked and is believed to be correct. REGO-FIX,\P}{\fSolid Edge ISO|b0||i0||c0|p34;\C7;\H2.;\W1.;however, assumes no responsibility or liability for any errors, inaccuracies or omissions that may appear\P}{\
  3
fSolid Edge ISO|b0||i0||c0|p34;\C7;\H2.;\W1.;in this drawing\P}{\fSolid Edge ISO|b0||i0||c0|p34;\C7;\H2.;\W1.;\P}{\fSolid Edge ISO|b0||i0||c0|p34;\C7;\H2.;\W1.;This document is subject to copyright laws. No part of this document may be reproduced or
  3
 transmitted\P}{\fSolid Edge ISO|b0||i0||c0|p34;\C7;\H2.;\W1.;in any form or any means, electronic or mechanic, for any purpose, without the express written permission\P}{\fSolid Edge ISO|b0||i0||c0|p34;\C7;\H2.;\W1.;of REGO-FIX\P}{\fSolid Edge ISO|
  1
b0||i0||c0|p34;\C7;\H1.5;\W1.;\P}
 73
     1
 44
1.0
1001
ACAD
1000
ACAD_MTEXT_DEFINED_HEIGHT_BEGIN
1070
    46
1040
38.4545554545
1000
ACAD_MTEXT_DEFINED_HEIGHT_END
  0
INSERT
  5
170
330
16D
100
AcDbEntity
  8
Default
100
AcDbBlockReference
  2
SEANNOT_GROUP
 10
0.0
 20
0.0
 30
0.0
  0
INSERT
  5
171
330
16D
100
AcDbEntity
  8
Default
100
AcDbBlockReference
  2
SEANNOT_GROUP1
 10
0.0
 20
0.0
 30
0.0
  0
MTEXT
  5
172
102
{ACAD_XDICTIONARY
360
184
102
}
330
16D
100
AcDbEntity
  8
Default
100
AcDbMText
 10
219.0323311835
 20
34.8066733186
 30
0.0
 40
2.5
 41
20.1335141444
 71
     1
 72
     1
  3
{\fVectora Com 45 Light|b0||i0||c0|p34;\C7;\H3.5;\W1.;Type :\P}{\fVectora Com 45 Light|b0||i0||c0|p34;\C7;\H3.5;\W1.;Part No. :\P}{\fVectora Com 45 Light|b0||i0||c0|p34;\C7;\H3.5;\W1.;Date : \P}{\fVectora Com 45 Light|b0||i0||c0|p34;\C7;\H3.5;\W1.;S
  1
cale :}
 73
     1
 44
1.0
1001
ACAD
1000
ACAD_MTEXT_DEFINED_HEIGHT_BEGIN
1070
    46
1040
23.6666666667
1000
ACAD_MTEXT_DEFINED_HEIGHT_END
  0
INSERT
  5
173
330
16D
100
AcDbEntity
  8
Default
100
AcDbBlockReference
  2
SEANNOT_GROUP2
 10
0.0
 20
0.0
 30
0.0
  0
INSERT
  5
174
330
16D
100
AcDbEntity
  8
Default
100
AcDbBlockReference
  2
SEANNOT_GROUP3
 10
0.0
 20
0.0
 30
0.0
  0
INSERT
  5
175
330
16D
100
AcDbEntity
  8
Default
 62
     7
100
AcDbBlockReference
  2
Block1
 10
227.000440997
 20
183.1186606679
 30
0.0
  0
ENDBLK
  5
177
330
16D
100
AcDbEntity
  8
0
100
AcDbBlockEnd
  0
ENDSEC
  0
SECTION
  2
ENTITIES
  0
INSERT
  5
41
330
1F
100
AcDbEntity
  8
Default
100
AcDbBlockReference
  2
SE
 10
0.0
 20
0.0
 30
0.0
  0
INSERT
  5
ED
330
1F
100
AcDbEntity
  8
Default
100
AcDbBlockReference
  2
SE1
 10
0.0
 20
0.0
 30
0.0
  0
INSERT
  5
F5
330
1F
100
AcDbEntity
  8
Default
100
AcDbBlockReference
  2
GDimGGroup
 10
0.0
 20
0.0
 30
0.0
  0
INSERT
  5
100
330
1F
100
AcDbEntity
  8
Default
100
AcDbBlockReference
  2
GDimGGroup1
 10
0.0
 20
0.0
 30
0.0
  0
INSERT
  5
10A
330
1F
100
AcDbEntity
  8
Default
100
AcDbBlockReference
  2
GDimGGroup2
 10
0.0
 20
0.0
 30
0.0
  0
INSERT
  5
178
330
1F
100
AcDbEntity
  8
Default
 62
     7
100
AcDbBlockReference
  2
RF-Massblatt_2016
 10
0.0
 20
0.0
 30
0.0
  0
ENDSEC
  0
SECTION
  2
OBJECTS
  0
DICTIONARY
  5
C
330
0
100
AcDbDictionary
281
     1
  3
ACAD_GROUP
350
D
  3
ACAD_LAYOUT
350
1A
  3
ACAD_MATERIAL
350
3B
  3
ACAD_MLEADERSTYLE
350
17B
  3
ACAD_MLINESTYLE
350
17
  3
ACAD_PLOTSETTINGS
350
19
  3
ACAD_PLOTSTYLENAME
350
E
  3
ACAD_VISUALSTYLE
350
2A
  3
AcDbVariableDictionary
350
179
  0
DICTIONARY
  5
180
330
16E
100
AcDbDictionary
280
     1
281
     1
  3
ACAD_MTEXT_RT
360
181
  0
DICTIONARY
  5
182
330
16F
100
AcDbDictionary
280
     1
281
     1
  3
ACAD_MTEXT_RT
360
183
  0
DICTIONARY
  5
184
330
172
100
AcDbDictionary
280
     1
281
     1
  3
ACAD_MTEXT_RT
360
185
  0
DICTIONARY
  5
D
102
{ACAD_REACTORS
330
C
102
}
330
C
100
AcDbDictionary
281
     1
  0
DICTIONARY
  5
1A
102
{ACAD_REACTORS
330
C
102
}
330
C
100
AcDbDictionary
281
     1
  3
Layout1
350
1E
  3
Model
350
22
  0
DICTIONARY
  5
3B
102
{ACAD_REACTORS
330
C
102
}
330
C
100
AcDbDictionary
281
     1
  3
ByBlock
350
3D
  3
ByLayer
350
3C
  3
Global
350
3E
  0
DICTIONARY
  5
17B
102
{ACAD_REACTORS
330
C
102
}
330
C
100
AcDbDictionary
281
     1
  0
DICTIONARY
  5
17
102
{ACAD_REACTORS
330
C
102
}
330
C
100
AcDbDictionary
281
     1
  3
Standard
350
18
  0
DICTIONARY
  5
19
102
{ACAD_REACTORS
330
C
102
}
330
C
100
AcDbDictionary
281
     1
  0
ACDBDICTIONARYWDFLT
  5
E
102
{ACAD_REACTORS
330
C
102
}
330
C
100
AcDbDictionary
281
     1
  3
Normal
350
F
100
AcDbDictionaryWithDefault
340
F
  0
DICTIONARY
  5
2A
102
{ACAD_REACTORS
330
C
102
}
330
C
100
AcDbDictionary
281
     1
  3
2dWireframe
350
2F
  3
3D Hidden
350
31
  3
3dWireframe
350
30
  3
Basic
350
32
  3
Brighten
350
36
  3
ColorChange
350
3A
  3
Conceptual
350
34
  3
Dim
350
35
  3
Facepattern
350
39
  3
Flat
350
2B
  3
FlatWithEdges
350
2C
  3
Gouraud
350
2D
  3
GouraudWithEdges
350
2E
  3
Linepattern
350
38
  3
Realistic
350
33
  3
Thicken
350
37
  0
DICTIONARY
  5
179
102
{ACAD_REACTORS
330
C
102
}
330
C
100
AcDbDictionary
281
     1
  3
DIMASSOC
350
17E
  3
HIDETEXT
350
17F
  3
PSOLHEIGHT
350
17D
  3
PSOLWIDTH
350
17C
  0
XRECORD
  5
181
102
{ACAD_REACTORS
330
180
102
}
330
180
100
AcDbXrecord
280
     1
 40
10118767.0
  1
\pxsm1.;{\fVectora Com 45 Light|b1||i0||c0|p34;\C7;\H2.5;\W1.;REGO-FIX AG\P}{\fVectora Com 45 Light|b0||i0||c0|p34;\C7;\H2.5;\W1.;Obermattweg 60\P}{\fVectora Com 45 Light|b0||i0||c0|p34;\C7;\H2.5;\W1.;4456 Tenniken / Switzerland\P}{\fVectora Com 45 L
  1
ight|b0||i0||c0|p34;\C7;\H2.5;\W1.;\P}{\fVectora Com 45 Light|b0||i0||c0|p34;\C7;\H2.5;\W1.;P +41 61 976 14 66\P}{\fVectora Com 45 Light|b0||i0||c0|p34;\C7;\H2.5;\W1.;F +41 61 976 14 14\P}{\fVectora Com 45 Light|b1||i0||c0|p34;\C7;\H2.5;\W1.;www.rego
  1
-fix.com}
  0
XRECORD
  5
183
102
{ACAD_REACTORS
330
182
102
}
330
182
100
AcDbXrecord
280
     1
 40
47111022.0
  1
\pxsm1.;{\fSolid Edge ISO|b0||i0||c0|p34;\C7;\H2.;\W1.;This is a non-controlled copy. All information given herein is subject to change without notice\P}{\fSolid Edge ISO|b0||i0||c0|p34;\C7;\H2.;\W1.;\P}{\fSolid Edge ISO|b0||i0||c0|p34;\C7;\H2.;\W1.;
  1
The information given herein has been carefully checked and is believed to be correct. REGO-FIX,\P}{\fSolid Edge ISO|b0||i0||c0|p34;\C7;\H2.;\W1.;however, assumes no responsibility or liability for any errors, inaccuracies or omissions that may appea
  1
r\P}{\fSolid Edge ISO|b0||i0||c0|p34;\C7;\H2.;\W1.;in this drawing\P}{\fSolid Edge ISO|b0||i0||c0|p34;\C7;\H2.;\W1.;\P}{\fSolid Edge ISO|b0||i0||c0|p34;\C7;\H2.;\W1.;This document is subject to copyright laws. No part of this document may be reproduc
  1
ed or transmitted\P}{\fSolid Edge ISO|b0||i0||c0|p34;\C7;\H2.;\W1.;in any form or any means, electronic or mechanic, for any purpose, without the express written permission\P}{\fSolid Edge ISO|b0||i0||c0|p34;\C7;\H2.;\W1.;of REGO-FIX\P}{\fSolid Edge 
  1
ISO|b0||i0||c0|p34;\C7;\H1.5;\W1.;\P}
  0
XRECORD
  5
185
102
{ACAD_REACTORS
330
184
102
}
330
184
100
AcDbXrecord
280
     1
 40
2697483.0
  1
\pxsm1.;{\fVectora Com 45 Light|b0||i0||c0|p34;\C7;\H3.5;\W1.;Type :\P}{\fVectora Com 45 Light|b0||i0||c0|p34;\C7;\H3.5;\W1.;Part No. :\P}{\fVectora Com 45 Light|b0||i0||c0|p34;\C7;\H3.5;\W1.;Date : \P}{\fVectora Com 45 Light|b0||i0||c0|p34;\C7;\H3.5
  1
;\W1.;Scale :}
  0
LAYOUT
  5
1E
102
{ACAD_REACTORS
330
1A
102
}
330
1A
100
AcDbPlotSettings
  1

  2
none_device
  4

  6

 40
0.0
 41
0.0
 42
0.0
 43
0.0
 44
0.0
 45
0.0
 46
0.0
 47
0.0
 48
0.0
 49
0.0
140
0.0
141
0.0
142
1.0
143
1.0
 70
   688
 72
     0
 73
     0
 74
     5
  7

 75
    16
147
1.0
148
0.0
149
0.0
100
AcDbLayout
  1
Layout1
 70
     1
 71
     1
 10
0.0
 20
0.0
 11
297.0
 21
210.0
 12
0.0
 22
0.0
 32
0.0
 14
0.0
 24
0.0
 34
0.0
 15
297.0
 25
210.0
 35
0.0
146
0.0
 13
0.0
 23
0.0
 33
0.0
 16
1.0
 26
0.0
 36
0.0
 17
0.0
 27
1.0
 37
0.0
 76
     0
330
1B
  0
LAYOUT
  5
22
102
{ACAD_REACTORS
330
1A
102
}
330
1A
100
AcDbPlotSettings
  1

  2
none_device
  4

  6

 40
0.0
 41
0.0
 42
0.0
 43
0.0
 44
0.0
 45
0.0
 46
0.0
 47
0.0
 48
0.0
 49
0.0
140
0.0
141
0.0
142
1.0
143
1.0
 70
  1712
 72
     0
 73
     0
 74
     0
  7

 75
     0
147
1.0
148
0.0
149
0.0
100
AcDbLayout
  1
Model
 70
     1
 71
     0
 10
0.0
 20
0.0
 11
297.0
 21
210.0
 12
0.0
 22
0.0
 32
0.0
 14
0.0
 24
0.0
 34
0.0
 15
297.0
 25
210.0
 35
0.0
146
0.0
 13
0.0
 23
0.0
 33
0.0
 16
1.0
 26
0.0
 36
0.0
 17
0.0
 27
1.0
 37
0.0
 76
     0
330
1F
331
29
  0
MATERIAL
  5
3D
102
{ACAD_REACTORS
330
3B
102
}
102
{ACAD_XDICTIONARY
360
1A8
102
}
330
3B
100
AcDbMaterial
  1
ByBlock
  0
MATERIAL
  5
3C
102
{ACAD_REACTORS
330
3B
102
}
102
{ACAD_XDICTIONARY
360
1A6
102
}
330
3B
100
AcDbMaterial
  1
ByLayer
  0
MATERIAL
  5
3E
102
{ACAD_REACTORS
330
3B
102
}
102
{ACAD_XDICTIONARY
360
1AA
102
}
330
3B
100
AcDbMaterial
  1
Global
  0
MLINESTYLE
  5
18
102
{ACAD_REACTORS
330
17
102
}
330
17
100
AcDbMlineStyle
  2
Standard
 70
     0
  3

 62
   256
 51
90.0
 52
90.0
 71
     2
 49
0.5
 62
   256
  6
BYLAYER
 49
-0.5
 62
   256
  6
BYLAYER
  0
ACDBPLACEHOLDER
  5
F
102
{ACAD_REACTORS
330
E
102
}
330
E
  0
VISUALSTYLE
  5
2F
102
{ACAD_REACTORS
330
2A
102
}
102
{ACAD_XDICTIONARY
360
18E
102
}
330
2A
100
AcDbVisualStyle
  2
2dWireframe
 70
     4
 71
     0
 72
     2
 73
     0
 90
        0
 40
-0.6
 41
-30.0
 62
     5
 63
     7
 74
     1
 91
        4
 64
     7
 65
   257
 75
     1
175
     1
 42
1.0
 92
        0
 66
   257
 43
1.0
 76
     1
 77
     6
 78
     2
 67
     7
 79
     5
170
     0
171
     0
290
     0
174
     0
 93
        1
 44
0.0
173
     0
291
     0
 45
0.0
1001
ACAD
1000
AcDbSavedByObjectVersion
1070
     0
  0
VISUALSTYLE
  5
31
102
{ACAD_REACTORS
330
2A
102
}
102
{ACAD_XDICTIONARY
360
192
102
}
330
2A
100
AcDbVisualStyle
  2
3D Hidden
 70
     6
 71
     1
 72
     2
 73
     2
 90
        0
 40
-0.6
 41
-30.0
 62
     5
 63
     7
 74
     2
 91
        2
 64
     7
 65
   257
 75
     2
175
     1
 42
40.0
 92
        0
 66
   257
 43
1.0
 76
     1
 77
     6
 78
     2
 67
     7
 79
     3
170
     0
171
     0
290
     0
174
     0
 93
        1
 44
0.0
173
     0
291
     0
 45
0.0
1001
ACAD
1000
AcDbSavedByObjectVersion
1070
     0
  0
VISUALSTYLE
  5
30
102
{ACAD_REACTORS
330
2A
102
}
102
{ACAD_XDICTIONARY
360
190
102
}
330
2A
100
AcDbVisualStyle
  2
3dWireframe
 70
     5
 71
     0
 72
     2
 73
     0
 90
        0
 40
-0.6
 41
-30.0
 62
     5
 63
     7
 74
     1
 91
        4
 64
     7
 65
   257
 75
     1
175
     1
 42
1.0
 92
        0
 66
   257
 43
1.0
 76
     1
 77
     6
 78
     2
 67
     7
 79
     5
170
     0
171
     0
290
     0
174
     0
 93
        1
 44
0.0
173
     0
291
     0
 45
0.0
1001
ACAD
1000
AcDbSavedByObjectVersion
1070
     0
  0
VISUALSTYLE
  5
32
102
{ACAD_REACTORS
330
2A
102
}
102
{ACAD_XDICTIONARY
360
194
102
}
330
2A
100
AcDbVisualStyle
  2
Basic
 70
     7
 71
     1
 72
     0
 73
     1
 90
        0
 40
-0.6
 41
-30.0
 62
     5
 63
     7
 74
     0
 91
        4
 64
     7
 65
   257
 75
     1
175
     1
 42
1.0
 92
        8
 66
     7
 43
1.0
 76
     1
 77
     6
 78
     2
 67
     7
 79
     5
170
     0
171
     0
290
     0
174
     0
 93
        1
 44
0.0
173
     0
291
     1
 45
0.0
1001
ACAD
1000
AcDbSavedByObjectVersion
1070
     0
  0
VISUALSTYLE
  5
36
102
{ACAD_REACTORS
330
2A
102
}
102
{ACAD_XDICTIONARY
360
19C
102
}
330
2A
100
AcDbVisualStyle
  2
Brighten
 70
    12
 71
     2
 72
     2
 73
     0
 90
        0
 40
-0.6
 41
-30.0
 62
     5
 63
     7
 74
     1
 91
        4
 64
     7
 65
   257
 75
     1
175
     1
 42
1.0
 92
        8
 66
     7
 43
1.0
 76
     1
 77
     6
 78
     2
 67
     7
 79
     5
170
     0
171
     0
290
     0
174
     0
 93
        1
 44
50.0
173
     0
291
     1
 45
0.0
1001
ACAD
1000
AcDbSavedByObjectVersion
1070
     0
  0
VISUALSTYLE
  5
3A
102
{ACAD_REACTORS
330
2A
102
}
102
{ACAD_XDICTIONARY
360
1A4
102
}
330
2A
100
AcDbVisualStyle
  2
ColorChange
 70
    16
 71
     2
 72
     2
 73
     3
 90
        0
 40
-0.6
 41
-30.0
 62
     5
 63
     8
 74
     1
 91
        4
 64
     7
 65
   257
 75
     1
175
     1
 42
1.0
 92
        8
 66
     8
 43
1.0
 76
     1
 77
     6
 78
     2
 67
     7
 79
     5
170
     0
171
     0
290
     0
174
     0
 93
        1
 44
0.0
173
     0
291
     1
 45
0.0
1001
ACAD
1000
AcDbSavedByObjectVersion
1070
     0
  0
VISUALSTYLE
  5
34
102
{ACAD_REACTORS
330
2A
102
}
102
{ACAD_XDICTIONARY
360
198
102
}
330
2A
100
AcDbVisualStyle
  2
Conceptual
 70
     9
 71
     3
 72
     2
 73
     0
 90
        0
 40
-0.6
 41
-30.0
 62
     5
 63
     7
 74
     2
 91
        2
 64
     7
 65
   257
 75
     1
175
     1
 42
40.0
 92
        8
 66
     7
 43
1.0
 76
     1
 77
     6
 78
     2
 67
     7
 79
     3
170
     0
171
     0
290
     0
174
     0
 93
        1
 44
0.0
173
     0
291
     0
 45
0.0
1001
ACAD
1000
AcDbSavedByObjectVersion
1070
     0
  0
VISUALSTYLE
  5
35
102
{ACAD_REACTORS
330
2A
102
}
102
{ACAD_XDICTIONARY
360
19A
102
}
330
2A
100
AcDbVisualStyle
  2
Dim
 70
    11
 71
     2
 72
     2
 73
     0
 90
        0
 40
-0.6
 41
-30.0
 62
     5
 63
     7
 74
     1
 91
        4
 64
     7
 65
   257
 75
     1
175
     1
 42
1.0
 92
        8
 66
     7
 43
1.0
 76
     1
 77
     6
 78
     2
 67
     7
 79
     5
170
     0
171
     0
290
     0
174
     0
 93
        1
 44
-50.0
173
     0
291
     1
 45
0.0
1001
ACAD
1000
AcDbSavedByObjectVersion
1070
     0
  0
VISUALSTYLE
  5
39
102
{ACAD_REACTORS
330
2A
102
}
102
{ACAD_XDICTIONARY
360
1A2
102
}
330
2A
100
AcDbVisualStyle
  2
Facepattern
 70
    15
 71
     2
 72
     2
 73
     0
 90
        0
 40
-0.6
 41
-30.0
 62
     5
 63
     7
 74
     1
 91
        4
 64
     7
 65
   257
 75
     1
175
     1
 42
1.0
 92
        8
 66
     7
 43
1.0
 76
     1
 77
     6
 78
     2
 67
     7
 79
     5
170
     0
171
     0
290
     0
174
     0
 93
        1
 44
0.0
173
     0
291
     1
 45
0.0
1001
ACAD
1000
AcDbSavedByObjectVersion
1070
     0
  0
VISUALSTYLE
  5
2B
102
{ACAD_REACTORS
330
2A
102
}
102
{ACAD_XDICTIONARY
360
186
102
}
330
2A
100
AcDbVisualStyle
  2
Flat
 70
     0
 71
     2
 72
     1
 73
     1
 90
        2
 40
-0.6
 41
30.0
 62
     5
 63
     7
 74
     0
 91
        4
 64
     7
 65
   257
 75
     1
175
     1
 42
1.0
 92
        8
 66
     7
 43
1.0
 76
     1
 77
     6
 78
     2
 67
     7
 79
     5
170
     0
171
     0
290
     0
174
     0
 93
       13
 44
0.0
173
     0
291
     1
 45
0.0
1001
ACAD
1000
AcDbSavedByObjectVersion
1070
     0
  0
VISUALSTYLE
  5
2C
102
{ACAD_REACTORS
330
2A
102
}
102
{ACAD_XDICTIONARY
360
188
102
}
330
2A
100
AcDbVisualStyle
  2
FlatWithEdges
 70
     1
 71
     2
 72
     1
 73
     1
 90
        2
 40
-0.6
 41
30.0
 62
     5
 63
     7
 74
     1
 91
        4
 64
     7
 65
   257
 75
     1
175
     1
 42
1.0
 92
        0
 66
   257
 43
1.0
 76
     1
 77
     6
 78
     2
 67
     7
 79
     5
170
     0
171
     0
290
     0
174
     0
 93
       13
 44
0.0
173
     0
291
     1
 45
0.0
1001
ACAD
1000
AcDbSavedByObjectVersion
1070
     0
  0
VISUALSTYLE
  5
2D
102
{ACAD_REACTORS
330
2A
102
}
102
{ACAD_XDICTIONARY
360
18A
102
}
330
2A
100
AcDbVisualStyle
  2
Gouraud
 70
     2
 71
     2
 72
     2
 73
     1
 90
        2
 40
-0.6
 41
30.0
 62
     5
 63
     7
 74
     0
 91
        4
 64
     7
 65
   257
 75
     1
175
     1
 42
1.0
 92
        0
 66
     7
 43
1.0
 76
     1
 77
     6
 78
     2
 67
     7
 79
     5
170
     0
171
     0
290
     0
174
     0
 93
       13
 44
0.0
173
     0
291
     1
 45
0.0
1001
ACAD
1000
AcDbSavedByObjectVersion
1070
     0
  0
VISUALSTYLE
  5
2E
102
{ACAD_REACTORS
330
2A
102
}
102
{ACAD_XDICTIONARY
360
18C
102
}
330
2A
100
AcDbVisualStyle
  2
GouraudWithEdges
 70
     3
 71
     2
 72
     2
 73
     1
 90
        2
 40
-0.6
 41
30.0
 62
     5
 63
     7
 74
     1
 91
        4
 64
     7
 65
   257
 75
     1
175
     1
 42
1.0
 92
        0
 66
   257
 43
1.0
 76
     1
 77
     6
 78
     2
 67
     7
 79
     5
170
     0
171
     0
290
     0
174
     0
 93
       13
 44
0.0
173
     0
291
     1
 45
0.0
1001
ACAD
1000
AcDbSavedByObjectVersion
1070
     0
  0
VISUALSTYLE
  5
38
102
{ACAD_REACTORS
330
2A
102
}
102
{ACAD_XDICTIONARY
360
1A0
102
}
330
2A
100
AcDbVisualStyle
  2
Linepattern
 70
    14
 71
     2
 72
     2
 73
     0
 90
        0
 40
-0.6
 41
-30.0
 62
     5
 63
     7
 74
     1
 91
        4
 64
     7
 65
   257
 75
     7
175
     7
 42
1.0
 92
        8
 66
     7
 43
1.0
 76
     1
 77
     6
 78
     2
 67
     7
 79
     5
170
     0
171
     0
290
     0
174
     0
 93
        1
 44
0.0
173
     0
291
     1
 45
0.0
1001
ACAD
1000
AcDbSavedByObjectVersion
1070
     0
  0
VISUALSTYLE
  5
33
102
{ACAD_REACTORS
330
2A
102
}
102
{ACAD_XDICTIONARY
360
196
102
}
330
2A
100
AcDbVisualStyle
  2
Realistic
 70
     8
 71
     2
 72
     2
 73
     0
 90
        0
 40
-0.6
 41
-30.0
 62
     5
 63
     7
 74
     1
 91
        0
 64
     7
 65
   257
 75
     1
175
     1
 42
1.0
 92
        8
 66
     8
 43
1.0
 76
     1
 77
     6
 78
     2
 67
     7
 79
     5
170
     0
171
     0
290
     0
174
     0
 93
       13
 44
0.0
173
     0
291
     0
 45
0.0
1001
ACAD
1000
AcDbSavedByObjectVersion
1070
     0
  0
VISUALSTYLE
  5
37
102
{ACAD_REACTORS
330
2A
102
}
102
{ACAD_XDICTIONARY
360
19E
102
}
330
2A
100
AcDbVisualStyle
  2
Thicken
 70
    13
 71
     2
 72
     2
 73
     0
 90
        0
 40
-0.6
 41
-30.0
 62
     5
 63
     7
 74
     1
 91
        4
 64
     7
 65
   257
 75
     1
175
     1
 42
1.0
 92
       12
 66
     7
 43
1.0
 76
     1
 77
     6
 78
     2
 67
     7
 79
     5
170
     0
171
     0
290
     0
174
     0
 93
        1
 44
0.0
173
     0
291
     1
 45
0.0
1001
ACAD
1000
AcDbSavedByObjectVersion
1070
     0
  0
DICTIONARYVAR
  5
17E
102
{ACAD_REACTORS
330
179
102
}
330
179
100
DictionaryVariables
280
     0
  1
2
  0
DICTIONARYVAR
  5
17F
102
{ACAD_REACTORS
330
179
102
}
330
179
100
DictionaryVariables
280
     0
  1
1
  0
DICTIONARYVAR
  5
17D
102
{ACAD_REACTORS
330
179
102
}
330
179
100
DictionaryVariables
280
     0
  1
80.000000
  0
DICTIONARYVAR
  5
17C
102
{ACAD_REACTORS
330
179
102
}
330
179
100
DictionaryVariables
280
     0
  1
5.000000
  0
DICTIONARY
  5
1A8
330
3D
100
AcDbDictionary
280
     1
281
     1
  3
ACAD_XREC_ROUNDTRIP
360
1A9
  0
DICTIONARY
  5
1A6
330
3C
100
AcDbDictionary
280
     1
281
     1
  3
ACAD_XREC_ROUNDTRIP
360
1A7
  0
DICTIONARY
  5
1AA
330
3E
100
AcDbDictionary
280
     1
281
     1
  3
ACAD_XREC_ROUNDTRIP
360
1AB
  0
DICTIONARY
  5
18E
330
2F
100
AcDbDictionary
280
     1
281
     1
  3
ACAD_XREC_ROUNDTRIP
360
18F
  0
DICTIONARY
  5
192
330
31
100
AcDbDictionary
280
     1
281
     1
  3
ACAD_XREC_ROUNDTRIP
360
193
  0
DICTIONARY
  5
190
330
30
100
AcDbDictionary
280
     1
281
     1
  3
ACAD_XREC_ROUNDTRIP
360
191
  0
DICTIONARY
  5
194
330
32
100
AcDbDictionary
280
     1
281
     1
  3
ACAD_XREC_ROUNDTRIP
360
195
  0
DICTIONARY
  5
19C
330
36
100
AcDbDictionary
280
     1
281
     1
  3
ACAD_XREC_ROUNDTRIP
360
19D
  0
DICTIONARY
  5
1A4
330
3A
100
AcDbDictionary
280
     1
281
     1
  3
ACAD_XREC_ROUNDTRIP
360
1A5
  0
DICTIONARY
  5
198
330
34
100
AcDbDictionary
280
     1
281
     1
  3
ACAD_XREC_ROUNDTRIP
360
199
  0
DICTIONARY
  5
19A
330
35
100
AcDbDictionary
280
     1
281
     1
  3
ACAD_XREC_ROUNDTRIP
360
19B
  0
DICTIONARY
  5
1A2
330
39
100
AcDbDictionary
280
     1
281
     1
  3
ACAD_XREC_ROUNDTRIP
360
1A3
  0
DICTIONARY
  5
186
330
2B
100
AcDbDictionary
280
     1
281
     1
  3
ACAD_XREC_ROUNDTRIP
360
187
  0
DICTIONARY
  5
188
330
2C
100
AcDbDictionary
280
     1
281
     1
  3
ACAD_XREC_ROUNDTRIP
360
189
  0
DICTIONARY
  5
18A
330
2D
100
AcDbDictionary
280
     1
281
     1
  3
ACAD_XREC_ROUNDTRIP
360
18B
  0
DICTIONARY
  5
18C
330
2E
100
AcDbDictionary
280
     1
281
     1
  3
ACAD_XREC_ROUNDTRIP
360
18D
  0
DICTIONARY
  5
1A0
330
38
100
AcDbDictionary
280
     1
281
     1
  3
ACAD_XREC_ROUNDTRIP
360
1A1
  0
DICTIONARY
  5
196
330
33
100
AcDbDictionary
280
     1
281
     1
  3
ACAD_XREC_ROUNDTRIP
360
197
  0
DICTIONARY
  5
19E
330
37
100
AcDbDictionary
280
     1
281
     1
  3
ACAD_XREC_ROUNDTRIP
360
19F
  0
XRECORD
  5
1A9
102
{ACAD_REACTORS
330
1A8
102
}
330
1A8
100
AcDbXrecord
280
     1
102
MATERIAL
148
0.0
149
0.0
149
0.0
 93
        0
 94
      127
282
     0
 72
     1
 77
     1
171
     1
175
     1
179
     1
273
     0
  0
XRECORD
  5
1A7
102
{ACAD_REACTORS
330
1A6
102
}
330
1A6
100
AcDbXrecord
280
     1
102
MATERIAL
148
0.0
149
0.0
149
0.0
 93
        0
 94
      127
282
     0
 72
     1
 77
     1
171
     1
175
     1
179
     1
273
     0
  0
XRECORD
  5
1AB
102
{ACAD_REACTORS
330
1AA
102
}
330
1AA
100
AcDbXrecord
280
     1
102
MATERIAL
148
0.0
149
0.0
149
0.0
 93
        0
 94
      127
282
     0
 72
     1
 77
     1
171
     1
175
     1
179
     1
273
     0
  0
XRECORD
  5
18F
102
{ACAD_REACTORS
330
18E
102
}
330
18E
100
AcDbXrecord
280
     1
102
RTVSPropertyOp0
 70
     1
102
RTVSPropertyOp1
 70
     1
102
RTVSPropertyOp2
 70
     1
102
RTVSPropertyOp3
 70
     1
102
RTVSPropertyOp4
 70
     1
102
RTVSPropertyOp5
 70
     1
102
RTVSPropertyOp6
 70
     1
102
RTVSPropertyOp7
 70
     1
102
RTVSPropertyOp8
 70
     1
102
RTVSPropertyOp9
 70
     1
102
RTVSPropertyOp10
 70
     1
102
RTVSPropertyOp11
 70
     1
102
RTVSPropertyOp12
 70
     1
102
RTVSPropertyOp13
 70
     1
102
RTVSPropertyOp14
 70
     1
102
RTVSPropertyOp15
 70
     1
102
RTVSPropertyOp16
 70
     1
102
RTVSPropertyOp17
 70
     1
102
RTVSPropertyOp18
 70
     1
102
RTVSPropertyOp19
 70
     1
102
RTVSPropertyOp20
 70
     1
102
RTVSPropertyOp21
 70
     1
102
RTVSPropertyOp22
 70
     1
102
RTVSPropertyOp23
 70
     1
102
RTVSPropertyOp24
 70
     1
102
RTVSPropertyOp25
 70
     1
102
RTVSPropertyOp26
 70
     1
102
RTVSPropertyOp27
 70
     1
102
RTVSPropertyOp28
 70
     1
102
RTVSPropertyOp29
 70
     1
102
RTVSPropertyOp30
 70
     1
102
RTVSPropertyOp31
 70
     1
102
RTVSPropertyOp32
 70
     1
  0
XRECORD
  5
193
102
{ACAD_REACTORS
330
192
102
}
330
192
100
AcDbXrecord
280
     1
102
RTVSPropertyOp0
 70
     1
102
RTVSPropertyOp1
 70
     1
102
RTVSPropertyOp2
 70
     1
102
RTVSPropertyOp3
 70
     1
102
RTVSPropertyOp4
 70
     1
102
RTVSPropertyOp5
 70
     1
102
RTVSPropertyOp6
 70
     1
102
RTVSPropertyOp7
 70
     1
102
RTVSPropertyOp8
 70
     1
102
RTVSPropertyOp9
 70
     1
102
RTVSPropertyOp10
 70
     1
102
RTVSPropertyOp11
 70
     1
102
RTVSPropertyOp12
 70
     1
102
RTVSPropertyOp13
 70
     1
102
RTVSPropertyOp14
 70
     1
102
RTVSPropertyOp15
 70
     1
102
RTVSPropertyOp16
 70
     1
102
RTVSPropertyOp17
 70
     1
102
RTVSPropertyOp18
 70
     1
102
RTVSPropertyOp19
 70
     1
102
RTVSPropertyOp20
 70
     1
102
RTVSPropertyOp21
 70
     1
102
RTVSPropertyOp22
 70
     1
102
RTVSPropertyOp23
 70
     1
102
RTVSPropertyOp24
 70
     1
102
RTVSPropertyOp25
 70
     1
102
RTVSPropertyOp26
 70
     1
102
RTVSPropertyOp27
 70
     1
102
RTVSPropertyOp28
 70
     1
102
RTVSPropertyOp29
 70
     1
102
RTVSPropertyOp30
 70
     1
102
RTVSPropertyOp31
 70
     1
102
RTVSPropertyOp32
 70
     1
  0
XRECORD
  5
191
102
{ACAD_REACTORS
330
190
102
}
330
190
100
AcDbXrecord
280
     1
102
RTVSPropertyOp0
 70
     1
102
RTVSPropertyOp1
 70
     1
102
RTVSPropertyOp2
 70
     1
102
RTVSPropertyOp3
 70
     1
102
RTVSPropertyOp4
 70
     1
102
RTVSPropertyOp5
 70
     1
102
RTVSPropertyOp6
 70
     1
102
RTVSPropertyOp7
 70
     1
102
RTVSPropertyOp8
 70
     1
102
RTVSPropertyOp9
 70
     1
102
RTVSPropertyOp10
 70
     1
102
RTVSPropertyOp11
 70
     1
102
RTVSPropertyOp12
 70
     1
102
RTVSPropertyOp13
 70
     1
102
RTVSPropertyOp14
 70
     1
102
RTVSPropertyOp15
 70
     1
102
RTVSPropertyOp16
 70
     1
102
RTVSPropertyOp17
 70
     1
102
RTVSPropertyOp18
 70
     1
102
RTVSPropertyOp19
 70
     1
102
RTVSPropertyOp20
 70
     1
102
RTVSPropertyOp21
 70
     1
102
RTVSPropertyOp22
 70
     1
102
RTVSPropertyOp23
 70
     1
102
RTVSPropertyOp24
 70
     1
102
RTVSPropertyOp25
 70
     1
102
RTVSPropertyOp26
 70
     1
102
RTVSPropertyOp27
 70
     1
102
RTVSPropertyOp28
 70
     1
102
RTVSPropertyOp29
 70
     1
102
RTVSPropertyOp30
 70
     1
102
RTVSPropertyOp31
 70
     1
102
RTVSPropertyOp32
 70
     1
  0
XRECORD
  5
195
102
{ACAD_REACTORS
330
194
102
}
330
194
100
AcDbXrecord
280
     1
102
RTVSPropertyOp0
 70
     1
102
RTVSPropertyOp1
 70
     1
102
RTVSPropertyOp2
 70
     1
102
RTVSPropertyOp3
 70
     1
102
RTVSPropertyOp4
 70
     1
102
RTVSPropertyOp5
 70
     1
102
RTVSPropertyOp6
 70
     1
102
RTVSPropertyOp7
 70
     1
102
RTVSPropertyOp8
 70
     1
102
RTVSPropertyOp9
 70
     1
102
RTVSPropertyOp10
 70
     1
102
RTVSPropertyOp11
 70
     1
102
RTVSPropertyOp12
 70
     1
102
RTVSPropertyOp13
 70
     1
102
RTVSPropertyOp14
 70
     1
102
RTVSPropertyOp15
 70
     1
102
RTVSPropertyOp16
 70
     1
102
RTVSPropertyOp17
 70
     1
102
RTVSPropertyOp18
 70
     1
102
RTVSPropertyOp19
 70
     1
102
RTVSPropertyOp20
 70
     1
102
RTVSPropertyOp21
 70
     1
102
RTVSPropertyOp22
 70
     1
102
RTVSPropertyOp23
 70
     1
102
RTVSPropertyOp24
 70
     1
102
RTVSPropertyOp25
 70
     1
102
RTVSPropertyOp26
 70
     1
102
RTVSPropertyOp27
 70
     1
102
RTVSPropertyOp28
 70
     1
102
RTVSPropertyOp29
 70
     1
102
RTVSPropertyOp30
 70
     1
102
RTVSPropertyOp31
 70
     1
102
RTVSPropertyOp32
 70
     1
  0
XRECORD
  5
19D
102
{ACAD_REACTORS
330
19C
102
}
330
19C
100
AcDbXrecord
280
     1
102
RTVSPropertyOp0
 70
     1
102
RTVSPropertyOp1
 70
     1
102
RTVSPropertyOp2
 70
     1
102
RTVSPropertyOp3
 70
     1
102
RTVSPropertyOp4
 70
     1
102
RTVSPropertyOp5
 70
     1
102
RTVSPropertyOp6
 70
     1
102
RTVSPropertyOp7
 70
     1
102
RTVSPropertyOp8
 70
     1
102
RTVSPropertyOp9
 70
     1
102
RTVSPropertyOp10
 70
     1
102
RTVSPropertyOp11
 70
     1
102
RTVSPropertyOp12
 70
     1
102
RTVSPropertyOp13
 70
     1
102
RTVSPropertyOp14
 70
     1
102
RTVSPropertyOp15
 70
     1
102
RTVSPropertyOp16
 70
     1
102
RTVSPropertyOp17
 70
     1
102
RTVSPropertyOp18
 70
     1
102
RTVSPropertyOp19
 70
     1
102
RTVSPropertyOp20
 70
     1
102
RTVSPropertyOp21
 70
     1
102
RTVSPropertyOp22
 70
     1
102
RTVSPropertyOp23
 70
     1
102
RTVSPropertyOp24
 70
     1
102
RTVSPropertyOp25
 70
     1
102
RTVSPropertyOp26
 70
     1
102
RTVSPropertyOp27
 70
     1
102
RTVSPropertyOp28
 70
     1
102
RTVSPropertyOp29
 70
     1
102
RTVSPropertyOp30
 70
     1
102
RTVSPropertyOp31
 70
     1
102
RTVSPropertyOp32
 70
     1
  0
XRECORD
  5
1A5
102
{ACAD_REACTORS
330
1A4
102
}
330
1A4
100
AcDbXrecord
280
     1
102
RTVSPropertyOp0
 70
     1
102
RTVSPropertyOp1
 70
     1
102
RTVSPropertyOp2
 70
     1
102
RTVSPropertyOp3
 70
     1
102
RTVSPropertyOp4
 70
     1
102
RTVSPropertyOp5
 70
     1
102
RTVSPropertyOp6
 70
     1
102
RTVSPropertyOp7
 70
     1
102
RTVSPropertyOp8
 70
     1
102
RTVSPropertyOp9
 70
     1
102
RTVSPropertyOp10
 70
     1
102
RTVSPropertyOp11
 70
     1
102
RTVSPropertyOp12
 70
     1
102
RTVSPropertyOp13
 70
     1
102
RTVSPropertyOp14
 70
     1
102
RTVSPropertyOp15
 70
     1
102
RTVSPropertyOp16
 70
     1
102
RTVSPropertyOp17
 70
     1
102
RTVSPropertyOp18
 70
     1
102
RTVSPropertyOp19
 70
     1
102
RTVSPropertyOp20
 70
     1
102
RTVSPropertyOp21
 70
     1
102
RTVSPropertyOp22
 70
     1
102
RTVSPropertyOp23
 70
     1
102
RTVSPropertyOp24
 70
     1
102
RTVSPropertyOp25
 70
     1
102
RTVSPropertyOp26
 70
     1
102
RTVSPropertyOp27
 70
     1
102
RTVSPropertyOp28
 70
     1
102
RTVSPropertyOp29
 70
     1
102
RTVSPropertyOp30
 70
     1
102
RTVSPropertyOp31
 70
     1
102
RTVSPropertyOp32
 70
     1
  0
XRECORD
  5
199
102
{ACAD_REACTORS
330
198
102
}
330
198
100
AcDbXrecord
280
     1
102
RTVSPropertyOp0
 70
     1
102
RTVSPropertyOp1
 70
     1
102
RTVSPropertyOp2
 70
     1
102
RTVSPropertyOp3
 70
     1
102
RTVSPropertyOp4
 70
     1
102
RTVSPropertyOp5
 70
     1
102
RTVSPropertyOp6
 70
     1
102
RTVSPropertyOp7
 70
     1
102
RTVSPropertyOp8
 70
     1
102
RTVSPropertyOp9
 70
     1
102
RTVSPropertyOp10
 70
     1
102
RTVSPropertyOp11
 70
     1
102
RTVSPropertyOp12
 70
     1
102
RTVSPropertyOp13
 70
     1
102
RTVSPropertyOp14
 70
     1
102
RTVSPropertyOp15
 70
     1
102
RTVSPropertyOp16
 70
     1
102
RTVSPropertyOp17
 70
     1
102
RTVSPropertyOp18
 70
     1
102
RTVSPropertyOp19
 70
     1
102
RTVSPropertyOp20
 70
     1
102
RTVSPropertyOp21
 70
     1
102
RTVSPropertyOp22
 70
     1
102
RTVSPropertyOp23
 70
     1
102
RTVSPropertyOp24
 70
     1
102
RTVSPropertyOp25
 70
     1
102
RTVSPropertyOp26
 70
     1
102
RTVSPropertyOp27
 70
     1
102
RTVSPropertyOp28
 70
     1
102
RTVSPropertyOp29
 70
     1
102
RTVSPropertyOp30
 70
     1
102
RTVSPropertyOp31
 70
     1
102
RTVSPropertyOp32
 70
     1
  0
XRECORD
  5
19B
102
{ACAD_REACTORS
330
19A
102
}
330
19A
100
AcDbXrecord
280
     1
102
RTVSPropertyOp0
 70
     1
102
RTVSPropertyOp1
 70
     1
102
RTVSPropertyOp2
 70
     1
102
RTVSPropertyOp3
 70
     1
102
RTVSPropertyOp4
 70
     1
102
RTVSPropertyOp5
 70
     1
102
RTVSPropertyOp6
 70
     1
102
RTVSPropertyOp7
 70
     1
102
RTVSPropertyOp8
 70
     1
102
RTVSPropertyOp9
 70
     1
102
RTVSPropertyOp10
 70
     1
102
RTVSPropertyOp11
 70
     1
102
RTVSPropertyOp12
 70
     1
102
RTVSPropertyOp13
 70
     1
102
RTVSPropertyOp14
 70
     1
102
RTVSPropertyOp15
 70
     1
102
RTVSPropertyOp16
 70
     1
102
RTVSPropertyOp17
 70
     1
102
RTVSPropertyOp18
 70
     1
102
RTVSPropertyOp19
 70
     1
102
RTVSPropertyOp20
 70
     1
102
RTVSPropertyOp21
 70
     1
102
RTVSPropertyOp22
 70
     1
102
RTVSPropertyOp23
 70
     1
102
RTVSPropertyOp24
 70
     1
102
RTVSPropertyOp25
 70
     1
102
RTVSPropertyOp26
 70
     1
102
RTVSPropertyOp27
 70
     1
102
RTVSPropertyOp28
 70
     1
102
RTVSPropertyOp29
 70
     1
102
RTVSPropertyOp30
 70
     1
102
RTVSPropertyOp31
 70
     1
102
RTVSPropertyOp32
 70
     1
  0
XRECORD
  5
1A3
102
{ACAD_REACTORS
330
1A2
102
}
330
1A2
100
AcDbXrecord
280
     1
102
RTVSPropertyOp0
 70
     1
102
RTVSPropertyOp1
 70
     1
102
RTVSPropertyOp2
 70
     1
102
RTVSPropertyOp3
 70
     1
102
RTVSPropertyOp4
 70
     1
102
RTVSPropertyOp5
 70
     1
102
RTVSPropertyOp6
 70
     1
102
RTVSPropertyOp7
 70
     1
102
RTVSPropertyOp8
 70
     1
102
RTVSPropertyOp9
 70
     1
102
RTVSPropertyOp10
 70
     1
102
RTVSPropertyOp11
 70
     1
102
RTVSPropertyOp12
 70
     1
102
RTVSPropertyOp13
 70
     1
102
RTVSPropertyOp14
 70
     1
102
RTVSPropertyOp15
 70
     1
102
RTVSPropertyOp16
 70
     1
102
RTVSPropertyOp17
 70
     1
102
RTVSPropertyOp18
 70
     1
102
RTVSPropertyOp19
 70
     1
102
RTVSPropertyOp20
 70
     1
102
RTVSPropertyOp21
 70
     1
102
RTVSPropertyOp22
 70
     1
102
RTVSPropertyOp23
 70
     1
102
RTVSPropertyOp24
 70
     1
102
RTVSPropertyOp25
 70
     1
102
RTVSPropertyOp26
 70
     1
102
RTVSPropertyOp27
 70
     1
102
RTVSPropertyOp28
 70
     1
102
RTVSPropertyOp29
 70
     1
102
RTVSPropertyOp30
 70
     1
102
RTVSPropertyOp31
 70
     1
102
RTVSPropertyOp32
 70
     1
  0
XRECORD
  5
187
102
{ACAD_REACTORS
330
186
102
}
330
186
100
AcDbXrecord
280
     1
102
RTVSPropertyOp0
 70
     1
102
RTVSPropertyOp1
 70
     1
102
RTVSPropertyOp2
 70
     1
102
RTVSPropertyOp3
 70
     1
102
RTVSPropertyOp4
 70
     1
102
RTVSPropertyOp5
 70
     1
102
RTVSPropertyOp6
 70
     1
102
RTVSPropertyOp7
 70
     1
102
RTVSPropertyOp8
 70
     1
102
RTVSPropertyOp9
 70
     1
102
RTVSPropertyOp10
 70
     1
102
RTVSPropertyOp11
 70
     1
102
RTVSPropertyOp12
 70
     1
102
RTVSPropertyOp13
 70
     1
102
RTVSPropertyOp14
 70
     1
102
RTVSPropertyOp15
 70
     1
102
RTVSPropertyOp16
 70
     1
102
RTVSPropertyOp17
 70
     1
102
RTVSPropertyOp18
 70
     1
102
RTVSPropertyOp19
 70
     1
102
RTVSPropertyOp20
 70
     1
102
RTVSPropertyOp21
 70
     1
102
RTVSPropertyOp22
 70
     1
102
RTVSPropertyOp23
 70
     1
102
RTVSPropertyOp24
 70
     1
102
RTVSPropertyOp25
 70
     1
102
RTVSPropertyOp26
 70
     1
102
RTVSPropertyOp27
 70
     1
102
RTVSPropertyOp28
 70
     1
102
RTVSPropertyOp29
 70
     1
102
RTVSPropertyOp30
 70
     1
102
RTVSPropertyOp31
 70
     1
102
RTVSPropertyOp32
 70
     1
  0
XRECORD
  5
189
102
{ACAD_REACTORS
330
188
102
}
330
188
100
AcDbXrecord
280
     1
102
RTVSPropertyOp0
 70
     1
102
RTVSPropertyOp1
 70
     1
102
RTVSPropertyOp2
 70
     1
102
RTVSPropertyOp3
 70
     1
102
RTVSPropertyOp4
 70
     1
102
RTVSPropertyOp5
 70
     1
102
RTVSPropertyOp6
 70
     1
102
RTVSPropertyOp7
 70
     1
102
RTVSPropertyOp8
 70
     1
102
RTVSPropertyOp9
 70
     1
102
RTVSPropertyOp10
 70
     1
102
RTVSPropertyOp11
 70
     1
102
RTVSPropertyOp12
 70
     1
102
RTVSPropertyOp13
 70
     1
102
RTVSPropertyOp14
 70
     1
102
RTVSPropertyOp15
 70
     1
102
RTVSPropertyOp16
 70
     1
102
RTVSPropertyOp17
 70
     1
102
RTVSPropertyOp18
 70
     1
102
RTVSPropertyOp19
 70
     1
102
RTVSPropertyOp20
 70
     1
102
RTVSPropertyOp21
 70
     1
102
RTVSPropertyOp22
 70
     1
102
RTVSPropertyOp23
 70
     1
102
RTVSPropertyOp24
 70
     1
102
RTVSPropertyOp25
 70
     1
102
RTVSPropertyOp26
 70
     1
102
RTVSPropertyOp27
 70
     1
102
RTVSPropertyOp28
 70
     1
102
RTVSPropertyOp29
 70
     1
102
RTVSPropertyOp30
 70
     1
102
RTVSPropertyOp31
 70
     1
102
RTVSPropertyOp32
 70
     1
  0
XRECORD
  5
18B
102
{ACAD_REACTORS
330
18A
102
}
330
18A
100
AcDbXrecord
280
     1
102
RTVSPropertyOp0
 70
     1
102
RTVSPropertyOp1
 70
     1
102
RTVSPropertyOp2
 70
     1
102
RTVSPropertyOp3
 70
     1
102
RTVSPropertyOp4
 70
     1
102
RTVSPropertyOp5
 70
     1
102
RTVSPropertyOp6
 70
     1
102
RTVSPropertyOp7
 70
     1
102
RTVSPropertyOp8
 70
     1
102
RTVSPropertyOp9
 70
     1
102
RTVSPropertyOp10
 70
     1
102
RTVSPropertyOp11
 70
     1
102
RTVSPropertyOp12
 70
     1
102
RTVSPropertyOp13
 70
     1
102
RTVSPropertyOp14
 70
     1
102
RTVSPropertyOp15
 70
     1
102
RTVSPropertyOp16
 70
     1
102
RTVSPropertyOp17
 70
     1
102
RTVSPropertyOp18
 70
     1
102
RTVSPropertyOp19
 70
     1
102
RTVSPropertyOp20
 70
     1
102
RTVSPropertyOp21
 70
     1
102
RTVSPropertyOp22
 70
     1
102
RTVSPropertyOp23
 70
     1
102
RTVSPropertyOp24
 70
     1
102
RTVSPropertyOp25
 70
     1
102
RTVSPropertyOp26
 70
     1
102
RTVSPropertyOp27
 70
     1
102
RTVSPropertyOp28
 70
     1
102
RTVSPropertyOp29
 70
     1
102
RTVSPropertyOp30
 70
     1
102
RTVSPropertyOp31
 70
     1
102
RTVSPropertyOp32
 70
     1
  0
XRECORD
  5
18D
102
{ACAD_REACTORS
330
18C
102
}
330
18C
100
AcDbXrecord
280
     1
102
RTVSPropertyOp0
 70
     1
102
RTVSPropertyOp1
 70
     1
102
RTVSPropertyOp2
 70
     1
102
RTVSPropertyOp3
 70
     1
102
RTVSPropertyOp4
 70
     1
102
RTVSPropertyOp5
 70
     1
102
RTVSPropertyOp6
 70
     1
102
RTVSPropertyOp7
 70
     1
102
RTVSPropertyOp8
 70
     1
102
RTVSPropertyOp9
 70
     1
102
RTVSPropertyOp10
 70
     1
102
RTVSPropertyOp11
 70
     1
102
RTVSPropertyOp12
 70
     1
102
RTVSPropertyOp13
 70
     1
102
RTVSPropertyOp14
 70
     1
102
RTVSPropertyOp15
 70
     1
102
RTVSPropertyOp16
 70
     1
102
RTVSPropertyOp17
 70
     1
102
RTVSPropertyOp18
 70
     1
102
RTVSPropertyOp19
 70
     1
102
RTVSPropertyOp20
 70
     1
102
RTVSPropertyOp21
 70
     1
102
RTVSPropertyOp22
 70
     1
102
RTVSPropertyOp23
 70
     1
102
RTVSPropertyOp24
 70
     1
102
RTVSPropertyOp25
 70
     1
102
RTVSPropertyOp26
 70
     1
102
RTVSPropertyOp27
 70
     1
102
RTVSPropertyOp28
 70
     1
102
RTVSPropertyOp29
 70
     1
102
RTVSPropertyOp30
 70
     1
102
RTVSPropertyOp31
 70
     1
102
RTVSPropertyOp32
 70
     1
  0
XRECORD
  5
1A1
102
{ACAD_REACTORS
330
1A0
102
}
330
1A0
100
AcDbXrecord
280
     1
102
RTVSPropertyOp0
 70
     1
102
RTVSPropertyOp1
 70
     1
102
RTVSPropertyOp2
 70
     1
102
RTVSPropertyOp3
 70
     1
102
RTVSPropertyOp4
 70
     1
102
RTVSPropertyOp5
 70
     1
102
RTVSPropertyOp6
 70
     1
102
RTVSPropertyOp7
 70
     1
102
RTVSPropertyOp8
 70
     1
102
RTVSPropertyOp9
 70
     1
102
RTVSPropertyOp10
 70
     1
102
RTVSPropertyOp11
 70
     1
102
RTVSPropertyOp12
 70
     1
102
RTVSPropertyOp13
 70
     1
102
RTVSPropertyOp14
 70
     1
102
RTVSPropertyOp15
 70
     1
102
RTVSPropertyOp16
 70
     1
102
RTVSPropertyOp17
 70
     1
102
RTVSPropertyOp18
 70
     1
102
RTVSPropertyOp19
 70
     1
102
RTVSPropertyOp20
 70
     1
102
RTVSPropertyOp21
 70
     1
102
RTVSPropertyOp22
 70
     1
102
RTVSPropertyOp23
 70
     1
102
RTVSPropertyOp24
 70
     1
102
RTVSPropertyOp25
 70
     1
102
RTVSPropertyOp26
 70
     1
102
RTVSPropertyOp27
 70
     1
102
RTVSPropertyOp28
 70
     1
102
RTVSPropertyOp29
 70
     1
102
RTVSPropertyOp30
 70
     1
102
RTVSPropertyOp31
 70
     1
102
RTVSPropertyOp32
 70
     1
  0
XRECORD
  5
197
102
{ACAD_REACTORS
330
196
102
}
330
196
100
AcDbXrecord
280
     1
102
RTVSPropertyOp0
 70
     1
102
RTVSPropertyOp1
 70
     1
102
RTVSPropertyOp2
 70
     1
102
RTVSPropertyOp3
 70
     1
102
RTVSPropertyOp4
 70
     1
102
RTVSPropertyOp5
 70
     1
102
RTVSPropertyOp6
 70
     1
102
RTVSPropertyOp7
 70
     1
102
RTVSPropertyOp8
 70
     1
102
RTVSPropertyOp9
 70
     1
102
RTVSPropertyOp10
 70
     1
102
RTVSPropertyOp11
 70
     1
102
RTVSPropertyOp12
 70
     1
102
RTVSPropertyOp13
 70
     1
102
RTVSPropertyOp14
 70
     1
102
RTVSPropertyOp15
 70
     1
102
RTVSPropertyOp16
 70
     1
102
RTVSPropertyOp17
 70
     1
102
RTVSPropertyOp18
 70
     1
102
RTVSPropertyOp19
 70
     1
102
RTVSPropertyOp20
 70
     1
102
RTVSPropertyOp21
 70
     1
102
RTVSPropertyOp22
 70
     1
102
RTVSPropertyOp23
 70
     1
102
RTVSPropertyOp24
 70
     1
102
RTVSPropertyOp25
 70
     1
102
RTVSPropertyOp26
 70
     1
102
RTVSPropertyOp27
 70
     1
102
RTVSPropertyOp28
 70
     1
102
RTVSPropertyOp29
 70
     1
102
RTVSPropertyOp30
 70
     1
102
RTVSPropertyOp31
 70
     1
102
RTVSPropertyOp32
 70
     1
  0
XRECORD
  5
19F
102
{ACAD_REACTORS
330
19E
102
}
330
19E
100
AcDbXrecord
280
     1
102
RTVSPropertyOp0
 70
     1
102
RTVSPropertyOp1
 70
     1
102
RTVSPropertyOp2
 70
     1
102
RTVSPropertyOp3
 70
     1
102
RTVSPropertyOp4
 70
     1
102
RTVSPropertyOp5
 70
     1
102
RTVSPropertyOp6
 70
     1
102
RTVSPropertyOp7
 70
     1
102
RTVSPropertyOp8
 70
     1
102
RTVSPropertyOp9
 70
     1
102
RTVSPropertyOp10
 70
     1
102
RTVSPropertyOp11
 70
     1
102
RTVSPropertyOp12
 70
     1
102
RTVSPropertyOp13
 70
     1
102
RTVSPropertyOp14
 70
     1
102
RTVSPropertyOp15
 70
     1
102
RTVSPropertyOp16
 70
     1
102
RTVSPropertyOp17
 70
     1
102
RTVSPropertyOp18
 70
     1
102
RTVSPropertyOp19
 70
     1
102
RTVSPropertyOp20
 70
     1
102
RTVSPropertyOp21
 70
     1
102
RTVSPropertyOp22
 70
     1
102
RTVSPropertyOp23
 70
     1
102
RTVSPropertyOp24
 70
     1
102
RTVSPropertyOp25
 70
     1
102
RTVSPropertyOp26
 70
     1
102
RTVSPropertyOp27
 70
     1
102
RTVSPropertyOp28
 70
     1
102
RTVSPropertyOp29
 70
     1
102
RTVSPropertyOp30
 70
     1
102
RTVSPropertyOp31
 70
     1
102
RTVSPropertyOp32
 70
     1
  0
ENDSEC
  0
EOF
