  0
SECTION
  2
HEADER
  9
$ACADVER
  1
AC1015
  9
$ACADMAINTVER
 70
     6
  9
$DWGCODEPAGE
  3
ANSI_1252
  9
$INSBASE
 10
0.0
 20
0.0
 30
0.0
  9
$EXTMIN
 10
0.0
 20
0.0
 30
0.0
  9
$EXTMAX
 10
297.0
 20
210.0
 30
0.0
  9
$LIMMIN
 10
0.0
 20
0.0
  9
$LIMMAX
 10
297.0
 20
210.0
  9
$ORTHOMODE
 70
     0
  9
$REGENMODE
 70
     1
  9
$FILLMODE
 70
     1
  9
$QTEXTMODE
 70
     0
  9
$MIRRTEXT
 70
     1
  9
$LTSCALE
 40
1.0
  9
$ATTMODE
 70
     1
  9
$TEXTSIZE
 40
2.5
  9
$TRACEWID
 40
1.0
  9
$TEXTSTYLE
  7
Standard
  9
$CLAYER
  8
0
  9
$CELTYPE
  6
ByLayer
  9
$CECOLOR
 62
   256
  9
$CELTSCALE
 40
1.0
  9
$DISPSILH
 70
     0
  9
$DIMSCALE
 40
1.0
  9
$DIMASZ
 40
2.5
  9
$DIMEXO
 40
0.625
  9
$DIMDLI
 40
3.75
  9
$DIMRND
 40
0.0
  9
$DIMDLE
 40
0.0
  9
$DIMEXE
 40
1.25
  9
$DIMTP
 40
0.0
  9
$DIMTM
 40
0.0
  9
$DIMTXT
 40
2.5
  9
$DIMCEN
 40
2.5
  9
$DIMTSZ
 40
0.0
  9
$DIMTOL
 70
     0
  9
$DIMLIM
 70
     0
  9
$DIMTIH
 70
     0
  9
$DIMTOH
 70
     0
  9
$DIMSE1
 70
     0
  9
$DIMSE2
 70
     0
  9
$DIMTAD
 70
     1
  9
$DIMZIN
 70
     8
  9
$DIMBLK
  1

  9
$DIMASO
 70
     1
  9
$DIMSHO
 70
     1
  9
$DIMPOST
  1

  9
$DIMAPOST
  1

  9
$DIMALT
 70
     0
  9
$DIMALTD
 70
     3
  9
$DIMALTF
 40
0.0393700787
  9
$DIMLFAC
 40
1.0
  9
$DIMTOFL
 70
     1
  9
$DIMTVP
 40
0.0
  9
$DIMTIX
 70
     0
  9
$DIMSOXD
 70
     0
  9
$DIMSAH
 70
     0
  9
$DIMBLK1
  1

  9
$DIMBLK2
  1

  9
$DIMSTYLE
  2
ISO-25
  9
$DIMCLRD
 70
     0
  9
$DIMCLRE
 70
     0
  9
$DIMCLRT
 70
     0
  9
$DIMTFAC
 40
1.0
  9
$DIMGAP
 40
0.625
  9
$DIMJUST
 70
     0
  9
$DIMSD1
 70
     0
  9
$DIMSD2
 70
     0
  9
$DIMTOLJ
 70
     0
  9
$DIMTZIN
 70
     8
  9
$DIMALTZ
 70
     0
  9
$DIMALTTZ
 70
     0
  9
$DIMUPT
 70
     0
  9
$DIMDEC
 70
     2
  9
$DIMTDEC
 70
     2
  9
$DIMALTU
 70
     2
  9
$DIMALTTD
 70
     3
  9
$DIMTXSTY
  7
Standard
  9
$DIMAUNIT
 70
     0
  9
$DIMADEC
 70
     0
  9
$DIMALTRND
 40
0.0
  9
$DIMAZIN
 70
     0
  9
$DIMDSEP
 70
    44
  9
$DIMATFIT
 70
     3
  9
$DIMFRAC
 70
     0
  9
$DIMLDRBLK
  1

  9
$DIMLUNIT
 70
     2
  9
$DIMLWD
 70
    -2
  9
$DIMLWE
 70
    -2
  9
$DIMTMOVE
 70
     0
  9
$LUNITS
 70
     2
  9
$LUPREC
 70
     4
  9
$SKETCHINC
 40
1.0
  9
$FILLETRAD
 40
10.0
  9
$AUNITS
 70
     0
  9
$AUPREC
 70
     0
  9
$MENU
  1
.
  9
$ELEVATION
 40
0.0
  9
$PELEVATION
 40
0.0
  9
$THICKNESS
 40
0.0
  9
$LIMCHECK
 70
     0
  9
$CHAMFERA
 40
10.0
  9
$CHAMFERB
 40
10.0
  9
$CHAMFERC
 40
20.0
  9
$CHAMFERD
 40
0.0
  9
$SKPOLY
 70
     0
  9
$TDCREATE
 40
2457310.377064664
  9
$TDUCREATE
 40
2457310.293731331
  9
$TDUPDATE
 40
2457310.37706647
  9
$TDUUPDATE
 40
2457310.293733137
  9
$TDINDWG
 40
0.0000000116
  9
$TDUSRTIMER
 40
0.0000000116
  9
$USRTIMER
 70
     1
  9
$ANGBASE
 50
0.0
  9
$ANGDIR
 70
     0
  9
$PDMODE
 70
     0
  9
$PDSIZE
 40
0.0
  9
$PLINEWID
 40
0.0
  9
$SPLFRAME
 70
     0
  9
$SPLINETYPE
 70
     6
  9
$SPLINESEGS
 70
     8
  9
$HANDSEED
  5
1E9
  9
$SURFTAB1
 70
     6
  9
$SURFTAB2
 70
     6
  9
$SURFTYPE
 70
     6
  9
$SURFU
 70
     6
  9
$SURFV
 70
     6
  9
$UCSBASE
  2

  9
$UCSNAME
  2

  9
$UCSORG
 10
0.0
 20
0.0
 30
0.0
  9
$UCSXDIR
 10
1.0
 20
0.0
 30
0.0
  9
$UCSYDIR
 10
0.0
 20
1.0
 30
0.0
  9
$UCSORTHOREF
  2

  9
$UCSORTHOVIEW
 70
     0
  9
$UCSORGTOP
 10
0.0
 20
0.0
 30
0.0
  9
$UCSORGBOTTOM
 10
0.0
 20
0.0
 30
0.0
  9
$UCSORGLEFT
 10
0.0
 20
0.0
 30
0.0
  9
$UCSORGRIGHT
 10
0.0
 20
0.0
 30
0.0
  9
$UCSORGFRONT
 10
0.0
 20
0.0
 30
0.0
  9
$UCSORGBACK
 10
0.0
 20
0.0
 30
0.0
  9
$PUCSBASE
  2

  9
$PUCSNAME
  2

  9
$PUCSORG
 10
0.0
 20
0.0
 30
0.0
  9
$PUCSXDIR
 10
1.0
 20
0.0
 30
0.0
  9
$PUCSYDIR
 10
0.0
 20
1.0
 30
0.0
  9
$PUCSORTHOREF
  2

  9
$PUCSORTHOVIEW
 70
     0
  9
$PUCSORGTOP
 10
0.0
 20
0.0
 30
0.0
  9
$PUCSORGBOTTOM
 10
0.0
 20
0.0
 30
0.0
  9
$PUCSORGLEFT
 10
0.0
 20
0.0
 30
0.0
  9
$PUCSORGRIGHT
 10
0.0
 20
0.0
 30
0.0
  9
$PUCSORGFRONT
 10
0.0
 20
0.0
 30
0.0
  9
$PUCSORGBACK
 10
0.0
 20
0.0
 30
0.0
  9
$USERI1
 70
     0
  9
$USERI2
 70
     0
  9
$USERI3
 70
     0
  9
$USERI4
 70
     0
  9
$USERI5
 70
     0
  9
$USERR1
 40
0.0
  9
$USERR2
 40
0.0
  9
$USERR3
 40
0.0
  9
$USERR4
 40
0.0
  9
$USERR5
 40
0.0
  9
$WORLDVIEW
 70
     1
  9
$SHADEDGE
 70
     3
  9
$SHADEDIF
 70
    70
  9
$TILEMODE
 70
     1
  9
$MAXACTVP
 70
    64
  9
$PINSBASE
 10
0.0
 20
0.0
 30
0.0
  9
$PLIMCHECK
 70
     0
  9
$PEXTMIN
 10
0.0
 20
0.0
 30
0.0
  9
$PEXTMAX
 10
297.0
 20
210.0
 30
0.0
  9
$PLIMMIN
 10
0.0
 20
0.0
  9
$PLIMMAX
 10
297.0
 20
210.0
  9
$UNITMODE
 70
     0
  9
$VISRETAIN
 70
     1
  9
$PLINEGEN
 70
     0
  9
$PSLTSCALE
 70
     1
  9
$TREEDEPTH
 70
  3020
  9
$CMLSTYLE
  2
Standard
  9
$CMLJUST
 70
     0
  9
$CMLSCALE
 40
20.0
  9
$PROXYGRAPHICS
 70
     1
  9
$MEASUREMENT
 70
     1
  9
$CELWEIGHT
370
    -1
  9
$ENDCAPS
280
     0
  9
$JOINSTYLE
280
     0
  9
$LWDISPLAY
290
     0
  9
$INSUNITS
 70
     4
  9
$HYPERLINKBASE
  1

  9
$STYLESHEET
  1

  9
$XEDIT
290
     1
  9
$CEPSNTYPE
380
     0
  9
$PSTYLEMODE
290
     1
  9
$FINGERPRINTGUID
  2
{B56DA5F1-881E-44CA-93B5-C9002D9959BA}
  9
$VERSIONGUID
  2
{FAEB1C32-E019-11D5-929B-00C0DF256EC4}
  9
$EXTNAMES
290
     1
  9
$PSVPSCALE
 40
0.0
  9
$OLESTARTUP
290
     0
  0
ENDSEC
  0
SECTION
  2
CLASSES
  0
CLASS
  1
ACDBDICTIONARYWDFLT
  2
AcDbDictionaryWithDefault
  3
ObjectDBX Classes
 90
        0
280
     0
281
     0
  0
CLASS
  1
VISUALSTYLE
  2
AcDbVisualStyle
  3
ObjectDBX Classes
 90
     4095
280
     0
281
     0
  0
CLASS
  1
MATERIAL
  2
AcDbMaterial
  3
ObjectDBX Classes
 90
     1153
280
     0
281
     0
  0
CLASS
  1
DICTIONARYVAR
  2
AcDbDictionaryVar
  3
ObjectDBX Classes
 90
        0
280
     0
281
     0
  0
CLASS
  1
ACDBPLACEHOLDER
  2
AcDbPlaceHolder
  3
ObjectDBX Classes
 90
        0
280
     0
281
     0
  0
CLASS
  1
LAYOUT
  2
AcDbLayout
  3
ObjectDBX Classes
 90
        0
280
     0
281
     0
  0
ENDSEC
  0
SECTION
  2
TABLES
  0
TABLE
  2
VPORT
  5
8
330
0
100
AcDbSymbolTable
 70
     1
  0
VPORT
  5
29
330
8
100
AcDbSymbolTableRecord
100
AcDbViewportTableRecord
  2
*Active
 70
     0
 10
0.0
 20
0.0
 11
1.0
 21
1.0
 12
344.1869158879
 22
148.5
 13
0.0
 23
0.0
 14
10.0
 24
10.0
 15
10.0
 25
10.0
 16
0.0
 26
0.0
 36
1.0
 17
0.0
 27
0.0
 37
0.0
 40
297.0
 41
1.9729729729
 42
50.0
 43
0.0
 44
0.0
 50
0.0
 51
0.0
 71
     0
 72
   100
 73
     1
 74
     3
 75
     0
 76
     0
 77
     0
 78
     0
281
     0
 65
     1
110
0.0
120
0.0
130
0.0
111
1.0
121
0.0
131
0.0
112
0.0
122
1.0
132
0.0
 79
     0
146
0.0
  0
ENDTAB
  0
TABLE
  2
LTYPE
  5
5
330
0
100
AcDbSymbolTable
 70
     1
  0
LTYPE
  5
14
330
5
100
AcDbSymbolTableRecord
100
AcDbLinetypeTableRecord
  2
ByBlock
 70
     0
  3

 72
    65
 73
     0
 40
0.0
  0
LTYPE
  5
15
330
5
100
AcDbSymbolTableRecord
100
AcDbLinetypeTableRecord
  2
ByLayer
 70
     0
  3

 72
    65
 73
     0
 40
0.0
  0
LTYPE
  5
16
330
5
100
AcDbSymbolTableRecord
100
AcDbLinetypeTableRecord
  2
Continuous
 70
     0
  3
Solid line
 72
    65
 73
     0
 40
0.0
  0
ENDTAB
  0
TABLE
  2
LAYER
  5
2
330
0
100
AcDbSymbolTable
 70
     3
  0
LAYER
  5
10
330
2
100
AcDbSymbolTableRecord
100
AcDbLayerTableRecord
  2
0
 70
     0
 62
     7
  6
Continuous
370
    -3
390
F
  0
LAYER
  5
3F
330
2
100
AcDbSymbolTableRecord
100
AcDbLayerTableRecord
  2
Default
 70
     0
 62
     7
  6
Continuous
370
    -3
390
F
  0
LAYER
  5
42
330
2
100
AcDbSymbolTableRecord
100
AcDbLayerTableRecord
  2
0012876
 70
     0
 62
     7
  6
Continuous
370
    -3
390
F
  0
ENDTAB
  0
TABLE
  2
STYLE
  5
3
330
0
100
AcDbSymbolTable
 70
     4
  0
STYLE
  5
11
330
3
100
AcDbSymbolTableRecord
100
AcDbTextStyleTableRecord
  2
Standard
 70
     0
 40
0.0
 41
1.0
 50
0.0
 71
     0
 42
2.5
  3
txt
  4

  0
STYLE
  5
138
330
3
100
AcDbSymbolTableRecord
100
AcDbTextStyleTableRecord
  2
SEACAD_Solid_Edge_ISO
 70
     0
 40
0.0
 41
1.0
 50
0.0
 71
     0
 42
0.2
  3
seiso.ttf
  4

1001
ACAD
1000
Solid Edge ISO
1071
        0
  0
STYLE
  5
151
330
3
100
AcDbSymbolTableRecord
100
AcDbTextStyleTableRecord
  2
SEACAD_Solid_Edge_ANSIB
 70
     0
 40
0.0
 41
1.0
 50
0.0
 71
     0
 42
0.2
  3
seansbd.ttf
  4

1001
ACAD
1000
Solid Edge ANSI
1071
 33554432
  0
STYLE
  5
156
330
3
100
AcDbSymbolTableRecord
100
AcDbTextStyleTableRecord
  2
SEACAD_Solid_Edge_ANSI
 70
     0
 40
0.0
 41
1.0
 50
0.0
 71
     0
 42
0.2
  3
seans.ttf
  4

1001
ACAD
1000
Solid Edge ANSI
1071
        0
  0
ENDTAB
  0
TABLE
  2
VIEW
  5
6
330
0
100
AcDbSymbolTable
 70
     0
  0
ENDTAB
  0
TABLE
  2
UCS
  5
7
330
0
100
AcDbSymbolTable
 70
     0
  0
ENDTAB
  0
TABLE
  2
APPID
  5
9
330
0
100
AcDbSymbolTable
 70
     1
  0
APPID
  5
12
330
9
100
AcDbSymbolTableRecord
100
AcDbRegAppTableRecord
  2
ACAD
 70
     0
  0
ENDTAB
  0
TABLE
  2
DIMSTYLE
  5
A
330
0
100
AcDbSymbolTable
 70
     1
100
AcDbDimStyleTable
  0
DIMSTYLE
105
27
330
A
100
AcDbSymbolTableRecord
100
AcDbDimStyleTableRecord
  2
ISO-25
 70
     0
 41
2.5
 42
0.625
 43
3.75
 44
1.25
 73
     0
 74
     0
 77
     1
 78
     8
140
2.5
141
2.5
143
0.0393700787
147
0.625
171
     3
172
     1
178
     0
271
     2
272
     2
274
     3
278
    44
283
     0
284
     8
340
11
  0
ENDTAB
  0
TABLE
  2
BLOCK_RECORD
  5
1
330
0
100
AcDbSymbolTable
 70
    12
  0
BLOCK_RECORD
  5
1F
330
1
100
AcDbSymbolTableRecord
100
AcDbBlockTableRecord
  2
*Model_Space
340
22
  0
BLOCK_RECORD
  5
1B
330
1
100
AcDbSymbolTableRecord
100
AcDbBlockTableRecord
  2
*Paper_Space
340
1E
  0
BLOCK_RECORD
  5
40
330
1
100
AcDbSymbolTableRecord
100
AcDbBlockTableRecord
  2
SE
340
0
102
{BLKREFS
331
41
102
}
  0
BLOCK_RECORD
  5
129
330
1
100
AcDbSymbolTableRecord
100
AcDbBlockTableRecord
  2
SE1
340
0
102
{BLKREFS
331
12A
102
}
  0
BLOCK_RECORD
  5
131
330
1
100
AcDbSymbolTableRecord
100
AcDbBlockTableRecord
  2
GDimGGroup
340
0
102
{BLKREFS
331
132
102
}
  0
BLOCK_RECORD
  5
13C
330
1
100
AcDbSymbolTableRecord
100
AcDbBlockTableRecord
  2
GDimGGroup1
340
0
102
{BLKREFS
331
13D
102
}
  0
BLOCK_RECORD
  5
146
330
1
100
AcDbSymbolTableRecord
100
AcDbBlockTableRecord
  2
GDimGGroup2
340
0
102
{BLKREFS
331
147
102
}
  0
BLOCK_RECORD
  5
150
330
1
100
AcDbSymbolTableRecord
100
AcDbBlockTableRecord
  2
SEANNOT_GROUP
340
0
102
{BLKREFS
331
1AD
102
}
  0
BLOCK_RECORD
  5
155
330
1
100
AcDbSymbolTableRecord
100
AcDbBlockTableRecord
  2
SEANNOT_GROUP1
340
0
102
{BLKREFS
331
1AE
102
}
  0
BLOCK_RECORD
  5
15A
330
1
100
AcDbSymbolTableRecord
100
AcDbBlockTableRecord
  2
SEANNOT_GROUP2
340
0
102
{BLKREFS
331
1B0
102
}
  0
BLOCK_RECORD
  5
15E
330
1
100
AcDbSymbolTableRecord
100
AcDbBlockTableRecord
  2
SEANNOT_GROUP3
340
0
102
{BLKREFS
331
1B1
102
}
  0
BLOCK_RECORD
  5
162
330
1
100
AcDbSymbolTableRecord
100
AcDbBlockTableRecord
  2
Block1
340
0
102
{BLKREFS
331
1B2
102
}
  0
BLOCK_RECORD
  5
1AA
330
1
100
AcDbSymbolTableRecord
100
AcDbBlockTableRecord
  2
RF-Massblatt_2016
340
0
102
{BLKREFS
331
1B5
102
}
  0
ENDTAB
  0
ENDSEC
  0
SECTION
  2
BLOCKS
  0
BLOCK
  5
20
330
1F
100
AcDbEntity
  8
0
100
AcDbBlockBegin
  2
*Model_Space
 70
     0
 10
0.0
 20
0.0
 30
0.0
  3
*Model_Space
  1

  0
ENDBLK
  5
21
330
1F
100
AcDbEntity
  8
0
100
AcDbBlockEnd
  0
BLOCK
  5
1C
330
1B
100
AcDbEntity
 67
     1
  8
0
100
AcDbBlockBegin
  2
*Paper_Space
 70
     0
 10
0.0
 20
0.0
 30
0.0
  3
*Paper_Space
  1

  0
ENDBLK
  5
1D
330
1B
100
AcDbEntity
 67
     1
  8
0
100
AcDbBlockEnd
  0
BLOCK
  5
127
330
40
100
AcDbEntity
  8
0
100
AcDbBlockBegin
  2
SE
 70
     0
 10
0.0
 20
0.0
 30
0.0
  3
SE
  1

  0
LINE
  5
43
330
40
100
AcDbEntity
  8
0012876
  6
Continuous
 62
     7
100
AcDbLine
 10
38.741245965
 20
87.0760761559
 30
0.0
 11
260.341245965
 21
87.0760761559
 31
0.0
  0
LINE
  5
44
330
40
100
AcDbEntity
  8
0012876
  6
Continuous
 62
     7
100
AcDbLine
 10
260.341245965
 20
87.0760761559
 30
0.0
 11
260.341245965
 21
152.6760761559
 31
0.0
  0
LINE
  5
45
330
40
100
AcDbEntity
  8
0012876
  6
Continuous
 62
     7
100
AcDbLine
 10
260.341245965
 20
152.6760761559
 30
0.0
 11
38.741245965
 21
152.6760761559
 31
0.0
  0
LINE
  5
46
330
40
100
AcDbEntity
  8
0012876
  6
Continuous
 62
     7
100
AcDbLine
 10
38.741245965
 20
152.6760761559
 30
0.0
 11
38.741245965
 21
87.0760761559
 31
0.0
  0
ARC
  5
47
330
40
100
AcDbEntity
  8
0012876
  6
Continuous
 62
     7
100
AcDbCircle
 10
47.541245965
 20
147.4760761559
 30
0.0
 40
1.679999999999993
100
AcDbArc
 50
0.0
 51
180.0
  0
LINE
  5
48
330
40
100
AcDbEntity
  8
0012876
  6
Continuous
 62
     7
100
AcDbLine
 10
45.861245965
 20
147.4760761559
 30
0.0
 11
45.861245965
 21
130.8360761559
 31
0.0
  0
ARC
  5
49
330
40
100
AcDbEntity
  8
0012876
  6
Continuous
 62
     7
100
AcDbCircle
 10
47.541245965
 20
130.8360761559
 30
0.0
 40
1.679999999999993
100
AcDbArc
 50
180.0
 51
0.0
  0
LINE
  5
4A
330
40
100
AcDbEntity
  8
0012876
  6
Continuous
 62
     7
100
AcDbLine
 10
49.221245965
 20
130.8360761559
 30
0.0
 11
49.221245965
 21
147.4760761559
 31
0.0
  0
ARC
  5
4B
330
40
100
AcDbEntity
  8
0012876
  6
Continuous
 62
     7
100
AcDbCircle
 10
73.141245965
 20
148.2760761559
 30
0.0
 40
1.680000000000004
100
AcDbArc
 50
0.0
 51
180.0
  0
LINE
  5
4C
330
40
100
AcDbEntity
  8
0012876
  6
Continuous
 62
     7
100
AcDbLine
 10
71.461245965
 20
148.2760761559
 30
0.0
 11
71.461245965
 21
131.6360761559
 31
0.0
  0
ARC
  5
4D
330
40
100
AcDbEntity
  8
0012876
  6
Continuous
 62
     7
100
AcDbCircle
 10
73.141245965
 20
131.6360761559
 30
0.0
 40
1.680000000000004
100
AcDbArc
 50
180.0
 51
0.0
  0
LINE
  5
4E
330
40
100
AcDbEntity
  8
0012876
  6
Continuous
 62
     7
100
AcDbLine
 10
74.821245965
 20
131.6360761559
 30
0.0
 11
74.821245965
 21
148.2760761559
 31
0.0
  0
ARC
  5
4F
330
40
100
AcDbEntity
  8
0012876
  6
Continuous
 62
     7
100
AcDbCircle
 10
85.941245965
 20
148.2760761559
 30
0.0
 40
1.680000000000004
100
AcDbArc
 50
0.0
 51
180.0
  0
LINE
  5
50
330
40
100
AcDbEntity
  8
0012876
  6
Continuous
 62
     7
100
AcDbLine
 10
84.261245965
 20
148.2760761559
 30
0.0
 11
84.261245965
 21
131.6360761559
 31
0.0
  0
ARC
  5
51
330
40
100
AcDbEntity
  8
0012876
  6
Continuous
 62
     7
100
AcDbCircle
 10
85.941245965
 20
131.6360761559
 30
0.0
 40
1.680000000000004
100
AcDbArc
 50
180.0
 51
0.0
  0
LINE
  5
52
330
40
100
AcDbEntity
  8
0012876
  6
Continuous
 62
     7
100
AcDbLine
 10
87.621245965
 20
131.6360761559
 30
0.0
 11
87.621245965
 21
148.2760761559
 31
0.0
  0
ARC
  5
53
330
40
100
AcDbEntity
  8
0012876
  6
Continuous
 62
     7
100
AcDbCircle
 10
98.741245965
 20
148.2760761559
 30
0.0
 40
1.679999999999993
100
AcDbArc
 50
0.0
 51
180.0
  0
LINE
  5
54
330
40
100
AcDbEntity
  8
0012876
  6
Continuous
 62
     7
100
AcDbLine
 10
97.061245965
 20
148.2760761559
 30
0.0
 11
97.061245965
 21
131.6360761559
 31
0.0
  0
ARC
  5
55
330
40
100
AcDbEntity
  8
0012876
  6
Continuous
 62
     7
100
AcDbCircle
 10
98.741245965
 20
131.6360761559
 30
0.0
 40
1.680000000000004
100
AcDbArc
 50
180.0
 51
0.0
  0
LINE
  5
56
330
40
100
AcDbEntity
  8
0012876
  6
Continuous
 62
     7
100
AcDbLine
 10
100.421245965
 20
131.6360761559
 30
0.0
 11
100.421245965
 21
148.2760761559
 31
0.0
  0
ARC
  5
57
330
40
100
AcDbEntity
  8
0012876
  6
Continuous
 62
     7
100
AcDbCircle
 10
111.541245965
 20
148.2760761559
 30
0.0
 40
1.680000000000009
100
AcDbArc
 50
0.0
 51
180.0
  0
LINE
  5
58
330
40
100
AcDbEntity
  8
0012876
  6
Continuous
 62
     7
100
AcDbLine
 10
109.861245965
 20
148.2760761559
 30
0.0
 11
109.861245965
 21
131.6360761559
 31
0.0
  0
ARC
  5
59
330
40
100
AcDbEntity
  8
0012876
  6
Continuous
 62
     7
100
AcDbCircle
 10
111.541245965
 20
131.6360761559
 30
0.0
 40
1.680000000000009
100
AcDbArc
 50
180.0
 51
0.0
  0
LINE
  5
5A
330
40
100
AcDbEntity
  8
0012876
  6
Continuous
 62
     7
100
AcDbLine
 10
113.221245965
 20
131.6360761559
 30
0.0
 11
113.221245965
 21
148.2760761559
 31
0.0
  0
ARC
  5
5B
330
40
100
AcDbEntity
  8
0012876
  6
Continuous
 62
     7
100
AcDbCircle
 10
124.341245965
 20
148.2760761559
 30
0.0
 40
1.680000000000004
100
AcDbArc
 50
0.0
 51
180.0
  0
LINE
  5
5C
330
40
100
AcDbEntity
  8
0012876
  6
Continuous
 62
     7
100
AcDbLine
 10
122.661245965
 20
148.2760761559
 30
0.0
 11
122.661245965
 21
131.6360761559
 31
0.0
  0
ARC
  5
5D
330
40
100
AcDbEntity
  8
0012876
  6
Continuous
 62
     7
100
AcDbCircle
 10
124.341245965
 20
131.6360761559
 30
0.0
 40
1.680000000000009
100
AcDbArc
 50
180.0
 51
0.0
  0
LINE
  5
5E
330
40
100
AcDbEntity
  8
0012876
  6
Continuous
 62
     7
100
AcDbLine
 10
126.021245965
 20
131.6360761559
 30
0.0
 11
126.021245965
 21
148.2760761559
 31
0.0
  0
ARC
  5
5F
330
40
100
AcDbEntity
  8
0012876
  6
Continuous
 62
     7
100
AcDbCircle
 10
137.141245965
 20
148.2760761559
 30
0.0
 40
1.679999999999997
100
AcDbArc
 50
0.0
 51
180.0
  0
LINE
  5
60
330
40
100
AcDbEntity
  8
0012876
  6
Continuous
 62
     7
100
AcDbLine
 10
135.461245965
 20
148.2760761559
 30
0.0
 11
135.461245965
 21
131.6360761559
 31
0.0
  0
ARC
  5
61
330
40
100
AcDbEntity
  8
0012876
  6
Continuous
 62
     7
100
AcDbCircle
 10
137.141245965
 20
131.6360761559
 30
0.0
 40
1.68
100
AcDbArc
 50
180.0
 51
0.0
  0
LINE
  5
62
330
40
100
AcDbEntity
  8
0012876
  6
Continuous
 62
     7
100
AcDbLine
 10
138.821245965
 20
131.6360761559
 30
0.0
 11
138.821245965
 21
148.2760761559
 31
0.0
  0
ARC
  5
63
330
40
100
AcDbEntity
  8
0012876
  6
Continuous
 62
     7
100
AcDbCircle
 10
149.941245965
 20
148.2760761559
 30
0.0
 40
1.68
100
AcDbArc
 50
0.0
 51
180.0
  0
LINE
  5
64
330
40
100
AcDbEntity
  8
0012876
  6
Continuous
 62
     7
100
AcDbLine
 10
148.261245965
 20
148.2760761559
 30
0.0
 11
148.261245965
 21
131.6360761559
 31
0.0
  0
ARC
  5
65
330
40
100
AcDbEntity
  8
0012876
  6
Continuous
 62
     7
100
AcDbCircle
 10
149.941245965
 20
131.6360761559
 30
0.0
 40
1.68
100
AcDbArc
 50
180.0
 51
0.0
  0
LINE
  5
66
330
40
100
AcDbEntity
  8
0012876
  6
Continuous
 62
     7
100
AcDbLine
 10
151.621245965
 20
131.6360761559
 30
0.0
 11
151.621245965
 21
148.2760761559
 31
0.0
  0
ARC
  5
67
330
40
100
AcDbEntity
  8
0012876
  6
Continuous
 62
     7
100
AcDbCircle
 10
162.741245965
 20
148.2760761559
 30
0.0
 40
1.680000000000001
100
AcDbArc
 50
0.0
 51
180.0
  0
LINE
  5
68
330
40
100
AcDbEntity
  8
0012876
  6
Continuous
 62
     7
100
AcDbLine
 10
161.061245965
 20
148.2760761559
 30
0.0
 11
161.061245965
 21
131.6360761559
 31
0.0
  0
ARC
  5
69
330
40
100
AcDbEntity
  8
0012876
  6
Continuous
 62
     7
100
AcDbCircle
 10
162.741245965
 20
131.6360761559
 30
0.0
 40
1.679999999999998
100
AcDbArc
 50
180.0
 51
0.0
  0
LINE
  5
6A
330
40
100
AcDbEntity
  8
0012876
  6
Continuous
 62
     7
100
AcDbLine
 10
164.421245965
 20
131.6360761559
 30
0.0
 11
164.421245965
 21
148.2760761559
 31
0.0
  0
ARC
  5
6B
330
40
100
AcDbEntity
  8
0012876
  6
Continuous
 62
     7
100
AcDbCircle
 10
175.541245965
 20
148.2760761559
 30
0.0
 40
1.680000000000004
100
AcDbArc
 50
0.0
 51
180.0
  0
LINE
  5
6C
330
40
100
AcDbEntity
  8
0012876
  6
Continuous
 62
     7
100
AcDbLine
 10
173.861245965
 20
148.2760761559
 30
0.0
 11
173.861245965
 21
131.6360761559
 31
0.0
  0
ARC
  5
6D
330
40
100
AcDbEntity
  8
0012876
  6
Continuous
 62
     7
100
AcDbCircle
 10
175.541245965
 20
131.6360761559
 30
0.0
 40
1.679999999999998
100
AcDbArc
 50
180.0
 51
0.0
  0
LINE
  5
6E
330
40
100
AcDbEntity
  8
0012876
  6
Continuous
 62
     7
100
AcDbLine
 10
177.221245965
 20
131.6360761559
 30
0.0
 11
177.221245965
 21
148.2760761559
 31
0.0
  0
ARC
  5
6F
330
40
100
AcDbEntity
  8
0012876
  6
Continuous
 62
     7
100
AcDbCircle
 10
188.341245965
 20
148.2760761559
 30
0.0
 40
1.680000000000009
100
AcDbArc
 50
0.0
 51
180.0
  0
LINE
  5
70
330
40
100
AcDbEntity
  8
0012876
  6
Continuous
 62
     7
100
AcDbLine
 10
186.661245965
 20
148.2760761559
 30
0.0
 11
186.661245965
 21
131.6360761559
 31
0.0
  0
ARC
  5
71
330
40
100
AcDbEntity
  8
0012876
  6
Continuous
 62
     7
100
AcDbCircle
 10
188.341245965
 20
131.6360761559
 30
0.0
 40
1.680000000000009
100
AcDbArc
 50
180.0
 51
0.0
  0
LINE
  5
72
330
40
100
AcDbEntity
  8
0012876
  6
Continuous
 62
     7
100
AcDbLine
 10
190.021245965
 20
131.6360761559
 30
0.0
 11
190.021245965
 21
148.2760761559
 31
0.0
  0
ARC
  5
73
330
40
100
AcDbEntity
  8
0012876
  6
Continuous
 62
     7
100
AcDbCircle
 10
201.141245965
 20
148.2760761559
 30
0.0
 40
1.680000000000015
100
AcDbArc
 50
0.0
 51
180.0
  0
LINE
  5
74
330
40
100
AcDbEntity
  8
0012876
  6
Continuous
 62
     7
100
AcDbLine
 10
199.461245965
 20
148.2760761559
 30
0.0
 11
199.461245965
 21
131.6360761559
 31
0.0
  0
ARC
  5
75
330
40
100
AcDbEntity
  8
0012876
  6
Continuous
 62
     7
100
AcDbCircle
 10
201.141245965
 20
131.6360761559
 30
0.0
 40
1.680000000000009
100
AcDbArc
 50
180.0
 51
0.0
  0
LINE
  5
76
330
40
100
AcDbEntity
  8
0012876
  6
Continuous
 62
     7
100
AcDbLine
 10
202.821245965
 20
131.6360761559
 30
0.0
 11
202.821245965
 21
148.2760761559
 31
0.0
  0
ARC
  5
77
330
40
100
AcDbEntity
  8
0012876
  6
Continuous
 62
     7
100
AcDbCircle
 10
213.941245965
 20
148.2760761559
 30
0.0
 40
1.680000000000004
100
AcDbArc
 50
0.0
 51
180.0
  0
LINE
  5
78
330
40
100
AcDbEntity
  8
0012876
  6
Continuous
 62
     7
100
AcDbLine
 10
212.261245965
 20
148.2760761559
 30
0.0
 11
212.261245965
 21
131.6360761559
 31
0.0
  0
ARC
  5
79
330
40
100
AcDbEntity
  8
0012876
  6
Continuous
 62
     7
100
AcDbCircle
 10
213.941245965
 20
131.6360761559
 30
0.0
 40
1.680000000000004
100
AcDbArc
 50
180.0
 51
0.0
  0
LINE
  5
7A
330
40
100
AcDbEntity
  8
0012876
  6
Continuous
 62
     7
100
AcDbLine
 10
215.621245965
 20
131.6360761559
 30
0.0
 11
215.621245965
 21
148.2760761559
 31
0.0
  0
ARC
  5
7B
330
40
100
AcDbEntity
  8
0012876
  6
Continuous
 62
     7
100
AcDbCircle
 10
226.741245965
 20
148.2760761559
 30
0.0
 40
1.680000000000004
100
AcDbArc
 50
0.0
 51
180.0
  0
LINE
  5
7C
330
40
100
AcDbEntity
  8
0012876
  6
Continuous
 62
     7
100
AcDbLine
 10
225.061245965
 20
148.2760761559
 30
0.0
 11
225.061245965
 21
131.6360761559
 31
0.0
  0
ARC
  5
7D
330
40
100
AcDbEntity
  8
0012876
  6
Continuous
 62
     7
100
AcDbCircle
 10
226.741245965
 20
131.6360761559
 30
0.0
 40
1.680000000000004
100
AcDbArc
 50
180.0
 51
0.0
  0
LINE
  5
7E
330
40
100
AcDbEntity
  8
0012876
  6
Continuous
 62
     7
100
AcDbLine
 10
228.421245965
 20
131.6360761559
 30
0.0
 11
228.421245965
 21
148.2760761559
 31
0.0
  0
ARC
  5
7F
330
40
100
AcDbEntity
  8
0012876
  6
Continuous
 62
     7
100
AcDbCircle
 10
239.541245965
 20
148.2760761559
 30
0.0
 40
1.680000000000004
100
AcDbArc
 50
0.0
 51
180.0
  0
LINE
  5
80
330
40
100
AcDbEntity
  8
0012876
  6
Continuous
 62
     7
100
AcDbLine
 10
237.861245965
 20
148.2760761559
 30
0.0
 11
237.861245965
 21
131.6360761559
 31
0.0
  0
ARC
  5
81
330
40
100
AcDbEntity
  8
0012876
  6
Continuous
 62
     7
100
AcDbCircle
 10
239.541245965
 20
131.6360761559
 30
0.0
 40
1.680000000000004
100
AcDbArc
 50
180.0
 51
0.0
  0
LINE
  5
82
330
40
100
AcDbEntity
  8
0012876
  6
Continuous
 62
     7
100
AcDbLine
 10
241.221245965
 20
131.6360761559
 30
0.0
 11
241.221245965
 21
148.2760761559
 31
0.0
  0
ARC
  5
83
330
40
100
AcDbEntity
  8
0012876
  6
Continuous
 62
     7
100
AcDbCircle
 10
252.341245965
 20
148.2760761559
 30
0.0
 40
1.679999999999993
100
AcDbArc
 50
0.0
 51
180.0
  0
LINE
  5
84
330
40
100
AcDbEntity
  8
0012876
  6
Continuous
 62
     7
100
AcDbLine
 10
250.661245965
 20
148.2760761559
 30
0.0
 11
250.661245965
 21
131.6360761559
 31
0.0
  0
ARC
  5
85
330
40
100
AcDbEntity
  8
0012876
  6
Continuous
 62
     7
100
AcDbCircle
 10
252.341245965
 20
131.6360761559
 30
0.0
 40
1.679999999999993
100
AcDbArc
 50
180.0
 51
0.0
  0
LINE
  5
86
330
40
100
AcDbEntity
  8
0012876
  6
Continuous
 62
     7
100
AcDbLine
 10
254.021245965
 20
131.6360761559
 30
0.0
 11
254.021245965
 21
148.2760761559
 31
0.0
  0
ARC
  5
87
330
40
100
AcDbEntity
  8
0012876
  6
Continuous
 62
     7
100
AcDbCircle
 10
60.341245965
 20
122.6760761559
 30
0.0
 40
1.680000000000004
100
AcDbArc
 50
0.0
 51
180.0
  0
LINE
  5
88
330
40
100
AcDbEntity
  8
0012876
  6
Continuous
 62
     7
100
AcDbLine
 10
58.661245965
 20
122.6760761559
 30
0.0
 11
58.661245965
 21
106.0360761559
 31
0.0
  0
ARC
  5
89
330
40
100
AcDbEntity
  8
0012876
  6
Continuous
 62
     7
100
AcDbCircle
 10
60.341245965
 20
106.0360761559
 30
0.0
 40
1.680000000000004
100
AcDbArc
 50
180.0
 51
0.0
  0
LINE
  5
8A
330
40
100
AcDbEntity
  8
0012876
  6
Continuous
 62
     7
100
AcDbLine
 10
62.021245965
 20
106.0360761559
 30
0.0
 11
62.021245965
 21
122.6760761559
 31
0.0
  0
ARC
  5
8B
330
40
100
AcDbEntity
  8
0012876
  6
Continuous
 62
     7
100
AcDbCircle
 10
47.541245965
 20
121.8760761559
 30
0.0
 40
1.679999999999993
100
AcDbArc
 50
0.0
 51
180.0
  0
LINE
  5
8C
330
40
100
AcDbEntity
  8
0012876
  6
Continuous
 62
     7
100
AcDbLine
 10
45.861245965
 20
121.8760761559
 30
0.0
 11
45.861245965
 21
105.2360761559
 31
0.0
  0
ARC
  5
8D
330
40
100
AcDbEntity
  8
0012876
  6
Continuous
 62
     7
100
AcDbCircle
 10
47.541245965
 20
105.2360761559
 30
0.0
 40
1.679999999999993
100
AcDbArc
 50
180.0
 51
0.0
  0
LINE
  5
8E
330
40
100
AcDbEntity
  8
0012876
  6
Continuous
 62
     7
100
AcDbLine
 10
49.221245965
 20
105.2360761559
 30
0.0
 11
49.221245965
 21
121.8760761559
 31
0.0
  0
ARC
  5
8F
330
40
100
AcDbEntity
  8
0012876
  6
Continuous
 62
     7
100
AcDbCircle
 10
73.141245965
 20
122.6760761559
 30
0.0
 40
1.680000000000004
100
AcDbArc
 50
0.0
 51
180.0
  0
LINE
  5
90
330
40
100
AcDbEntity
  8
0012876
  6
Continuous
 62
     7
100
AcDbLine
 10
71.461245965
 20
122.6760761559
 30
0.0
 11
71.461245965
 21
106.0360761559
 31
0.0
  0
ARC
  5
91
330
40
100
AcDbEntity
  8
0012876
  6
Continuous
 62
     7
100
AcDbCircle
 10
73.141245965
 20
106.0360761559
 30
0.0
 40
1.680000000000004
100
AcDbArc
 50
180.0
 51
0.0
  0
LINE
  5
92
330
40
100
AcDbEntity
  8
0012876
  6
Continuous
 62
     7
100
AcDbLine
 10
74.821245965
 20
106.0360761559
 30
0.0
 11
74.821245965
 21
122.6760761559
 31
0.0
  0
ARC
  5
93
330
40
100
AcDbEntity
  8
0012876
  6
Continuous
 62
     7
100
AcDbCircle
 10
85.941245965
 20
122.6760761559
 30
0.0
 40
1.680000000000004
100
AcDbArc
 50
0.0
 51
180.0
  0
LINE
  5
94
330
40
100
AcDbEntity
  8
0012876
  6
Continuous
 62
     7
100
AcDbLine
 10
84.261245965
 20
122.6760761559
 30
0.0
 11
84.261245965
 21
106.0360761559
 31
0.0
  0
ARC
  5
95
330
40
100
AcDbEntity
  8
0012876
  6
Continuous
 62
     7
100
AcDbCircle
 10
85.941245965
 20
106.0360761559
 30
0.0
 40
1.680000000000004
100
AcDbArc
 50
180.0
 51
0.0
  0
LINE
  5
96
330
40
100
AcDbEntity
  8
0012876
  6
Continuous
 62
     7
100
AcDbLine
 10
87.621245965
 20
106.0360761559
 30
0.0
 11
87.621245965
 21
122.6760761559
 31
0.0
  0
ARC
  5
97
330
40
100
AcDbEntity
  8
0012876
  6
Continuous
 62
     7
100
AcDbCircle
 10
98.741245965
 20
122.6760761559
 30
0.0
 40
1.679999999999993
100
AcDbArc
 50
0.0
 51
180.0
  0
LINE
  5
98
330
40
100
AcDbEntity
  8
0012876
  6
Continuous
 62
     7
100
AcDbLine
 10
97.061245965
 20
122.6760761559
 30
0.0
 11
97.061245965
 21
106.0360761559
 31
0.0
  0
ARC
  5
99
330
40
100
AcDbEntity
  8
0012876
  6
Continuous
 62
     7
100
AcDbCircle
 10
98.741245965
 20
106.0360761559
 30
0.0
 40
1.680000000000004
100
AcDbArc
 50
180.0
 51
0.0
  0
LINE
  5
9A
330
40
100
AcDbEntity
  8
0012876
  6
Continuous
 62
     7
100
AcDbLine
 10
100.421245965
 20
106.0360761559
 30
0.0
 11
100.421245965
 21
122.6760761559
 31
0.0
  0
ARC
  5
9B
330
40
100
AcDbEntity
  8
0012876
  6
Continuous
 62
     7
100
AcDbCircle
 10
111.541245965
 20
122.6760761559
 30
0.0
 40
1.680000000000009
100
AcDbArc
 50
0.0
 51
180.0
  0
LINE
  5
9C
330
40
100
AcDbEntity
  8
0012876
  6
Continuous
 62
     7
100
AcDbLine
 10
109.861245965
 20
122.6760761559
 30
0.0
 11
109.861245965
 21
106.0360761559
 31
0.0
  0
ARC
  5
9D
330
40
100
AcDbEntity
  8
0012876
  6
Continuous
 62
     7
100
AcDbCircle
 10
111.541245965
 20
106.0360761559
 30
0.0
 40
1.680000000000009
100
AcDbArc
 50
180.0
 51
0.0
  0
LINE
  5
9E
330
40
100
AcDbEntity
  8
0012876
  6
Continuous
 62
     7
100
AcDbLine
 10
113.221245965
 20
106.0360761559
 30
0.0
 11
113.221245965
 21
122.6760761559
 31
0.0
  0
ARC
  5
9F
330
40
100
AcDbEntity
  8
0012876
  6
Continuous
 62
     7
100
AcDbCircle
 10
124.341245965
 20
122.6760761559
 30
0.0
 40
1.680000000000004
100
AcDbArc
 50
0.0
 51
180.0
  0
LINE
  5
A0
330
40
100
AcDbEntity
  8
0012876
  6
Continuous
 62
     7
100
AcDbLine
 10
122.661245965
 20
122.6760761559
 30
0.0
 11
122.661245965
 21
106.0360761559
 31
0.0
  0
ARC
  5
A1
330
40
100
AcDbEntity
  8
0012876
  6
Continuous
 62
     7
100
AcDbCircle
 10
124.341245965
 20
106.0360761559
 30
0.0
 40
1.680000000000009
100
AcDbArc
 50
180.0
 51
0.0
  0
LINE
  5
A2
330
40
100
AcDbEntity
  8
0012876
  6
Continuous
 62
     7
100
AcDbLine
 10
126.021245965
 20
106.0360761559
 30
0.0
 11
126.021245965
 21
122.6760761559
 31
0.0
  0
ARC
  5
A3
330
40
100
AcDbEntity
  8
0012876
  6
Continuous
 62
     7
100
AcDbCircle
 10
137.141245965
 20
122.6760761559
 30
0.0
 40
1.679999999999997
100
AcDbArc
 50
0.0
 51
180.0
  0
LINE
  5
A4
330
40
100
AcDbEntity
  8
0012876
  6
Continuous
 62
     7
100
AcDbLine
 10
135.461245965
 20
122.6760761559
 30
0.0
 11
135.461245965
 21
106.0360761559
 31
0.0
  0
ARC
  5
A5
330
40
100
AcDbEntity
  8
0012876
  6
Continuous
 62
     7
100
AcDbCircle
 10
137.141245965
 20
106.0360761559
 30
0.0
 40
1.68
100
AcDbArc
 50
180.0
 51
0.0
  0
LINE
  5
A6
330
40
100
AcDbEntity
  8
0012876
  6
Continuous
 62
     7
100
AcDbLine
 10
138.821245965
 20
106.0360761559
 30
0.0
 11
138.821245965
 21
122.6760761559
 31
0.0
  0
ARC
  5
A7
330
40
100
AcDbEntity
  8
0012876
  6
Continuous
 62
     7
100
AcDbCircle
 10
149.941245965
 20
122.6760761559
 30
0.0
 40
1.68
100
AcDbArc
 50
0.0
 51
180.0
  0
LINE
  5
A8
330
40
100
AcDbEntity
  8
0012876
  6
Continuous
 62
     7
100
AcDbLine
 10
148.261245965
 20
122.6760761559
 30
0.0
 11
148.261245965
 21
106.0360761559
 31
0.0
  0
ARC
  5
A9
330
40
100
AcDbEntity
  8
0012876
  6
Continuous
 62
     7
100
AcDbCircle
 10
149.941245965
 20
106.0360761559
 30
0.0
 40
1.68
100
AcDbArc
 50
180.0
 51
0.0
  0
LINE
  5
AA
330
40
100
AcDbEntity
  8
0012876
  6
Continuous
 62
     7
100
AcDbLine
 10
151.621245965
 20
106.0360761559
 30
0.0
 11
151.621245965
 21
122.6760761559
 31
0.0
  0
ARC
  5
AB
330
40
100
AcDbEntity
  8
0012876
  6
Continuous
 62
     7
100
AcDbCircle
 10
162.741245965
 20
122.6760761559
 30
0.0
 40
1.680000000000001
100
AcDbArc
 50
0.0
 51
180.0
  0
LINE
  5
AC
330
40
100
AcDbEntity
  8
0012876
  6
Continuous
 62
     7
100
AcDbLine
 10
161.061245965
 20
122.6760761559
 30
0.0
 11
161.061245965
 21
106.0360761559
 31
0.0
  0
ARC
  5
AD
330
40
100
AcDbEntity
  8
0012876
  6
Continuous
 62
     7
100
AcDbCircle
 10
162.741245965
 20
106.0360761559
 30
0.0
 40
1.679999999999998
100
AcDbArc
 50
180.0
 51
0.0
  0
LINE
  5
AE
330
40
100
AcDbEntity
  8
0012876
  6
Continuous
 62
     7
100
AcDbLine
 10
164.421245965
 20
106.0360761559
 30
0.0
 11
164.421245965
 21
122.6760761559
 31
0.0
  0
ARC
  5
AF
330
40
100
AcDbEntity
  8
0012876
  6
Continuous
 62
     7
100
AcDbCircle
 10
175.541245965
 20
122.6760761559
 30
0.0
 40
1.680000000000004
100
AcDbArc
 50
0.0
 51
180.0
  0
LINE
  5
B0
330
40
100
AcDbEntity
  8
0012876
  6
Continuous
 62
     7
100
AcDbLine
 10
173.861245965
 20
122.6760761559
 30
0.0
 11
173.861245965
 21
106.0360761559
 31
0.0
  0
ARC
  5
B1
330
40
100
AcDbEntity
  8
0012876
  6
Continuous
 62
     7
100
AcDbCircle
 10
175.541245965
 20
106.0360761559
 30
0.0
 40
1.679999999999998
100
AcDbArc
 50
180.0
 51
0.0
  0
LINE
  5
B2
330
40
100
AcDbEntity
  8
0012876
  6
Continuous
 62
     7
100
AcDbLine
 10
177.221245965
 20
106.0360761559
 30
0.0
 11
177.221245965
 21
122.6760761559
 31
0.0
  0
ARC
  5
B3
330
40
100
AcDbEntity
  8
0012876
  6
Continuous
 62
     7
100
AcDbCircle
 10
188.341245965
 20
122.6760761559
 30
0.0
 40
1.680000000000009
100
AcDbArc
 50
0.0
 51
180.0
  0
LINE
  5
B4
330
40
100
AcDbEntity
  8
0012876
  6
Continuous
 62
     7
100
AcDbLine
 10
186.661245965
 20
122.6760761559
 30
0.0
 11
186.661245965
 21
106.0360761559
 31
0.0
  0
ARC
  5
B5
330
40
100
AcDbEntity
  8
0012876
  6
Continuous
 62
     7
100
AcDbCircle
 10
188.341245965
 20
106.0360761559
 30
0.0
 40
1.680000000000009
100
AcDbArc
 50
180.0
 51
0.0
  0
LINE
  5
B6
330
40
100
AcDbEntity
  8
0012876
  6
Continuous
 62
     7
100
AcDbLine
 10
190.021245965
 20
106.0360761559
 30
0.0
 11
190.021245965
 21
122.6760761559
 31
0.0
  0
ARC
  5
B7
330
40
100
AcDbEntity
  8
0012876
  6
Continuous
 62
     7
100
AcDbCircle
 10
201.141245965
 20
122.6760761559
 30
0.0
 40
1.680000000000015
100
AcDbArc
 50
0.0
 51
180.0
  0
LINE
  5
B8
330
40
100
AcDbEntity
  8
0012876
  6
Continuous
 62
     7
100
AcDbLine
 10
199.461245965
 20
122.6760761559
 30
0.0
 11
199.461245965
 21
106.0360761559
 31
0.0
  0
ARC
  5
B9
330
40
100
AcDbEntity
  8
0012876
  6
Continuous
 62
     7
100
AcDbCircle
 10
201.141245965
 20
106.0360761559
 30
0.0
 40
1.680000000000009
100
AcDbArc
 50
180.0
 51
0.0
  0
LINE
  5
BA
330
40
100
AcDbEntity
  8
0012876
  6
Continuous
 62
     7
100
AcDbLine
 10
202.821245965
 20
106.0360761559
 30
0.0
 11
202.821245965
 21
122.6760761559
 31
0.0
  0
ARC
  5
BB
330
40
100
AcDbEntity
  8
0012876
  6
Continuous
 62
     7
100
AcDbCircle
 10
213.941245965
 20
122.6760761559
 30
0.0
 40
1.680000000000004
100
AcDbArc
 50
0.0
 51
180.0
  0
LINE
  5
BC
330
40
100
AcDbEntity
  8
0012876
  6
Continuous
 62
     7
100
AcDbLine
 10
212.261245965
 20
122.6760761559
 30
0.0
 11
212.261245965
 21
106.0360761559
 31
0.0
  0
ARC
  5
BD
330
40
100
AcDbEntity
  8
0012876
  6
Continuous
 62
     7
100
AcDbCircle
 10
213.941245965
 20
106.0360761559
 30
0.0
 40
1.680000000000004
100
AcDbArc
 50
180.0
 51
0.0
  0
LINE
  5
BE
330
40
100
AcDbEntity
  8
0012876
  6
Continuous
 62
     7
100
AcDbLine
 10
215.621245965
 20
106.0360761559
 30
0.0
 11
215.621245965
 21
122.6760761559
 31
0.0
  0
ARC
  5
BF
330
40
100
AcDbEntity
  8
0012876
  6
Continuous
 62
     7
100
AcDbCircle
 10
226.741245965
 20
122.6760761559
 30
0.0
 40
1.680000000000004
100
AcDbArc
 50
0.0
 51
180.0
  0
LINE
  5
C0
330
40
100
AcDbEntity
  8
0012876
  6
Continuous
 62
     7
100
AcDbLine
 10
225.061245965
 20
122.6760761559
 30
0.0
 11
225.061245965
 21
106.0360761559
 31
0.0
  0
ARC
  5
C1
330
40
100
AcDbEntity
  8
0012876
  6
Continuous
 62
     7
100
AcDbCircle
 10
226.741245965
 20
106.0360761559
 30
0.0
 40
1.680000000000004
100
AcDbArc
 50
180.0
 51
0.0
  0
LINE
  5
C2
330
40
100
AcDbEntity
  8
0012876
  6
Continuous
 62
     7
100
AcDbLine
 10
228.421245965
 20
106.0360761559
 30
0.0
 11
228.421245965
 21
122.6760761559
 31
0.0
  0
ARC
  5
C3
330
40
100
AcDbEntity
  8
0012876
  6
Continuous
 62
     7
100
AcDbCircle
 10
239.541245965
 20
122.6760761559
 30
0.0
 40
1.680000000000004
100
AcDbArc
 50
0.0
 51
180.0
  0
LINE
  5
C4
330
40
100
AcDbEntity
  8
0012876
  6
Continuous
 62
     7
100
AcDbLine
 10
237.861245965
 20
122.6760761559
 30
0.0
 11
237.861245965
 21
106.0360761559
 31
0.0
  0
ARC
  5
C5
330
40
100
AcDbEntity
  8
0012876
  6
Continuous
 62
     7
100
AcDbCircle
 10
239.541245965
 20
106.0360761559
 30
0.0
 40
1.680000000000004
100
AcDbArc
 50
180.0
 51
0.0
  0
LINE
  5
C6
330
40
100
AcDbEntity
  8
0012876
  6
Continuous
 62
     7
100
AcDbLine
 10
241.221245965
 20
106.0360761559
 30
0.0
 11
241.221245965
 21
122.6760761559
 31
0.0
  0
ARC
  5
C7
330
40
100
AcDbEntity
  8
0012876
  6
Continuous
 62
     7
100
AcDbCircle
 10
252.341245965
 20
122.6760761559
 30
0.0
 40
1.679999999999993
100
AcDbArc
 50
0.0
 51
180.0
  0
LINE
  5
C8
330
40
100
AcDbEntity
  8
0012876
  6
Continuous
 62
     7
100
AcDbLine
 10
250.661245965
 20
122.6760761559
 30
0.0
 11
250.661245965
 21
106.0360761559
 31
0.0
  0
ARC
  5
C9
330
40
100
AcDbEntity
  8
0012876
  6
Continuous
 62
     7
100
AcDbCircle
 10
252.341245965
 20
106.0360761559
 30
0.0
 40
1.679999999999993
100
AcDbArc
 50
180.0
 51
0.0
  0
LINE
  5
CA
330
40
100
AcDbEntity
  8
0012876
  6
Continuous
 62
     7
100
AcDbLine
 10
254.021245965
 20
106.0360761559
 30
0.0
 11
254.021245965
 21
122.6760761559
 31
0.0
  0
ARC
  5
CB
330
40
100
AcDbEntity
  8
0012876
  6
Continuous
 62
     7
100
AcDbCircle
 10
60.341245965
 20
148.2760761559
 30
0.0
 40
1.680000000000004
100
AcDbArc
 50
0.0
 51
180.0
  0
LINE
  5
CC
330
40
100
AcDbEntity
  8
0012876
  6
Continuous
 62
     7
100
AcDbLine
 10
58.661245965
 20
148.2760761559
 30
0.0
 11
58.661245965
 21
131.6360761559
 31
0.0
  0
ARC
  5
CD
330
40
100
AcDbEntity
  8
0012876
  6
Continuous
 62
     7
100
AcDbCircle
 10
60.341245965
 20
131.6360761559
 30
0.0
 40
1.680000000000004
100
AcDbArc
 50
180.0
 51
0.0
  0
LINE
  5
CE
330
40
100
AcDbEntity
  8
0012876
  6
Continuous
 62
     7
100
AcDbLine
 10
62.021245965
 20
131.6360761559
 30
0.0
 11
62.021245965
 21
148.2760761559
 31
0.0
  0
SPLINE
  5
CF
330
40
100
AcDbEntity
  8
0012876
  6
Continuous
 62
     7
100
AcDbSpline
210
0.0
220
0.0
230
1.0
 70
     8
 71
     3
 72
    18
 73
    14
 74
     0
 42
0.0000000075539547
 43
0.0000000001
 12
1.0
 22
0.0
 32
0.0
 13
1.0
 23
0.0
 33
0.0
 40
0.0
 40
0.0
 40
0.0
 40
0.0
 40
0.1061263437799097
 40
0.1061263437799097
 40
0.1786028712393579
 40
0.1786028712393579
 40
0.1786028712393579
 40
0.2965228557723064
 40
0.2965228557723064
 40
0.3769228452265898
 40
0.3769228452265898
 40
0.3769228452265898
 40
1.0
 40
1.0
 40
1.0
 40
1.0
 10
54.68654249090969
 20
92.04134378483498
 30
0.0
 10
54.6438484562721
 20
92.032004464758
 30
0.0
 10
54.5944834787224
 20
92.0266677104283
 30
0.0
 10
54.5024244665351
 20
92.0266677104283
 30
0.0
 10
54.47307231772175
 20
92.03333865334042
 30
0.0
 10
54.45706205473266
 20
92.04934891632952
 30
0.0
 10
54.44105179174356
 20
92.06535917931862
 30
0.0
 10
54.43171247166657
 20
92.08804038521984
 30
0.0
 10
54.43171247166657
 20
92.13740536276954
 30
0.0
 10
54.44227149925657
 20
92.19880195897856
 30
0.0
 10
54.46373299764478
 20
92.30151055840778
 30
0.0
 10
54.51976891810661
 20
92.56968246347512
 30
0.0
 10
54.57580483856844
 20
92.83785436854247
 30
0.0
 10
54.63184075903028
 20
93.10602627360983
 30
0.0
  0
LINE
  5
D0
330
40
100
AcDbEntity
  8
0012876
  6
Continuous
 62
     7
100
AcDbLine
 10
54.631840759
 20
93.1060262736
 30
0.0
 11
54.8733288924
 21
93.1060262736
 31
0.0
  0
LINE
  5
D1
330
40
100
AcDbEntity
  8
0012876
  6
Continuous
 62
     7
100
AcDbLine
 10
54.8733288924
 20
93.1060262736
 30
0.0
 11
54.9133545499
 21
93.2968152409
 31
0.0
  0
LINE
  5
D2
330
40
100
AcDbEntity
  8
0012876
  6
Continuous
 62
     7
100
AcDbLine
 10
54.9133545499
 20
93.2968152409
 30
0.0
 11
54.6705322279
 21
93.2968152409
 31
0.0
  0
LINE
  5
D3
330
40
100
AcDbEntity
  8
0012876
  6
Continuous
 62
     7
100
AcDbLine
 10
54.6705322279
 20
93.2968152409
 30
0.0
 11
54.7799356917
 21
93.8211513538
 31
0.0
  0
LINE
  5
D4
330
40
100
AcDbEntity
  8
0012876
  6
Continuous
 62
     7
100
AcDbLine
 10
54.7799356917
 20
93.8211513538
 30
0.0
 11
54.4984219008
 21
93.6517094038
 31
0.0
  0
LINE
  5
D5
330
40
100
AcDbEntity
  8
0012876
  6
Continuous
 62
     7
100
AcDbLine
 10
54.4984219008
 20
93.6517094038
 30
0.0
 11
54.4250415288
 21
93.2968152409
 31
0.0
  0
LINE
  5
D6
330
40
100
AcDbEntity
  8
0012876
  6
Continuous
 62
     7
100
AcDbLine
 10
54.4250415288
 20
93.2968152409
 30
0.0
 11
54.2289158071
 21
93.2968152409
 31
0.0
  0
LINE
  5
D7
330
40
100
AcDbEntity
  8
0012876
  6
Continuous
 62
     7
100
AcDbLine
 10
54.2289158071
 20
93.2968152409
 30
0.0
 11
54.1902243382
 21
93.1060262736
 31
0.0
  0
LINE
  5
D8
330
40
100
AcDbEntity
  8
0012876
  6
Continuous
 62
     7
100
AcDbLine
 10
54.1902243382
 20
93.1060262736
 30
0.0
 11
54.3850158713
 21
93.1060262736
 31
0.0
  0
SPLINE
  5
D9
330
40
100
AcDbEntity
  8
0012876
  6
Continuous
 62
     7
100
AcDbSpline
210
0.0
220
0.0
230
1.0
 70
     8
 71
     3
 72
    18
 73
    14
 74
     0
 42
0.0000000059041247
 43
0.0000000001
 12
1.0
 22
0.0
 32
0.0
 13
1.0
 23
0.0
 33
0.0
 40
0.0
 40
0.0
 40
0.0
 40
0.0
 40
0.514382584401152
 40
0.514382584401152
 40
0.514382584401152
 40
0.5900999866621458
 40
0.5900999866621458
 40
0.7481189131198724
 40
0.7481189131198724
 40
0.7481189131198724
 40
0.908008646530736
 40
0.908008646530736
 40
1.0
 40
1.0
 40
1.0
 40
1.0
 10
54.38501587128172
 20
93.10602627360983
 30
0.0
 10
54.32631157365503
 20
92.82362302366329
 30
0.0
 10
54.26483519615522
 20
92.54176774299398
 30
0.0
 10
54.20890297840168
 20
92.2588165237702
 30
0.0
 10
54.18622177250045
 20
92.14407630568166
 30
0.0
 10
54.17421407525863
 20
92.06936174506589
 30
0.0
 10
54.17421407525863
 20
91.97463435571373
 30
0.0
 10
54.19531673880207
 20
91.92497751115458
 30
0.0
 10
54.23958931579743
 20
91.88791209785614
 30
0.0
 10
54.2969594248417
 20
91.83988130888886
 30
0.0
 10
54.37567655120476
 20
91.81586591440521
 30
0.0
 10
54.52910823818359
 20
91.81586591440521
 30
0.0
 10
54.58647834722785
 20
91.82387104589976
 30
0.0
 10
54.64518264485451
 20
91.83988130888886
 30
0.0
  0
LINE
  5
DA
330
40
100
AcDbEntity
  8
0012876
  6
Continuous
 62
     7
100
AcDbLine
 10
54.6451826449
 20
91.8398813089
 30
0.0
 11
54.6865424909
 21
92.0413437848
 31
0.0
  0
LINE
  5
DB
330
40
100
AcDbEntity
  8
0012876
  6
Continuous
 62
     7
100
AcDbLine
 10
46.090058182
 20
92.2161536026
 30
0.0
 11
46.090058182
 21
90.5472632372
 31
0.0
  0
LINE
  5
DC
330
40
100
AcDbEntity
  8
0012876
  6
Continuous
 62
     7
100
AcDbLine
 10
46.090058182
 20
90.5472632372
 30
0.0
 11
45.5903904079
 21
90.5472632372
 31
0.0
  0
LINE
  5
DD
330
40
100
AcDbEntity
  8
0012876
  6
Continuous
 62
     7
100
AcDbLine
 10
45.5903904079
 20
90.5472632372
 30
0.0
 11
45.5903904079
 21
94.3072632372
 31
0.0
  0
SPLINE
  5
DE
330
40
100
AcDbEntity
  8
0012876
  6
Continuous
 62
     7
100
AcDbSpline
210
0.0
220
0.0
230
1.0
 70
     8
 71
     3
 72
    21
 73
    17
 74
     0
 42
0.0000000018900041
 43
0.0000000001
 12
1.0
 22
0.0
 32
0.0
 13
1.0
 23
0.0
 33
0.0
 40
0.0
 40
0.0
 40
0.0
 40
0.0
 40
0.3188524755255804
 40
0.3188524755255804
 40
0.3188524755255804
 40
0.4466871992896583
 40
0.4466871992896583
 40
0.5745219230537378
 40
0.5745219230537378
 40
0.5745219230537378
 40
0.6851965081129122
 40
0.6851965081129122
 40
0.8296133447145184
 40
0.8296133447145184
 40
0.8296133447145184
 40
1.0
 40
1.0
 40
1.0
 40
1.0
 10
45.59039040793539
 20
94.30726323716713
 30
0.0
 10
46.14668719641823
 20
94.30726323716713
 30
0.0
 10
46.70298398490107
 20
94.30726323716713
 30
0.0
 10
47.2592807733839
 20
94.30726323716713
 30
0.0
 10
47.59405818202178
 20
94.30726323716713
 30
0.0
 10
47.84888874680583
 20
94.27478483185153
 30
0.0
 10
48.1986561886663
 20
94.13987453284821
 30
0.0
 10
48.33856316541046
 20
94.01995426706746
 30
0.0
 10
48.44349339796862
 20
93.84756888500768
 30
0.0
 10
48.54731402346983
 20
93.67700642882711
 30
0.0
 10
48.60088874680584
 20
93.48780808766547
 30
0.0
 10
48.60088874680584
 20
93.01562204115385
 30
0.0
 10
48.51344688634071
 20
92.79077154281498
 30
0.0
 10
48.3410615042809
 20
92.60839280527345
 30
0.0
 10
48.1674289336294
 20
92.42469457835229
 30
0.0
 10
47.90135386308489
 20
92.30859214082163
 30
0.0
 10
47.53909472687227
 20
92.25862536341299
 30
0.0
  0
SPLINE
  5
DF
330
40
100
AcDbEntity
  8
0012876
  6
Continuous
 62
     7
100
AcDbSpline
210
0.0
220
0.0
230
1.0
 70
     8
 71
     3
 72
    14
 73
    10
 74
     0
 42
0.0000000057188637
 43
0.0000000001
 12
1.0
 22
0.0
 32
0.0
 13
1.0
 23
0.0
 33
0.0
 40
0.0
 40
0.0
 40
0.0
 40
0.0
 40
0.2031950052268694
 40
0.2031950052268694
 40
0.2031950052268694
 40
0.5753525708707613
 40
0.5753525708707613
 40
0.5753525708707613
 40
1.0
 40
1.0
 40
1.0
 40
1.0
 10
47.53909472687227
 20
92.25862536341299
 30
0.0
 10
47.67150668700516
 20
92.1961668916522
 30
0.0
 10
47.77144024182245
 20
92.13121008102095
 30
0.0
 10
47.8388953913241
 20
92.0712499481306
 30
0.0
 10
47.98683151230016
 20
91.93975117392966
 30
0.0
 10
48.1212076836829
 20
91.76895094480832
 30
0.0
 10
48.25112130494536
 20
91.57158217404422
 30
0.0
 10
48.38694606858478
 20
91.36523301389971
 30
0.0
 10
48.51892864298479
 20
91.15635481780014
 30
0.0
 10
48.65058703702127
 20
90.94726323716714
 30
0.0
  0
LINE
  5
E0
330
40
100
AcDbEntity
  8
0012876
  6
Continuous
 62
     7
100
AcDbLine
 10
58.5657666963
 20
90.5472632372
 30
0.0
 11
48.2811013714
 21
90.5472632372
 31
0.0
  0
LINE
  5
E1
330
40
100
AcDbEntity
  8
0012876
  6
Continuous
 62
     7
100
AcDbLine
 10
46.090058182
 20
93.8925389847
 30
0.0
 11
46.090058182
 21
92.6458678883
 31
0.0
  0
SPLINE
  5
E2
330
40
100
AcDbEntity
  8
0012876
  6
Continuous
 62
     7
100
AcDbSpline
210
0.0
220
0.0
230
1.0
 70
     8
 71
     3
 72
    25
 73
    21
 74
     0
 42
0.0000000021171731
 43
0.0000000001
 12
1.0
 22
0.0
 32
0.0
 13
1.0
 23
0.0
 33
0.0
 40
0.0
 40
0.0
 40
0.0
 40
0.0
 40
0.2284802880085945
 40
0.2284802880085945
 40
0.2284802880085945
 40
0.3442035663753351
 40
0.3442035663753351
 40
0.3442035663753351
 40
0.424907704947
 40
0.424907704947
 40
0.424907704947
 40
0.4990904865566665
 40
0.4990904865566665
 40
0.6065798231747555
 40
0.6065798231747555
 40
0.6065798231747555
 40
0.7458944041694316
 40
0.7458944041694316
 40
0.7458944041694316
 40
1.0
 40
1.0
 40
1.0
 40
1.0
 10
46.09005818202178
 20
92.64586788832993
 30
0.0
 10
46.44648786087006
 20
92.64586788832993
 30
0.0
 10
46.80291753971834
 20
92.64586788832993
 30
0.0
 10
47.15934721856663
 20
92.64586788832993
 30
0.0
 10
47.38669605577591
 20
92.64586788832993
 30
0.0
 10
47.56657645444701
 20
92.67085127703426
 30
0.0
 10
47.69399173683905
 20
92.71582137670202
 30
0.0
 10
47.82219111327657
 20
92.76106821544468
 30
0.0
 10
47.92134057404834
 20
92.83823998135318
 30
0.0
 10
47.98629738467957
 20
92.94317021391133
 30
0.0
 10
48.05082824901158
 20
93.04741237937073
 30
0.0
 10
48.08623093949686
 20
93.15802735676847
 30
0.0
 10
48.08623093949686
 20
93.4578280212203
 30
0.0
 10
48.02377246773605
 20
93.60523001457578
 30
0.0
 10
47.89385884647361
 20
93.71765526374521
 30
0.0
 10
47.76270899916825
 20
93.8311503239133
 30
0.0
 10
47.55908143783573
 20
93.89004064580502
 30
0.0
 10
47.27926748434735
 20
93.89253898467545
 30
0.0
 10
46.88289598206565
 20
93.89607801594582
 30
0.0
 10
46.48646128279696
 20
93.89253898467545
 30
0.0
 10
46.09005818202178
 20
93.89253898467545
 30
0.0
  0
SPLINE
  5
E3
330
40
100
AcDbEntity
  8
0012876
  6
Continuous
 62
     7
100
AcDbSpline
210
0.0
220
0.0
230
1.0
 70
     8
 71
     3
 72
    22
 73
    18
 74
     0
 42
0.000000003307602
 43
0.0000000001
 12
1.0
 22
0.0
 32
0.0
 13
1.0
 23
0.0
 33
0.0
 40
0.0
 40
0.0
 40
0.0
 40
0.0
 40
0.3068698414100483
 40
0.3068698414100483
 40
0.3068698414100483
 40
0.5162606884525387
 40
0.5162606884525387
 40
0.5162606884525387
 40
0.6164695960135068
 40
0.6164695960135068
 40
0.7166785035744724
 40
0.7166785035744724
 40
0.7166785035744724
 40
0.8088759039826804
 40
0.8088759039826804
 40
0.8088759039826804
 40
1.0
 40
1.0
 40
1.0
 40
1.0
 10
48.28110137139053
 20
90.54726323716713
 30
0.0
 10
48.11537822631856
 20
90.80792325931554
 30
0.0
 10
47.94965508124658
 20
91.06858328146393
 30
0.0
 10
47.7839319361746
 20
91.32924330361232
 30
0.0
 10
47.63969606113713
 20
91.55610676535467
 30
0.0
 10
47.51910801590881
 20
91.72897752288142
 30
0.0
 10
47.42417113883241
 20
91.84889778866216
 30
0.0
 10
47.33045010223082
 20
91.96728225594838
 30
0.0
 10
47.24678907903174
 20
92.05126323716713
 30
0.0
 10
47.09688874680582
 20
92.14620011424356
 30
0.0
 10
47.02193858069287
 20
92.17867851955917
 30
0.0
 10
46.94449007570949
 20
92.1961668916522
 30
0.0
 10
46.88713217300889
 20
92.20911867613296
 30
0.0
 10
46.79458974348355
 20
92.21365526374521
 30
0.0
 10
46.66717446109153
 20
92.21615360261565
 30
0.0
 10
46.47487630046376
 20
92.21992415478482
 30
0.0
 10
46.28243027504503
 20
92.21615360261565
 30
0.0
 10
46.09005818202178
 20
92.21615360261565
 30
0.0
  0
LINE
  5
E4
330
40
100
AcDbEntity
  8
0012876
  6
Continuous
 62
     7
100
AcDbLine
 10
44.895852202
 20
90.9919675561
 30
0.0
 11
44.895852202
 21
90.5472632372
 31
0.0
  0
LINE
  5
E5
330
40
100
AcDbEntity
  8
0012876
  6
Continuous
 62
     7
100
AcDbLine
 10
44.895852202
 20
90.5472632372
 30
0.0
 11
42.1077060226
 21
90.5472632372
 31
0.0
  0
LINE
  5
E6
330
40
100
AcDbEntity
  8
0012876
  6
Continuous
 62
     7
100
AcDbLine
 10
42.1077060226
 20
90.5472632372
 30
0.0
 11
42.1077060226
 21
94.3072632372
 31
0.0
  0
LINE
  5
E7
330
40
100
AcDbEntity
  8
0012876
  6
Continuous
 62
     7
100
AcDbLine
 10
42.1077060226
 20
94.3072632372
 30
0.0
 11
44.8084103415
 21
94.3072632372
 31
0.0
  0
LINE
  5
E8
330
40
100
AcDbEntity
  8
0012876
  6
Continuous
 62
     7
100
AcDbLine
 10
44.8084103415
 20
94.3072632372
 30
0.0
 11
44.8084103415
 21
93.8625589182
 31
0.0
  0
LINE
  5
E9
330
40
100
AcDbEntity
  8
0012876
  6
Continuous
 62
     7
100
AcDbLine
 10
44.8084103415
 20
93.8625589182
 30
0.0
 11
42.6048754578
 21
93.8625589182
 31
0.0
  0
LINE
  5
EA
330
40
100
AcDbEntity
  8
0012876
  6
Continuous
 62
     7
100
AcDbLine
 10
42.6048754578
 20
93.8625589182
 30
0.0
 11
42.6048754578
 21
92.7208180544
 31
0.0
  0
LINE
  5
EB
330
40
100
AcDbEntity
  8
0012876
  6
Continuous
 62
     7
100
AcDbLine
 10
42.6048754578
 20
92.7208180544
 30
0.0
 11
44.6685033647
 21
92.7208180544
 31
0.0
  0
LINE
  5
EC
330
40
100
AcDbEntity
  8
0012876
  6
Continuous
 62
     7
100
AcDbLine
 10
44.6685033647
 20
92.7208180544
 30
0.0
 11
44.6685033647
 21
92.2736153966
 31
0.0
  0
LINE
  5
ED
330
40
100
AcDbEntity
  8
0012876
  6
Continuous
 62
     7
100
AcDbLine
 10
44.6685033647
 20
92.2736153966
 30
0.0
 11
42.6048754578
 21
92.2736153966
 31
0.0
  0
LINE
  5
EE
330
40
100
AcDbEntity
  8
0012876
  6
Continuous
 62
     7
100
AcDbLine
 10
42.6048754578
 20
92.2736153966
 30
0.0
 11
42.6048754578
 21
90.9919675561
 31
0.0
  0
LINE
  5
EF
330
40
100
AcDbEntity
  8
0012876
  6
Continuous
 62
     7
100
AcDbLine
 10
42.6048754578
 20
90.9919675561
 30
0.0
 11
44.895852202
 21
90.9919675561
 31
0.0
  0
LINE
  5
F0
330
40
100
AcDbEntity
  8
0012876
  6
Continuous
 62
     7
100
AcDbLine
 10
67.8789991939
 20
92.0666933679
 30
0.0
 11
67.830968405
 21
91.8398813089
 31
0.0
  0
LINE
  5
F1
330
40
100
AcDbEntity
  8
0012876
  6
Continuous
 62
     7
100
AcDbLine
 10
67.830968405
 20
91.8398813089
 30
0.0
 11
66.6355354351
 21
91.8398813089
 31
0.0
  0
SPLINE
  5
F2
330
40
100
AcDbEntity
  8
0012876
  6
Continuous
 62
     7
100
AcDbSpline
210
0.0
220
0.0
230
1.0
 70
     8
 71
     3
 72
    32
 73
    28
 74
     0
 42
0.0000000031967805
 43
0.0000000001
 12
1.0
 22
0.0
 32
0.0
 13
1.0
 23
0.0
 33
0.0
 40
0.0
 40
0.0
 40
0.0
 40
0.0
 40
0.1030682624071792
 40
0.1030682624071792
 40
0.1030682624071792
 40
0.1976079121245813
 40
0.1976079121245813
 40
0.1976079121245813
 40
0.3804505499704449
 40
0.3804505499704449
 40
0.3804505499704449
 40
0.4935409379318434
 40
0.4935409379318434
 40
0.4935409379318434
 40
0.576994827181529
 40
0.576994827181529
 40
0.576994827181529
 40
0.6273118702768234
 40
0.6273118702768234
 40
0.7119917720713435
 40
0.7119917720713435
 40
0.7119917720713435
 40
0.8098058872169288
 40
0.8098058872169288
 40
0.9049029436084647
 40
0.9049029436084647
 40
1.0
 40
1.0
 40
1.0
 40
1.0
 10
66.6355354351047
 20
91.83988130888886
 30
0.0
 10
66.66088501817075
 20
91.95862409272465
 30
0.0
 10
66.69690810989623
 20
92.0586882364065
 30
0.0
 10
66.74093633311622
 20
92.1400737399344
 30
0.0
 10
66.78470825898694
 20
92.2209854816954
 30
0.0
 10
66.84633723112778
 20
92.29617380407808
 30
0.0
 10
66.92105179174357
 20
92.36955417611144
 30
0.0
 10
66.99509936634509
 20
92.44227947259506
 30
0.0
 10
67.1398587192612
 20
92.56434570914543
 30
0.0
 10
67.35332889244913
 20
92.73512184769578
 30
0.0
 10
67.48316822034852
 20
92.83899331001527
 30
0.0
 10
67.57213581996679
 20
92.91390311774069
 30
0.0
 10
67.61883242035165
 20
92.96326809529039
 30
0.0
 10
67.68689712584708
 20
93.03522221252842
 30
0.0
 10
67.73757520418744
 20
93.10469208502741
 30
0.0
 10
67.76826154158319
 20
93.17273570273106
 30
0.0
 10
67.78936942797716
 20
93.21954014647419
 30
0.0
 10
67.8002820675614
 20
93.27013146924806
 30
0.0
 10
67.8002820675614
 20
93.41689221331477
 30
0.0
 10
67.76826154158319
 20
93.49560933967783
 30
0.0
 10
67.70288630104439
 20
93.55965039163421
 30
0.0
 10
67.6368441079985
 20
93.62434478482203
 30
0.0
 10
67.5574597455601
 20
93.65704615815119
 30
0.0
 10
67.3680049668558
 20
93.65704615815119
 30
0.0
 10
67.28661946332792
 20
93.62369144359059
 30
0.0
 10
67.14519547359089
 20
93.49294096251298
 30
0.0
 10
67.09583049604119
 20
93.38887425308384
 30
0.0
 10
67.06514415864541
 20
93.24478188618198
 30
0.0
  0
LINE
  5
F3
330
40
100
AcDbEntity
  8
0012876
  6
Continuous
 62
     7
100
AcDbLine
 10
67.0651441586
 20
93.2447818862
 30
0.0
 11
66.8223218366
 21
93.2794707893
 31
0.0
  0
SPLINE
  5
F4
330
40
100
AcDbEntity
  8
0012876
  6
Continuous
 62
     7
100
AcDbSpline
210
0.0
220
0.0
230
1.0
 70
     8
 71
     3
 72
    30
 73
    26
 74
     0
 42
0.0000000028017672
 43
0.0000000001
 12
1.0
 22
0.0
 32
0.0
 13
1.0
 23
0.0
 33
0.0
 40
0.0
 40
0.0
 40
0.0
 40
0.0
 40
0.1362012888412394
 40
0.1362012888412394
 40
0.1362012888412394
 40
0.2691413711702484
 40
0.2691413711702484
 40
0.3591637891253273
 40
0.3591637891253273
 40
0.3591637891253273
 40
0.4423098682128943
 40
0.4423098682128943
 40
0.4423098682128943
 40
0.5228353718358038
 40
0.5228353718358038
 40
0.639539000274804
 40
0.639539000274804
 40
0.639539000274804
 40
0.8343168962850107
 40
0.8343168962850107
 40
0.8343168962850107
 40
0.937287247782824
 40
0.937287247782824
 40
0.937287247782824
 40
1.0
 40
1.0
 40
1.0
 40
1.0
 10
66.82232183664414
 20
93.27947078932503
 30
0.0
 10
66.84633723112778
 20
93.45825205936993
 30
0.0
 10
66.91571503741386
 20
93.59834186052451
 30
0.0
 10
67.03045525550237
 20
93.70107438137121
 30
0.0
 10
67.14585851274983
 20
93.80440055355788
 30
0.0
 10
67.28795365191033
 20
93.85584025693247
 30
0.0
 10
67.57213581996679
 20
93.85584025693247
 30
0.0
 10
67.67486834081349
 20
93.83182486244883
 30
0.0
 10
67.76826154158319
 20
93.78512826206396
 30
0.0
 10
67.86112106691996
 20
93.7386984993956
 30
0.0
 10
67.92969836005658
 20
93.67038804397544
 30
0.0
 10
67.97639496044144
 20
93.58499997470027
 30
0.0
 10
68.02365321886514
 20
93.49858487358264
 30
0.0
 10
68.04577276672752
 20
93.41022127040264
 30
0.0
 10
68.04577276672752
 20
93.18474339997287
 30
0.0
 10
67.99907616634265
 20
93.05666129606011
 30
0.0
 10
67.90434877699052
 20
92.93391594647706
 30
0.0
 10
67.8450082576333
 20
92.85702400590151
 30
0.0
 10
67.67353415223104
 20
92.70576969888245
 30
0.0
 10
67.38935198417462
 20
92.48029182845268
 30
0.0
 10
67.26660358470826
 20
92.3828999058714
 30
0.0
 10
67.17588181098665
 20
92.3028447469902
 30
0.0
 10
67.11584332477754
 20
92.24147207219868
 30
0.0
 10
67.0557903400207
 20
92.18008457666944
 30
0.0
 10
67.01177661534842
 20
92.12006091119802
 30
0.0
 10
66.98109027795267
 20
92.06669336790104
 30
0.0
  0
LINE
  5
F5
330
40
100
AcDbEntity
  8
0012876
  6
Continuous
 62
     7
100
AcDbLine
 10
66.981090278
 20
92.0666933679
 30
0.0
 11
67.8789991939
 21
92.0666933679
 31
0.0
  0
SPLINE
  5
F6
330
40
100
AcDbEntity
  8
0012876
  6
Continuous
 62
     7
100
AcDbSpline
210
0.0
220
0.0
230
1.0
 70
     8
 71
     3
 72
    20
 73
    16
 74
     0
 42
0.0000000041689607
 43
0.0000000001
 12
1.0
 22
0.0
 32
0.0
 13
1.0
 23
0.0
 33
0.0
 40
0.0
 40
0.0
 40
0.0
 40
0.0
 40
0.1946041976458209
 40
0.1946041976458209
 40
0.1946041976458209
 40
0.3754005907487227
 40
0.3754005907487227
 40
0.5654685937543315
 40
0.5654685937543315
 40
0.5654685937543315
 40
0.7428615648433874
 40
0.7428615648433874
 40
0.8714307824216941
 40
0.8714307824216941
 40
1.0
 40
1.0
 40
1.0
 40
1.0
 10
65.28667077827338
 20
93.33684089836929
 30
0.0
 10
65.32669643574613
 20
93.50228028258995
 30
0.0
 10
65.40407937352677
 20
93.63036238650271
 30
0.0
 10
65.51881959161527
 20
93.72108721010758
 30
0.0
 10
65.63208976032061
 20
93.81064966908392
 30
0.0
 10
65.76697866794625
 20
93.85584025693247
 30
0.0
 10
66.08718392772816
 20
93.85584025693247
 30
0.0
 10
66.22060278597064
 20
93.80647527938275
 30
0.0
 10
66.32200111823488
 20
93.70641113570092
 30
0.0
 10
66.42340834430956
 20
93.6063382152325
 30
0.0
 10
66.47543280521373
 20
93.48493583101843
 30
0.0
 10
66.47543280521373
 20
93.23410837752259
 30
0.0
 10
66.44874903356524
 20
93.14071517675288
 30
0.0
 10
66.33934556980641
 20
92.98328092402676
 30
0.0
 10
66.25796006627853
 20
92.91790568348796
 30
0.0
 10
66.14722241393727
 20
92.8658723287734
 30
0.0
  0
SPLINE
  5
F7
330
40
100
AcDbEntity
  8
0012876
  6
Continuous
 62
     7
100
AcDbSpline
210
0.0
220
0.0
230
1.0
 70
     8
 71
     3
 72
    20
 73
    16
 74
     0
 42
0.0000000039383138
 43
0.0000000001
 12
1.0
 22
0.0
 32
0.0
 13
1.0
 23
0.0
 33
0.0
 40
0.0
 40
0.0
 40
0.0
 40
0.0
 40
0.0990736953983617
 40
0.0990736953983617
 40
0.0990736953983617
 40
0.1977482847847834
 40
0.1977482847847834
 40
0.4058899967717652
 40
0.4058899967717652
 40
0.4058899967717652
 40
0.6077442388324364
 40
0.6077442388324364
 40
0.8038721194162153
 40
0.8038721194162153
 40
1.0
 40
1.0
 40
1.0
 40
1.0
 10
66.14722241393727
 20
92.8658723287734
 30
0.0
 10
66.22593954030033
 20
92.81917572838853
 30
0.0
 10
66.28464383792702
 20
92.76313980792669
 30
0.0
 10
66.32333530681733
 20
92.69776456738789
 30
0.0
 10
66.36261156348544
 20
92.63140123715556
 30
0.0
 10
66.38070541586158
 20
92.55634057765089
 30
0.0
 10
66.38070541586158
 20
92.29083704974838
 30
0.0
 10
66.31399598674034
 20
92.13473698560469
 30
0.0
 10
66.17790875133305
 20
92.00265231594466
 30
0.0
 10
66.04250851904433
 20
91.87123444342915
 30
0.0
 10
65.88171888603478
 20
91.80385821716338
 30
0.0
 10
65.51081446012071
 20
91.80385821716338
 30
0.0
 10
65.36405371605403
 20
91.85455738329553
 30
0.0
 10
65.13991003420666
 20
92.05735404782408
 30
0.0
 10
65.0772031708327
 20
92.19344128323138
 30
0.0
 10
65.06386128500846
 20
92.36288323319931
 30
0.0
  0
LINE
  5
F8
330
40
100
AcDbEntity
  8
0012876
  6
Continuous
 62
     7
100
AcDbLine
 10
65.063861285
 20
92.3628832332
 30
0.0
 11
65.306683607
 21
92.3949037592
 31
0.0
  0
SPLINE
  5
F9
330
40
100
AcDbEntity
  8
0012876
  6
Continuous
 62
     7
100
AcDbSpline
210
0.0
220
0.0
230
1.0
 70
     8
 71
     3
 72
    21
 73
    17
 74
     0
 42
0.0000000050298657
 43
0.0000000001
 12
1.0
 22
0.0
 32
0.0
 13
1.0
 23
0.0
 33
0.0
 40
0.0
 40
0.0
 40
0.0
 40
0.0
 40
0.1480227243504351
 40
0.1480227243504351
 40
0.2960454487008695
 40
0.2960454487008695
 40
0.4752308518619202
 40
0.4752308518619202
 40
0.6544162550229624
 40
0.6544162550229624
 40
0.8085990437894424
 40
0.8085990437894424
 40
0.8085990437894424
 40
0.9814773268183319
 40
0.9814773268183319
 40
1.0
 40
1.0
 40
1.0
 40
1.0
 10
65.30668360700975
 20
92.3949037591775
 30
0.0
 10
65.3253622471637
 20
92.25347976944049
 30
0.0
 10
65.36538790463644
 20
92.15208143717622
 30
0.0
 10
65.49080163138436
 20
92.02933608759315
 30
0.0
 10
65.57352132349467
 20
91.9999839387798
 30
0.0
 10
65.79766500534203
 20
91.9999839387798
 30
0.0
 10
65.90306590335356
 20
92.04401216199983
 30
0.0
 10
66.08184717339846
 20
92.22012505487987
 30
0.0
 10
66.1272095852009
 20
92.32018919856172
 30
0.0
 10
66.1272095852009
 20
92.53365937174966
 30
0.0
 10
66.09385487064029
 20
92.61504487527756
 30
0.0
 10
66.02714544151905
 20
92.68042011581637
 30
0.0
 10
65.96110297057513
 20
92.74514173734143
 30
0.0
 10
65.87104537737537
 20
92.77781588233337
 30
0.0
 10
65.74696583920989
 20
92.77781588233337
 30
0.0
 10
65.72028206756139
 20
92.77648169375094
 30
0.0
 10
65.68025641008865
 20
92.7738133165861
 30
0.0
  0
LINE
  5
FA
330
40
100
AcDbEntity
  8
0012876
  6
Continuous
 62
     7
100
AcDbLine
 10
65.6802564101
 20
92.7738133166
 30
0.0
 11
65.7216162561
 21
92.9779441697
 31
0.0
  0
SPLINE
  5
FB
330
40
100
AcDbEntity
  8
0012876
  6
Continuous
 62
     7
100
AcDbSpline
210
0.0
220
0.0
230
1.0
 70
     8
 71
     3
 72
    22
 73
    18
 74
     0
 42
0.000000005450726
 43
0.0000000001
 12
1.0
 22
0.0
 32
0.0
 13
1.0
 23
0.0
 33
0.0
 40
0.0
 40
0.0
 40
0.0
 40
0.0
 40
0.0322553587621178
 40
0.0322553587621178
 40
0.2333770075141802
 40
0.2333770075141802
 40
0.2333770075141802
 40
0.3939688112280809
 40
0.3939688112280809
 40
0.5397692645999113
 40
0.5397692645999113
 40
0.6855697179717498
 40
0.6855697179717498
 40
0.8270819227150029
 40
0.8270819227150029
 40
0.8270819227150029
 40
1.0
 40
1.0
 40
1.0
 40
1.0
 10
65.72161625614382
 20
92.97794416969707
 30
0.0
 10
65.74563165062746
 20
92.97394160394978
 30
0.0
 10
65.76831285652868
 20
92.97260741536736
 30
0.0
 10
65.93241805216691
 20
92.97260741536736
 30
0.0
 10
66.0404873273433
 20
93.0072963185104
 30
0.0
 10
66.11520188795909
 20
93.0766741247965
 30
0.0
 10
66.18996762293145
 20
93.14609945012798
 30
0.0
 10
66.22860791746518
 20
93.22877162319288
 30
0.0
 10
66.22860791746518
 20
93.42222896764446
 30
0.0
 10
66.1979215800694
 20
93.4996119054251
 30
0.0
 10
66.0725078533215
 20
93.625025632173
 30
0.0
 10
65.99512491554087
 20
93.65704615815119
 30
0.0
 10
65.81634364549598
 20
93.65704615815119
 30
0.0
 10
65.7362923305505
 20
93.625025632173
 30
0.0
 10
65.66558033568198
 20
93.55965039163421
 30
0.0
 10
65.59553338644658
 20
93.49489000460525
 30
0.0
 10
65.54950592901105
 20
93.40488451607294
 30
0.0
 10
65.52949310027468
 20
93.28747592081959
 30
0.0
  0
LINE
  5
FC
330
40
100
AcDbEntity
  8
0012876
  6
Continuous
 62
     7
100
AcDbLine
 10
65.5294931003
 20
93.2874759208
 30
0.0
 11
65.2866707783
 21
93.3368408984
 31
0.0
  0
LINE
  5
FD
330
40
100
AcDbEntity
  8
0012876
  6
Continuous
 62
     7
100
AcDbLine
 10
64.9237714839
 20
93.2768024122
 30
0.0
 11
64.6609363331
 21
93.2567895834
 31
0.0
  0
SPLINE
  5
FE
330
40
100
AcDbEntity
  8
0012876
  6
Continuous
 62
     7
100
AcDbSpline
210
0.0
220
0.0
230
1.0
 70
     8
 71
     3
 72
    51
 73
    47
 74
     0
 42
0.0000000019370622
 43
0.0000000001
 12
1.0
 22
0.0
 32
0.0
 13
1.0
 23
0.0
 33
0.0
 40
0.0
 40
0.0
 40
0.0
 40
0.0
 40
0.0215676385382432
 40
0.0215676385382432
 40
0.0593110059801697
 40
0.0593110059801697
 40
0.0593110059801697
 40
0.0954792894329483
 40
0.0954792894329483
 40
0.0954792894329483
 40
0.1368449708122615
 40
0.1368449708122615
 40
0.210760696555631
 40
0.210760696555631
 40
0.210760696555631
 40
0.2564187340021234
 40
0.2564187340021234
 40
0.2832337718675259
 40
0.2832337718675259
 40
0.2832337718675259
 40
0.3187202206675852
 40
0.3187202206675852
 40
0.3187202206675852
 40
0.3919232479418014
 40
0.3919232479418014
 40
0.3919232479418014
 40
0.4575200365630873
 40
0.4575200365630873
 40
0.4575200365630873
 40
0.5058400090487184
 40
0.5058400090487184
 40
0.5058400090487184
 40
0.5557804750875059
 40
0.5557804750875059
 40
0.6170710470442002
 40
0.6170710470442002
 40
0.6170710470442002
 40
0.6863265147445908
 40
0.6863265147445908
 40
0.6863265147445908
 40
0.7644282827156565
 40
0.7644282827156565
 40
0.881926517716375
 40
0.881926517716375
 40
0.881926517716375
 40
1.0
 40
1.0
 40
1.0
 40
1.0
 10
64.66093633311624
 20
93.25678958342381
 30
0.0
 10
64.66093633311624
 20
93.31282550388565
 30
0.0
 10
64.65693376736895
 20
93.35818791568808
 30
0.0
 10
64.62758161855561
 20
93.4462443621281
 30
0.0
 10
64.60089784690712
 20
93.49294096251298
 30
0.0
 10
64.56220637801681
 20
93.53296661998571
 30
0.0
 10
64.5248483313743
 20
93.57161287513313
 30
0.0
 10
64.47148155441192
 20
93.60234442627178
 30
0.0
 10
64.40477212529069
 20
93.625025632173
 30
0.0
 10
64.33765607720387
 20
93.64784508852253
 30
0.0
 10
64.26334813555368
 20
93.66104872389847
 30
0.0
 10
64.03653607654151
 20
93.66104872389847
 30
0.0
 10
63.92313004703543
 20
93.62769400933786
 30
0.0
 10
63.84307873208994
 20
93.56231876879906
 30
0.0
 10
63.78142281179699
 20
93.51196643389315
 30
0.0
 10
63.75101971990264
 20
93.44491017354568
 30
0.0
 10
63.75101971990264
 20
93.31149131530323
 30
0.0
 10
63.76302741714446
 20
93.2674630920832
 30
0.0
 10
63.78837700021053
 20
93.22877162319288
 30
0.0
 10
63.81433817887469
 20
93.18914666628443
 30
0.0
 10
63.86042318366145
 20
93.15138868541227
 30
0.0
 10
63.92579842420027
 20
93.11403140510438
 30
0.0
 10
63.97350079751649
 20
93.08677290606653
 30
0.0
 10
64.08590105409122
 20
93.03531427874131
 30
0.0
 10
64.26334813555368
 20
92.95659715237827
 30
0.0
 10
64.40637031557232
 20
92.89315122289632
 30
0.0
 10
64.50617045755497
 20
92.84185693428975
 30
0.0
 10
64.56087218943438
 20
92.80583384256428
 30
0.0
 10
64.63380026600224
 20
92.75780803604398
 30
0.0
 10
64.68895429334715
 20
92.69776456738789
 30
0.0
 10
64.72764576223746
 20
92.62838676110181
 30
0.0
 10
64.76576968348822
 20
92.56002662644532
 30
0.0
 10
64.78635005986415
 20
92.48162601703511
 30
0.0
 10
64.78635005986415
 20
92.28550029541869
 30
0.0
 10
64.75299534530355
 20
92.1841019631544
 30
0.0
 10
64.68762010476473
 20
92.09337713954953
 30
0.0
 10
64.62052323867437
 20
92.00026312130167
 30
0.0
 10
64.52885166345621
 20
91.9292719439113
 30
0.0
 10
64.41277725678523
 20
91.87990696636159
 30
0.0
 10
64.29509250927438
 20
91.82985713121329
 30
0.0
 10
64.16194980328942
 20
91.80385821716338
 30
0.0
 10
63.78437443446325
 20
91.80385821716338
 30
0.0
 10
63.59892222150622
 20
91.85322319471311
 30
0.0
 10
63.45616404318678
 20
91.95328733839494
 30
0.0
 10
63.31313830824875
 20
92.05353902176273
 30
0.0
 10
63.240025492834
 20
92.23079856353927
 30
0.0
 10
63.23869130425158
 20
92.48829695994723
 30
0.0
  0
LINE
  5
FF
330
40
100
AcDbEntity
  8
0012876
  6
Continuous
 62
     7
100
AcDbLine
 10
63.2386913043
 20
92.4882969599
 30
0.0
 11
63.5001922664
 21
92.5123123544
 31
0.0
  0
SPLINE
  5
100
330
40
100
AcDbEntity
  8
0012876
  6
Continuous
 62
     7
100
AcDbSpline
210
0.0
220
0.0
230
1.0
 70
     8
 71
     3
 72
    51
 73
    47
 74
     0
 42
0.0000000019432577
 43
0.0000000001
 12
1.0
 22
0.0
 32
0.0
 13
1.0
 23
0.0
 33
0.0
 40
0.0
 40
0.0
 40
0.0
 40
0.0
 40
0.0139202833043142
 40
0.0139202833043142
 40
0.0139202833043142
 40
0.0590107205957899
 40
0.0590107205957899
 40
0.1041011578872674
 40
0.1041011578872674
 40
0.1041011578872674
 40
0.1517747527218389
 40
0.1517747527218389
 40
0.2190786513118212
 40
0.2190786513118212
 40
0.2863825499018007
 40
0.2863825499018007
 40
0.3329014209860521
 40
0.3329014209860521
 40
0.3329014209860521
 40
0.4178513912987811
 40
0.4178513912987811
 40
0.4178513912987811
 40
0.4885725091405268
 40
0.4885725091405268
 40
0.4885725091405268
 40
0.5436044003554695
 40
0.5436044003554695
 40
0.5436044003554695
 40
0.5941884394790057
 40
0.5941884394790057
 40
0.6514674249571281
 40
0.6514674249571281
 40
0.6514674249571281
 40
0.7203879745771028
 40
0.7203879745771028
 40
0.7893085241970805
 40
0.7893085241970805
 40
0.8717429070758794
 40
0.8717429070758794
 40
0.8717429070758794
 40
0.9374423525786653
 40
0.9374423525786653
 40
0.9374423525786653
 40
0.9945602045720584
 40
0.9945602045720584
 40
1.0
 40
1.0
 40
1.0
 40
1.0
 10
63.50019226640681
 20
92.51231235443088
 30
0.0
 10
63.49930280735185
 20
92.4887416894747
 30
0.0
 10
63.49841334829691
 20
92.46517102451853
 30
0.0
 10
63.49752388924196
 20
92.44160035956236
 30
0.0
 10
63.49460793069067
 20
92.36432745795348
 30
0.0
 10
63.51486834081348
 20
92.29217123833081
 30
0.0
 10
63.5869145242644
 20
92.16408913441803
 30
0.0
 10
63.6456188218911
 20
92.11472415686833
 30
0.0
 10
63.72833851400141
 20
92.08003525372528
 30
0.0
 10
63.81153402734956
 20
92.04514681264381
 30
0.0
 10
63.90845397262873
 20
92.0266677104283
 30
0.0
 10
64.1819626320258
 20
92.0266677104283
 30
0.0
 10
64.30604217019129
 20
92.06135661357135
 30
0.0
 10
64.47414993157678
 20
92.20278060330834
 30
0.0
 10
64.51684396621438
 20
92.28416610683625
 30
0.0
 10
64.51684396621438
 20
92.43759779381509
 30
0.0
 10
64.49416276031317
 20
92.49496790285934
 30
0.0
 10
64.45013453709313
 20
92.54700125757391
 30
0.0
 10
64.40554963518875
 20
92.59969250527912
 30
0.0
 10
64.2793583985428
 20
92.66841241857456
 30
0.0
 10
64.07522754543183
 20
92.75646886501457
 30
0.0
 10
63.91774572034134
 20
92.82440220132811
 30
0.0
 10
63.81105820611175
 20
92.8765458374328
 30
0.0
 10
63.75235390848505
 20
92.91390311774069
 30
0.0
 10
63.66213921580876
 20
92.9713124676256
 30
0.0
 10
63.59625384434137
 20
93.03798265590616
 30
0.0
 10
63.55355980970378
 20
93.10736046219226
 30
0.0
 10
63.51027025741568
 20
93.17770598466043
 30
0.0
 10
63.48818456916498
 20
93.25678958342381
 30
0.0
 10
63.48818456916498
 20
93.45024692787538
 30
0.0
 10
63.51753671797833
 20
93.54364012864511
 30
0.0
 10
63.57357263844015
 20
93.62635982075543
 30
0.0
 10
63.63022807157471
 20
93.7099940315731
 30
0.0
 10
63.71232825101231
 20
93.77312056482215
 30
0.0
 10
63.93113517852997
 20
93.86117701126217
 30
0.0
 10
64.05388052811301
 20
93.88385821716338
 30
0.0
 10
64.35273877057614
 20
93.88385821716338
 30
0.0
 10
64.49149438314832
 20
93.85584025693247
 30
0.0
 10
64.60356622407197
 20
93.80113852505306
 30
0.0
 10
64.71616398298556
 20
93.74618009510715
 30
0.0
 10
64.79702356852354
 20
93.67172223255787
 30
0.0
 10
64.84772273465568
 20
93.580997408953
 30
0.0
 10
64.89899005228699
 20
93.48925589319171
 30
0.0
 10
64.92377148385388
 20
93.40221613890809
 30
0.0
 10
64.92377148385388
 20
93.3101571267208
 30
0.0
 10
64.92377148385388
 20
93.29681524089655
 30
0.0
 10
64.92377148385388
 20
93.27680241216018
 30
0.0
  0
LINE
  5
101
330
40
100
AcDbEntity
  8
0012876
  6
Continuous
 62
     7
100
AcDbLine
 10
61.1440152298
 20
91.8398813089
 30
0.0
 11
61.5616162561
 21
93.8478351254
 31
0.0
  0
LINE
  5
102
330
40
100
AcDbEntity
  8
0012876
  6
Continuous
 62
     7
100
AcDbLine
 10
61.7817573722
 20
93.622357255
 30
0.0
 11
61.4575495467
 21
92.0666933679
 31
0.0
  0
SPLINE
  5
103
330
40
100
AcDbEntity
  8
0012876
  6
Continuous
 62
     7
100
AcDbSpline
210
0.0
220
0.0
230
1.0
 70
     8
 71
     3
 72
    33
 73
    29
 74
     0
 42
0.0000000030773436
 43
0.0000000001
 12
1.0
 22
0.0
 32
0.0
 13
1.0
 23
0.0
 33
0.0
 40
0.0
 40
0.0
 40
0.0
 40
0.0
 40
0.098687067175298
 40
0.098687067175298
 40
0.098687067175298
 40
0.2184768563336364
 40
0.2184768563336364
 40
0.2184768563336364
 40
0.2784202651886635
 40
0.2784202651886635
 40
0.2784202651886635
 40
0.3535686568610644
 40
0.3535686568610644
 40
0.3535686568610644
 40
0.4670246171377619
 40
0.4670246171377619
 40
0.5804805774144616
 40
0.5804805774144616
 40
0.7063135515395287
 40
0.7063135515395287
 40
0.7063135515395287
 40
0.7943517716916371
 40
0.7943517716916371
 40
0.7943517716916371
 40
0.889750588615474
 40
0.889750588615474
 40
0.889750588615474
 40
1.0
 40
1.0
 40
1.0
 40
1.0
 10
61.45754954671469
 20
92.06669336790104
 30
0.0
 10
61.5638399037812
 20
92.06669336790104
 30
0.0
 10
61.67013026084768
 20
92.06669336790104
 30
0.0
 10
61.77642061791419
 20
92.06669336790104
 30
0.0
 10
61.92051298481604
 20
92.06669336790104
 30
0.0
 10
62.04859508872882
 20
92.07870106514287
 30
0.0
 10
62.16066692965247
 20
92.10538483679136
 30
0.0
 10
62.22993021331347
 20
92.12187609480587
 30
0.0
 10
62.29008322214766
 20
92.1454104942641
 30
0.0
 10
62.33944819969739
 20
92.17743102024228
 30
0.0
 10
62.40434601337069
 20
92.21952689938173
 30
0.0
 10
62.46352773786288
 20
92.27349259817686
 30
0.0
 10
62.51689528115983
 20
92.34153621588051
 30
0.0
 10
62.58672660358393
 20
92.43057115197122
 30
0.0
 10
62.64230900790776
 20
92.53365937174966
 30
0.0
 10
62.7250287000181
 20
92.76313980792669
 30
0.0
 10
62.74637571733689
 20
92.89389028900432
 30
0.0
 10
62.74637571733689
 20
93.20342204012682
 30
0.0
 10
62.71835775710596
 20
93.32883576687475
 30
0.0
 10
62.66098764806172
 20
93.41555802473233
 30
0.0
 10
62.60300360140009
 20
93.50320832782549
 30
0.0
 10
62.53157135556653
 20
93.56098458021663
 30
0.0
 10
62.44351490912648
 20
93.59033672902997
 30
0.0
 10
62.37827308744594
 20
93.6120840029235
 30
0.0
 10
62.27674133632341
 20
93.62102306642574
 30
0.0
 10
62.13798572375126
 20
93.62235725500815
 30
0.0
 10
62.0192539173384
 20
93.6234989069929
 30
0.0
 10
61.90050015607967
 20
93.62235725500815
 30
0.0
 10
61.7817573722439
 20
93.62235725500815
 30
0.0
  0
SPLINE
  5
104
330
40
100
AcDbEntity
  8
0012876
  6
Continuous
 62
     7
100
AcDbSpline
210
0.0
220
0.0
230
1.0
 70
     8
 71
     3
 72
    37
 73
    33
 74
     0
 42
0.0000000021872698
 43
0.0000000001
 12
1.0
 22
0.0
 32
0.0
 13
1.0
 23
0.0
 33
0.0
 40
0.0
 40
0.0
 40
0.0
 40
0.0
 40
0.1332789625874572
 40
0.1332789625874572
 40
0.1332789625874572
 40
0.2072857096995324
 40
0.2072857096995324
 40
0.2072857096995324
 40
0.2783067277519798
 40
0.2783067277519798
 40
0.2783067277519798
 40
0.3501293705634418
 40
0.3501293705634418
 40
0.3501293705634418
 40
0.4322565886572693
 40
0.4322565886572693
 40
0.5306466222152209
 40
0.5306466222152209
 40
0.5306466222152209
 40
0.6188274428544841
 40
0.6188274428544841
 40
0.6188274428544841
 40
0.694544642586548
 40
0.694544642586548
 40
0.694544642586548
 40
0.7678266934497298
 40
0.7678266934497298
 40
0.7678266934497298
 40
0.8409412432657464
 40
0.8409412432657464
 40
0.8409412432657464
 40
1.0
 40
1.0
 40
1.0
 40
1.0
 10
61.56161625614381
 20
93.84783512543792
 30
0.0
 10
61.76396819114488
 20
93.84783512543792
 30
0.0
 10
61.96632012614594
 20
93.84783512543792
 30
0.0
 10
62.16867206114701
 20
93.84783512543792
 30
0.0
 10
62.3140986166313
 20
93.84783512543792
 30
0.0
 10
62.42617045755498
 20
93.83716161677852
 30
0.0
 10
62.50355339533562
 20
93.81714878804215
 30
0.0
 10
62.61321336233262
 20
93.78878845174982
 30
0.0
 10
62.70768424844657
 20
93.7384316616791
 30
0.0
 10
62.7850671862272
 20
93.66505128964575
 30
0.0
 10
62.86178396943311
 20
93.59230261591601
 30
0.0
 10
62.92115442163453
 20
93.50228028258995
 30
0.0
 10
62.96118007910724
 20
93.39287681883113
 30
0.0
 10
63.00061774161186
 20
93.2850805413185
 30
0.0
 10
63.01988437673393
 20
93.16206219407167
 30
0.0
 10
63.01988437673393
 20
92.8658723287734
 30
0.0
 10
62.99586898225029
 20
92.71777739612426
 30
0.0
 10
62.94650400470059
 20
92.58569272646422
 30
0.0
 10
62.89670150407323
 20
92.45243738694775
 30
0.0
 10
62.83309797519448
 20
92.33486527296839
 30
0.0
 10
62.75438084883145
 20
92.23480112928654
 30
0.0
 10
62.67501538242038
 20
92.1339128245267
 30
0.0
 10
62.59160984177563
 20
92.05468567065923
 30
0.0
 10
62.50622177250047
 20
91.99731556161495
 30
0.0
 10
62.41991447085631
 20
91.93932784332279
 30
0.0
 10
62.31676699379615
 20
91.89858560651554
 30
0.0
 10
62.19935839854279
 20
91.87056764628463
 30
0.0
 10
62.10870203666114
 20
91.84893374174467
 30
0.0
 10
61.99923011117908
 20
91.83988130888886
 30
0.0
 10
61.86847963010149
 20
91.83988130888886
 30
0.0
 10
61.62699149668262
 20
91.83988130888886
 30
0.0
 10
61.38550336326376
 20
91.83988130888886
 30
0.0
 10
61.14401522984492
 20
91.83988130888886
 30
0.0
  0
SPLINE
  5
105
330
40
100
AcDbEntity
  8
0012876
  6
Continuous
 62
     7
100
AcDbSpline
210
0.0
220
0.0
230
1.0
 70
     8
 71
     3
 72
    27
 73
    23
 74
     0
 42
0.0000000033488663
 43
0.0000000001
 12
1.0
 22
0.0
 32
0.0
 13
1.0
 23
0.0
 33
0.0
 40
0.0
 40
0.0
 40
0.0
 40
0.0
 40
0.3379250067985389
 40
0.3379250067985389
 40
0.3379250067985389
 40
0.3682196813315327
 40
0.3682196813315327
 40
0.4201534091023817
 40
0.4201534091023817
 40
0.4720871368732295
 40
0.4720871368732295
 40
0.4720871368732295
 40
0.5505950391780757
 40
0.5505950391780757
 40
0.5505950391780757
 40
0.6410999463312407
 40
0.6410999463312407
 40
0.6410999463312407
 40
0.7642962298882139
 40
0.7642962298882139
 40
0.7642962298882139
 40
1.0
 40
1.0
 40
1.0
 40
1.0
 10
57.29754954671471
 20
91.83988130888886
 30
0.0
 10
57.36559316441836
 20
92.16764697063783
 30
0.0
 10
57.433636782122
 20
92.49541263238682
 30
0.0
 10
57.50168039982566
 20
92.8231782941358
 30
0.0
 10
57.51556335003362
 20
92.89005237454931
 30
0.0
 10
57.52302741714445
 20
92.93791851222433
 30
0.0
 10
57.52302741714445
 20
93.01396726142252
 30
0.0
 10
57.5083513427378
 20
93.05132454173041
 30
0.0
 10
57.4496470451111
 20
93.1100288393571
 30
0.0
 10
57.41095557622079
 20
93.12470491376378
 30
0.0
 10
57.3629247872535
 20
93.1260391023462
 30
0.0
 10
57.29363750417116
 20
93.12796374909848
 30
0.0
 10
57.21883242035164
 20
93.10202370786256
 30
0.0
 10
57.14278367115344
 20
93.05799548464253
 30
0.0
 10
57.06515714707561
 20
93.013053812808
 30
0.0
 10
57.00269386999884
 20
92.94992620946614
 30
0.0
 10
56.95466308103156
 20
92.86987489452068
 30
0.0
 10
56.90569051188844
 20
92.78825394594881
 30
0.0
 10
56.86660663459155
 20
92.67508336148667
 30
0.0
 10
56.83458610861336
 20
92.52565424025511
 30
0.0
 10
56.78566369117878
 20
92.29734962556049
 30
0.0
 10
56.73941398973371
 20
92.06847228601093
 30
0.0
 10
56.69182793029393
 20
91.83988130888886
 30
0.0
  0
LINE
  5
106
330
40
100
AcDbEntity
  8
0012876
  6
Continuous
 62
     7
100
AcDbLine
 10
56.6918279303
 20
91.8398813089
 30
0.0
 11
56.4450030425
 21
91.8398813089
 31
0.0
  0
LINE
  5
107
330
40
100
AcDbEntity
  8
0012876
  6
Continuous
 62
     7
100
AcDbLine
 10
56.4450030425
 20
91.8398813089
 30
0.0
 11
56.7478638508
 21
93.2968152409
 31
0.0
  0
LINE
  5
108
330
40
100
AcDbEntity
  8
0012876
  6
Continuous
 62
     7
100
AcDbLine
 10
56.7478638508
 20
93.2968152409
 30
0.0
 11
56.9946887385
 21
93.2968152409
 31
0.0
  0
LINE
  5
109
330
40
100
AcDbEntity
  8
0012876
  6
Continuous
 62
     7
100
AcDbLine
 10
56.9946887385
 20
93.2968152409
 30
0.0
 11
56.9439895724
 21
93.0526587303
 31
0.0
  0
SPLINE
  5
10A
330
40
100
AcDbEntity
  8
0012876
  6
Continuous
 62
     7
100
AcDbSpline
210
0.0
220
0.0
230
1.0
 70
     8
 71
     3
 72
    16
 73
    12
 74
     0
 42
0.0000000093271666
 43
0.0000000001
 12
1.0
 22
0.0
 32
0.0
 13
1.0
 23
0.0
 33
0.0
 40
0.0
 40
0.0
 40
0.0
 40
0.0
 40
0.312257333129591
 40
0.312257333129591
 40
0.312257333129591
 40
0.5348729600410366
 40
0.5348729600410366
 40
0.7751564938502068
 40
0.7751564938502068
 40
0.7751564938502068
 40
1.0
 40
1.0
 40
1.0
 40
1.0
 10
56.94398957237216
 20
93.05265873031284
 30
0.0
 10
57.03604858455946
 20
93.15672543974196
 30
0.0
 10
57.11876827666978
 20
93.22877162319288
 30
0.0
 10
57.19214864870315
 20
93.26879728066562
 30
0.0
 10
57.26450076074622
 20
93.30826206905277
 30
0.0
 10
57.34424614709955
 20
93.32883576687475
 30
0.0
 10
57.51902485139719
 20
93.32883576687475
 30
0.0
 10
57.59507360059539
 20
93.3048203723911
 30
0.0
 10
57.65644627538692
 20
93.25678958342381
 30
0.0
 10
57.7169915342815
 20
93.20940633733241
 30
0.0
 10
57.75651041906876
 20
93.1420493653353
 30
0.0
 10
57.77652324780513
 20
93.05666129606011
 30
0.0
  0
SPLINE
  5
10B
330
40
100
AcDbEntity
  8
0012876
  6
Continuous
 62
     7
100
AcDbSpline
210
0.0
220
0.0
230
1.0
 70
     8
 71
     3
 72
    20
 73
    16
 74
     0
 42
0.0000000042649298
 43
0.0000000001
 12
1.0
 22
0.0
 32
0.0
 13
1.0
 23
0.0
 33
0.0
 40
0.0
 40
0.0
 40
0.0
 40
0.0
 40
0.1130308046446511
 40
0.1130308046446511
 40
0.2260616092893001
 40
0.2260616092893001
 40
0.3773234213872821
 40
0.3773234213872821
 40
0.3773234213872821
 40
0.5252114115650883
 40
0.5252114115650883
 40
0.5888594073378147
 40
0.5888594073378147
 40
0.5888594073378147
 40
1.0
 40
1.0
 40
1.0
 40
1.0
 10
57.77652324780513
 20
93.05666129606011
 30
0.0
 10
57.84990361983849
 20
93.14738611966499
 30
0.0
 10
57.92862074620155
 20
93.21542973736865
 30
0.0
 10
58.09139175325734
 20
93.30615456097352
 30
0.0
 10
58.17811401111494
 20
93.32883576687475
 30
0.0
 10
58.39024999572045
 20
93.32883576687475
 30
0.0
 10
58.48230900790775
 20
93.2994836180614
 30
0.0
 10
58.54234749411688
 20
93.24077932043471
 30
0.0
 10
58.60240113773224
 20
93.18206020223302
 30
0.0
 10
58.63307231772175
 20
93.10202370786256
 30
0.0
 10
58.63307231772175
 20
92.95126039804857
 30
0.0
 10
58.62373299764479
 20
92.87788002601522
 30
0.0
 10
58.60238598032598
 20
92.77514750516852
 30
0.0
 10
58.53756260706663
 20
92.46318502135783
 30
0.0
 10
58.47074604019342
 20
92.15163670764873
 30
0.0
 10
58.40492607012715
 20
91.83988130888886
 30
0.0
  0
LINE
  5
10C
330
40
100
AcDbEntity
  8
0012876
  6
Continuous
 62
     7
100
AcDbLine
 10
58.4049260701
 20
91.8398813089
 30
0.0
 11
58.1567669938
 21
91.8398813089
 31
0.0
  0
SPLINE
  5
10D
330
40
100
AcDbEntity
  8
0012876
  6
Continuous
 62
     7
100
AcDbSpline
210
0.0
220
0.0
230
1.0
 70
     8
 71
     3
 72
    27
 73
    23
 74
     0
 42
0.0000000033297256
 43
0.0000000001
 12
1.0
 22
0.0
 32
0.0
 13
1.0
 23
0.0
 33
0.0
 40
0.0
 40
0.0
 40
0.0
 40
0.0
 40
0.3291852717410316
 40
0.3291852717410316
 40
0.3291852717410316
 40
0.3698336758134114
 40
0.3698336758134114
 40
0.4283673776776379
 40
0.4283673776776379
 40
0.4283673776776379
 40
0.4743836868896335
 40
0.4743836868896335
 40
0.4743836868896335
 40
0.5546028510964031
 40
0.5546028510964031
 40
0.5546028510964031
 40
0.6569205378769003
 40
0.6569205378769003
 40
0.7592382246573974
 40
0.7592382246573974
 40
0.7592382246573974
 40
1.0
 40
1.0
 40
1.0
 40
1.0
 10
58.15676699379617
 20
91.83988130888886
 30
0.0
 10
58.22347642291738
 20
92.16097602772571
 30
0.0
 10
58.29018585203861
 20
92.48207074656257
 30
0.0
 10
58.35689528115985
 20
92.80316546539943
 30
0.0
 10
58.37329023751289
 20
92.88207985531204
 30
0.0
 10
58.38357905280834
 20
92.93791851222433
 30
0.0
 10
58.38357905280834
 20
93.01930401575223
 30
0.0
 10
58.36890297840166
 20
93.05666129606011
 30
0.0
 10
58.33821664100591
 20
93.08467925629104
 30
0.0
 10
58.30819464699704
 20
93.1120906421252
 30
0.0
 10
58.26483626897255
 20
93.12470491376378
 30
0.0
 10
58.21013453709313
 20
93.1260391023462
 30
0.0
 10
58.13549691838728
 20
93.12785953207073
 30
0.0
 10
58.06070541586158
 20
93.10202370786256
 30
0.0
 10
57.98332247808095
 20
93.05799548464253
 30
0.0
 10
57.90536607590625
 20
93.01364097995695
 30
0.0
 10
57.84590105409121
 20
92.95392877521341
 30
0.0
 10
57.76051298481603
 20
92.8071680311467
 30
0.0
 10
57.72315570450816
 20
92.69509619022304
 30
0.0
 10
57.69113517852998
 20
92.54433288040906
 30
0.0
 10
57.64130360988889
 20
92.30970924472402
 30
0.0
 10
57.59329468248547
 20
92.0746984993956
 30
0.0
 10
57.54437443446325
 20
91.83988130888886
 30
0.0
  0
LINE
  5
10E
330
40
100
AcDbEntity
  8
0012876
  6
Continuous
 62
     7
100
AcDbLine
 10
57.5443744345
 20
91.8398813089
 30
0.0
 11
57.2975495467
 21
91.8398813089
 31
0.0
  0
SPLINE
  5
10F
330
40
100
AcDbEntity
  8
0012876
  6
Continuous
 62
     7
100
AcDbSpline
210
0.0
220
0.0
230
1.0
 70
     8
 71
     3
 72
    18
 73
    14
 74
     0
 42
0.0000000073502454
 43
0.0000000001
 12
1.0
 22
0.0
 32
0.0
 13
1.0
 23
0.0
 33
0.0
 40
0.0
 40
0.0
 40
0.0
 40
0.0
 40
0.0216813094244017
 40
0.0216813094244017
 40
0.2710163678050189
 40
0.2710163678050189
 40
0.2710163678050189
 40
0.4831047770934349
 40
0.4831047770934349
 40
0.7095234843067316
 40
0.7095234843067316
 40
0.7095234843067316
 40
1.0
 40
1.0
 40
1.0
 40
1.0
 10
56.04874903356524
 20
92.69909875597033
 30
0.0
 10
56.05008322214766
 20
92.72444833903639
 30
0.0
 10
56.05008322214766
 20
92.74312697919032
 30
0.0
 10
56.05008322214766
 20
92.8765458374328
 30
0.0
 10
56.0193968847519
 20
92.97260741536736
 30
0.0
 10
55.95669002137794
 20
93.03798265590616
 30
0.0
 10
55.89462246875855
 20
93.10269138097745
 30
0.0
 10
55.81526603164093
 20
93.13671261100559
 30
0.0
 10
55.61113517852995
 20
93.13671261100559
 30
0.0
 10
55.51373941201296
 20
93.10068951928014
 30
0.0
 10
55.42568296557293
 20
93.02730914724677
 30
0.0
 10
55.33907006743522
 20
92.955131732132
 30
0.0
 10
55.27358546717653
 20
92.84585950003702
 30
0.0
 10
55.23089143253894
 20
92.69909875597033
 30
0.0
  0
LINE
  5
110
330
40
100
AcDbEntity
  8
0012876
  6
Continuous
 62
     7
100
AcDbLine
 10
56.2662217725
 20
92.5083097887
 30
0.0
 11
55.1908657751
 21
92.5083097887
 31
0.0
  0
SPLINE
  5
111
330
40
100
AcDbEntity
  8
0012876
  6
Continuous
 62
     7
100
AcDbSpline
210
0.0
220
0.0
230
1.0
 70
     8
 71
     3
 72
    17
 73
    13
 74
     0
 42
0.0000000078397093
 43
0.0000000001
 12
1.0
 22
0.0
 32
0.0
 13
1.0
 23
0.0
 33
0.0
 40
0.0
 40
0.0
 40
0.0
 40
0.0
 40
0.0413881499234959
 40
0.0413881499234959
 40
0.2897170494644729
 40
0.2897170494644729
 40
0.5380459490054523
 40
0.5380459490054523
 40
0.5380459490054523
 40
0.7690229745027296
 40
0.7690229745027296
 40
1.0
 40
1.0
 40
1.0
 40
1.0
 10
55.1908657750662
 20
92.50830978868359
 30
0.0
 10
55.18819739790135
 20
92.47895763987026
 30
0.0
 10
55.18686320931893
 20
92.45360805680419
 30
0.0
 10
55.18686320931893
 20
92.29483961549566
 30
0.0
 10
55.21754954671469
 20
92.19077290606653
 30
0.0
 10
55.34296327346261
 20
92.04668053916468
 30
0.0
 10
55.42034621124326
 20
92.0106574474392
 30
0.0
 10
55.51107103484811
 20
92.01199163602162
 30
0.0
 10
55.59642102565995
 20
92.01324678294534
 30
0.0
 10
55.67917879623363
 20
92.03867540767013
 30
0.0
 10
55.84461818045428
 20
92.14807887142894
 30
0.0
 10
55.90865923241066
 20
92.22813018637441
 30
0.0
 10
55.95402164421309
 20
92.33219689580355
 30
0.0
  0
LINE
  5
112
330
40
100
AcDbEntity
  8
0012876
  6
Continuous
 62
     7
100
AcDbLine
 10
55.9540216442
 20
92.3321968958
 30
0.0
 11
56.1955097776
 21
92.3081815013
 31
0.0
  0
SPLINE
  5
113
330
40
100
AcDbEntity
  8
0012876
  6
Continuous
 62
     7
100
AcDbSpline
210
0.0
220
0.0
230
1.0
 70
     8
 71
     3
 72
    34
 73
    30
 74
     0
 42
0.0000000022698704
 43
0.0000000001
 12
1.0
 22
0.0
 32
0.0
 13
1.0
 23
0.0
 33
0.0
 40
0.0
 40
0.0
 40
0.0
 40
0.0
 40
0.0971041639436982
 40
0.0971041639436982
 40
0.0971041639436982
 40
0.2099423133125271
 40
0.2099423133125271
 40
0.2802491602269508
 40
0.2802491602269508
 40
0.2802491602269508
 40
0.3503317846186257
 40
0.3503317846186257
 40
0.3503317846186257
 40
0.4317482831038175
 40
0.4317482831038175
 40
0.5382160118921459
 40
0.5382160118921459
 40
0.5382160118921459
 40
0.6404936102112891
 40
0.6404936102112891
 40
0.6404936102112891
 40
0.727328591886137
 40
0.727328591886137
 40
0.8388519507038366
 40
0.8388519507038366
 40
0.8388519507038366
 40
0.9549119447565138
 40
0.9549119447565138
 40
1.0
 40
1.0
 40
1.0
 40
1.0
 10
56.19550977763193
 20
92.3081815013199
 30
0.0
 10
56.1608208744889
 20
92.18943871748411
 30
0.0
 10
56.08076955954344
 20
92.07603268797801
 30
0.0
 10
55.95535583279551
 20
91.96929760138404
 30
0.0
 10
55.83005734575453
 20
91.86266059113638
 30
0.0
 10
55.68318136198089
 20
91.80786078291065
 30
0.0
 10
55.40166757108931
 20
91.80786078291065
 30
0.0
 10
55.30293761598987
 20
91.83321036597674
 30
0.0
 10
55.21221279238499
 20
91.88257534352644
 30
0.0
 10
55.12251738443256
 20
91.93138019785349
 30
0.0
 10
55.0547785396589
 20
92.00398650452708
 30
0.0
 10
55.0067477506916
 20
92.10004808246165
 30
0.0
 10
54.95951747487376
 20
92.19450863409732
 30
0.0
 10
54.93603575582311
 20
92.3028447469902
 30
0.0
 10
54.93603575582311
 20
92.58302434929936
 30
0.0
 10
54.97339303613099
 20
92.73779022486063
 30
0.0
 10
55.04677340816434
 20
92.8872193460922
 30
0.0
 10
55.11962589776032
 20
93.03557350672396
 30
0.0
 10
55.21621535813227
 20
93.14605193108257
 30
0.0
 10
55.33228976480321
 20
93.21943230311592
 30
0.0
 10
55.4487147832368
 20
93.2930343262636
 30
0.0
 10
55.57644627538691
 20
93.32883576687475
 30
0.0
 10
55.88731221509185
 20
93.32883576687475
 30
0.0
 10
56.02606782766401
 20
93.27413403499533
 30
0.0
 10
56.12880034851073
 20
93.16739894840136
 30
0.0
 10
56.232841086226
 20
93.0593046754504
 30
0.0
 10
56.28490041265441
 20
92.91256892915825
 30
0.0
 10
56.28490041265441
 20
92.65507053275032
 30
0.0
 10
56.27822946974227
 20
92.58169016071695
 30
0.0
 10
56.26622177250046
 20
92.50830978868359
 30
0.0
  0
LINE
  5
114
330
40
100
AcDbEntity
  8
0012876
  6
Continuous
 62
     7
100
AcDbLine
 10
55.2308914325
 20
92.699098756
 30
0.0
 11
56.0487490336
 21
92.699098756
 31
0.0
  0
LINE
  5
115
330
40
100
AcDbEntity
  8
0012876
  6
Continuous
 62
     7
100
AcDbLine
 10
54.0181140111
 20
92.8672065174
 30
0.0
 11
53.7712891234
 21
92.8511962544
 31
0.0
  0
SPLINE
  5
116
330
40
100
AcDbEntity
  8
0012876
  6
Continuous
 62
     7
100
AcDbSpline
210
0.0
220
0.0
230
1.0
 70
     8
 71
     3
 72
    38
 73
    34
 74
     0
 42
0.0000000026562759
 43
0.0000000001
 12
1.0
 22
0.0
 32
0.0
 13
1.0
 23
0.0
 33
0.0
 40
0.0
 40
0.0
 40
0.0
 40
0.0
 40
0.0637829389361779
 40
0.0637829389361779
 40
0.0637829389361779
 40
0.1346526294780071
 40
0.1346526294780071
 40
0.1929631343541968
 40
0.1929631343541968
 40
0.1929631343541968
 40
0.2323447494221134
 40
0.2323447494221134
 40
0.2717263644900302
 40
0.2717263644900302
 40
0.2717263644900302
 40
0.3365437187236583
 40
0.3365437187236583
 40
0.3365437187236583
 40
0.4477445621872879
 40
0.4477445621872879
 40
0.4477445621872879
 40
0.5405398669022413
 40
0.5405398669022413
 40
0.6024034033788765
 40
0.6024034033788765
 40
0.6642669398555113
 40
0.6642669398555113
 40
0.6642669398555113
 40
0.7552966033932317
 40
0.7552966033932317
 40
0.8776483016966168
 40
0.8776483016966168
 40
1.0
 40
1.0
 40
1.0
 40
1.0
 10
53.77128912336639
 20
92.85119625436671
 30
0.0
 10
53.76862074620153
 20
92.93925270080675
 30
0.0
 10
53.73660022022335
 20
93.00863050709283
 30
0.0
 10
53.67923011117909
 20
93.06066386180738
 30
0.0
 10
53.62179190704991
 20
93.11275897718036
 30
0.0
 10
53.5378061214421
 20
93.13671261100559
 30
0.0
 10
53.34568296557293
 20
93.13671261100559
 30
0.0
 10
53.28030772503413
 20
93.11669978226922
 30
0.0
 10
53.23227693606685
 20
93.07800831337892
 30
0.0
 10
53.18440347771386
 20
93.039443583039
 30
0.0
 10
53.16156494119834
 20
92.99528862126859
 30
0.0
 10
53.16156494119834
 20
92.90456379766371
 30
0.0
 10
53.18291195851714
 20
92.86453814019097
 30
0.0
 10
53.22293761598988
 20
92.82984923704792
 30
0.0
 10
53.25082351186872
 20
92.8056814606196
 30
0.0
 10
53.32166757108929
 20
92.7684765622564
 30
0.0
 10
53.43507360059538
 20
92.72044577328911
 30
0.0
 10
53.62589811075362
 20
92.6396259807515
 30
0.0
 10
53.74327116313549
 20
92.57235084063997
 30
0.0
 10
53.79397032926762
 20
92.52432005167269
 30
0.0
 10
53.87342369400169
 20
92.44904844297724
 30
0.0
 10
53.91271311310341
 20
92.35621229028719
 30
0.0
 10
53.91271311310341
 20
92.17609683165986
 30
0.0
 10
53.89003190720218
 20
92.10538483679136
 30
0.0
 10
53.80197546076216
 20
91.96662922421919
 30
0.0
 10
53.7339318430585
 20
91.91192749233979
 30
0.0
 10
53.64454120803605
 20
91.87056764628463
 30
0.0
 10
53.55405164227113
 20
91.82869933973667
 30
0.0
 10
53.44708129783721
 20
91.80786078291065
 30
0.0
 10
53.15622818686865
 20
91.80786078291065
 30
0.0
 10
53.01347000854921
 20
91.84922062896582
 30
0.0
 10
52.77865281804247
 20
92.01466001318647
 30
0.0
 10
52.72261689758064
 20
92.14941306001137
 30
0.0
 10
52.72795365191034
 20
92.33619946155082
 30
0.0
  0
LINE
  5
117
330
40
100
AcDbEntity
  8
0012876
  6
Continuous
 62
     7
100
AcDbLine
 10
52.7279536519
 20
92.3361994616
 30
0.0
 11
52.9787811054
 21
92.350875536
 31
0.0
  0
SPLINE
  5
118
330
40
100
AcDbEntity
  8
0012876
  6
Continuous
 62
     7
100
AcDbSpline
210
0.0
220
0.0
230
1.0
 70
     8
 71
     3
 72
    41
 73
    37
 74
     0
 42
0.000000002685212
 43
0.0000000001
 12
1.0
 22
0.0
 32
0.0
 13
1.0
 23
0.0
 33
0.0
 40
0.0
 40
0.0
 40
0.0
 40
0.0
 40
0.050716169285775
 40
0.050716169285775
 40
0.050716169285775
 40
0.1030511479805799
 40
0.1030511479805799
 40
0.1553861266753847
 40
0.1553861266753847
 40
0.227235843188591
 40
0.227235843188591
 40
0.227235843188591
 40
0.2769645081253549
 40
0.2769645081253549
 40
0.3131308098975472
 40
0.3131308098975472
 40
0.3131308098975472
 40
0.391519428840655
 40
0.391519428840655
 40
0.391519428840655
 40
0.4674355675235909
 40
0.4674355675235909
 40
0.4674355675235909
 40
0.5193141120191235
 40
0.5193141120191235
 40
0.5711926565146568
 40
0.5711926565146568
 40
0.6622447958333472
 40
0.6622447958333472
 40
0.6622447958333472
 40
0.7738226346552775
 40
0.7738226346552775
 40
0.897098150127895
 40
0.897098150127895
 40
0.897098150127895
 40
1.0
 40
1.0
 40
1.0
 40
1.0
 10
52.97878110540616
 20
92.35087553595748
 30
0.0
 10
52.97878110540616
 20
92.28016354108898
 30
0.0
 10
52.98945461406556
 20
92.22012505487987
 30
0.0
 10
53.01080163138436
 20
92.16942588874774
 30
0.0
 10
53.03167148008071
 20
92.11985999809384
 30
0.0
 10
53.07217430617589
 20
92.07870106514287
 30
0.0
 10
53.18958290142925
 20
92.01466001318647
 30
0.0
 10
53.25762651913291
 20
91.9999839387798
 30
0.0
 10
53.44441292067237
 20
91.9999839387798
 30
0.0
 10
53.52579842420026
 20
92.0213309560986
 30
0.0
 10
53.58050015607967
 20
92.06535917931862
 30
0.0
 10
53.63455020667678
 20
92.1088628785797
 30
0.0
 10
53.66188565960758
 20
92.16008656867076
 30
0.0
 10
53.66188565960758
 20
92.26148490093505
 30
0.0
 10
53.64587539661849
 20
92.3028447469902
 30
0.0
 10
53.61252068205785
 20
92.34020202729809
 30
0.0
 10
53.57850313427674
 20
92.37830168081294
 30
0.0
 10
53.49644627538691
 20
92.42559009657326
 30
0.0
 10
53.36569579430932
 20
92.48296020561753
 30
0.0
 10
53.23543621261929
 20
92.54011492003252
 30
0.0
 10
53.15222562112136
 20
92.5790217835521
 30
0.0
 10
53.11486834081347
 20
92.60170298945332
 30
0.0
 10
53.05442823026875
 20
92.63839877085547
 30
0.0
 10
53.00813325421951
 20
92.68308849298123
 30
0.0
 10
52.94676057942797
 20
92.7844868252455
 30
0.0
 10
52.93075031643887
 20
92.84319112287217
 30
0.0
 10
52.93075031643887
 20
93.0233065814995
 30
0.0
 10
52.97744691682372
 20
93.12203653659893
 30
0.0
 10
53.0681717404286
 20
93.20475622870924
 30
0.0
 10
53.15962510536617
 20
93.28814017909349
 30
0.0
 10
53.28697866794624
 20
93.32883576687475
 30
0.0
 10
53.63520188795909
 20
93.32883576687475
 30
0.0
 10
53.77395750053124
 20
93.28614173223716
 30
0.0
 10
53.86868488988339
 20
93.20075366296197
 30
0.0
 10
53.96348485138455
 20
93.11530017653841
 30
0.0
 10
54.01411144536766
 20
93.00462794134555
 30
0.0
 10
54.01811401111495
 20
92.86720651735583
 30
0.0
  0
LINE
  5
119
330
40
100
AcDbEntity
  8
0012876
  6
Continuous
 62
     7
100
AcDbLine
 10
52.5211544216
 20
93.2968152409
 30
0.0
 11
52.7799870066
 21
93.2968152409
 31
0.0
  0
SPLINE
  5
11A
330
40
100
AcDbEntity
  8
0012876
  6
Continuous
 62
     7
100
AcDbSpline
210
0.0
220
0.0
230
1.0
 70
     8
 71
     3
 72
    15
 73
    11
 74
     0
 42
0.000000003663139
 43
0.0000000001
 12
1.0
 22
0.0
 32
0.0
 13
1.0
 23
0.0
 33
0.0
 40
0.0
 40
0.0
 40
0.0
 40
0.0
 40
0.6944103924140683
 40
0.6944103924140683
 40
0.6944103924140683
 40
0.810085554607613
 40
0.810085554607613
 40
0.9257607168011595
 40
0.9257607168011595
 40
1.0
 40
1.0
 40
1.0
 40
1.0
 10
52.77998700662489
 20
93.29681524089655
 30
0.0
 10
52.47134471455733
 20
92.74757427446508
 30
0.0
 10
52.16270242248977
 20
92.19833330803361
 30
0.0
 10
51.85406013042219
 20
91.64909234160214
 30
0.0
 10
51.76366043127262
 20
91.48822255997429
 30
0.0
 10
51.68461818045427
 20
91.37958624795235
 30
0.0
 10
51.54586256788211
 20
91.27551953852324
 30
0.0
 10
51.46581125293663
 20
91.24883576687475
 30
0.0
 10
51.31905050886992
 20
91.24883576687475
 30
0.0
 10
51.26168039982565
 20
91.25817508695171
 30
0.0
 10
51.20697866794625
 20
91.27818791568808
 30
0.0
  0
LINE
  5
11B
330
40
100
AcDbEntity
  8
0012876
  6
Continuous
 62
     7
100
AcDbLine
 10
51.2069786679
 20
91.2781879157
 30
0.0
 11
51.2229889309
 21
91.5130051062
 31
0.0
  0
SPLINE
  5
11C
330
40
100
AcDbEntity
  8
0012876
  6
Continuous
 62
     7
100
AcDbSpline
210
0.0
220
0.0
230
1.0
 70
     8
 71
     3
 72
    16
 73
    12
 74
     0
 42
0.0000000150781521
 43
0.0000000001
 12
1.0
 22
0.0
 32
0.0
 13
1.0
 23
0.0
 33
0.0
 40
0.0
 40
0.0
 40
0.0
 40
0.0
 40
0.2095933503784936
 40
0.2095933503784936
 40
0.4250087382675028
 40
0.4250087382675028
 40
0.4250087382675028
 40
0.7516385063522185
 40
0.7516385063522185
 40
0.7516385063522185
 40
1.0
 40
1.0
 40
1.0
 40
1.0
 10
51.22298893093535
 20
91.51300510619481
 30
0.0
 10
51.27368809706749
 20
91.49832903178815
 30
0.0
 10
51.32438726319963
 20
91.49165808887602
 30
0.0
 10
51.42178302971661
 20
91.49165808887602
 30
0.0
 10
51.46314287577178
 20
91.50233159753542
 30
0.0
 10
51.49382921316756
 20
91.52634699201906
 30
0.0
 10
51.53289763334551
 20
91.55692227737573
 30
0.0
 10
51.5778830938603
 20
91.61306924987667
 30
0.0
 10
51.62457969424516
 20
91.69578894198699
 30
0.0
 10
51.6513994553921
 20
91.74329823316155
 30
0.0
 10
51.67794723754216
 20
91.79096106086662
 30
0.0
 10
51.70463100919065
 20
91.83854712030643
 30
0.0
  0
LINE
  5
11D
330
40
100
AcDbEntity
  8
0012876
  6
Continuous
 62
     7
100
AcDbLine
 10
51.7046310092
 20
91.8385471203
 30
0.0
 11
51.4618086872
 21
93.2968152409
 31
0.0
  0
LINE
  5
11E
330
40
100
AcDbEntity
  8
0012876
  6
Continuous
 62
     7
100
AcDbLine
 10
51.4618086872
 20
93.2968152409
 30
0.0
 11
51.7032968206
 21
93.2968152409
 31
0.0
  0
SPLINE
  5
11F
330
40
100
AcDbEntity
  8
0012876
  6
Continuous
 62
     7
100
AcDbSpline
210
0.0
220
0.0
230
1.0
 70
     8
 71
     3
 72
    11
 73
     7
 74
     0
 42
0.0000000084505494
 43
0.0000000001
 12
1.0
 22
0.0
 32
0.0
 13
1.0
 23
0.0
 33
0.0
 40
0.0
 40
0.0
 40
0.0
 40
0.0
 40
0.62825676723626
 40
0.62825676723626
 40
0.62825676723626
 40
1.0
 40
1.0
 40
1.0
 40
1.0
 10
51.7032968206082
 20
93.29681524089655
 30
0.0
 10
51.74020937138862
 20
93.0517692712579
 30
0.0
 10
51.77712192216904
 20
92.80672330161924
 30
0.0
 10
51.81403447294945
 20
92.56167733198058
 30
0.0
 10
51.8359284220759
 20
92.41633316368329
 30
0.0
 10
51.85406013042219
 20
92.27082422101202
 30
0.0
 10
51.8700703934113
 20
92.12539766552773
 30
0.0
  0
LINE
  5
120
330
40
100
AcDbEntity
  8
0012876
  6
Continuous
 62
     7
100
AcDbLine
 10
51.8700703934
 20
92.1253976655
 30
0.0
 11
52.5211544216
 21
93.2968152409
 31
0.0
  0
LINE
  5
121
330
40
100
AcDbEntity
  8
0012876
  6
Continuous
 62
     7
100
AcDbLine
 10
51.2189863652
 20
93.2768024122
 30
0.0
 11
50.957485403
 21
93.2567895834
 31
0.0
  0
SPLINE
  5
122
330
40
100
AcDbEntity
  8
0012876
  6
Continuous
 62
     7
100
AcDbSpline
210
0.0
220
0.0
230
1.0
 70
     8
 71
     3
 72
    52
 73
    48
 74
     0
 42
0.0000000019360809
 43
0.0000000001
 12
1.0
 22
0.0
 32
0.0
 13
1.0
 23
0.0
 33
0.0
 40
0.0
 40
0.0
 40
0.0
 40
0.0
 40
0.026443311087185
 40
0.026443311087185
 40
0.026443311087185
 40
0.0592893318230168
 40
0.0592893318230168
 40
0.0592893318230168
 40
0.0954649509175289
 40
0.0954649509175289
 40
0.0954649509175289
 40
0.1375755765023413
 40
0.1375755765023413
 40
0.2109295694565278
 40
0.2109295694565278
 40
0.2109295694565278
 40
0.2566304236944028
 40
0.2566304236944028
 40
0.2834706079293457
 40
0.2834706079293457
 40
0.2834706079293457
 40
0.3189590920973943
 40
0.3189590920973943
 40
0.3189590920973943
 40
0.3918908840021614
 40
0.3918908840021614
 40
0.3918908840021614
 40
0.4574597730848548
 40
0.4574597730848548
 40
0.4574597730848548
 40
0.5059181728425448
 40
0.5059181728425448
 40
0.5059181728425448
 40
0.5559035550512076
 40
0.5559035550512076
 40
0.6172492513982034
 40
0.6172492513982034
 40
0.6172492513982034
 40
0.6864613307814712
 40
0.6864613307814712
 40
0.6864613307814712
 40
0.7645155415926748
 40
0.7645155415926748
 40
0.8819422304236907
 40
0.8819422304236907
 40
0.8819422304236907
 40
1.0
 40
1.0
 40
1.0
 40
1.0
 10
50.95748540303284
 20
93.25678958342381
 30
0.0
 10
50.95748540303284
 20
93.31282550388565
 30
0.0
 10
50.95214864870314
 20
93.35818791568808
 30
0.0
 10
50.94280932862618
 20
93.39020844166627
 30
0.0
 10
50.92628246781796
 20
93.44687196443728
 30
0.0
 10
50.89611272824132
 20
93.49294096251298
 30
0.0
 10
50.85875544793343
 20
93.53296661998571
 30
0.0
 10
50.82210804468601
 20
93.57223169489365
 30
0.0
 10
50.76803062432855
 20
93.60234442627178
 30
0.0
 10
50.70132119520731
 20
93.625025632173
 30
0.0
 10
50.63420514712048
 20
93.64784508852253
 30
0.0
 10
50.55989720547031
 20
93.66104872389847
 30
0.0
 10
50.33308514645812
 20
93.66104872389847
 30
0.0
 10
50.21967911695202
 20
93.62769400933786
 30
0.0
 10
50.13829361342412
 20
93.56231876879906
 30
0.0
 10
50.0762374993326
 20
93.5124704148567
 30
0.0
 10
50.04623460123682
 20
93.44491017354568
 30
0.0
 10
50.04623460123682
 20
93.31149131530323
 30
0.0
 10
50.05957648706107
 20
93.2674630920832
 30
0.0
 10
50.08492607012712
 20
93.22877162319288
 30
0.0
 10
50.11088724879131
 20
93.18914666628443
 30
0.0
 10
50.15563806499565
 20
93.15138868541227
 30
0.0
 10
50.22234749411686
 20
93.11403140510438
 30
0.0
 10
50.26927160534404
 20
93.08775390281716
 30
0.0
 10
50.38111593542539
 20
93.03531427874131
 30
0.0
 10
50.55856301688788
 20
92.95659715237827
 30
0.0
 10
50.70270000379523
 20
92.89265668450207
 30
0.0
 10
50.80138533888915
 20
92.84185693428975
 30
0.0
 10
50.85608707076858
 20
92.80583384256428
 30
0.0
 10
50.92994575771282
 20
92.75719519506443
 30
0.0
 10
50.98416917468133
 20
92.69776456738789
 30
0.0
 10
51.02419483215407
 20
92.62838676110181
 30
0.0
 10
51.06330980596623
 20
92.56058747316075
 30
0.0
 10
51.08289912978076
 20
92.48162601703511
 30
0.0
 10
51.08289912978076
 20
92.28550029541869
 30
0.0
 10
51.04954441522015
 20
92.1841019631544
 30
0.0
 10
50.98283498609891
 20
92.09337713954953
 30
0.0
 10
50.91532024943916
 20
92.00155709769227
 30
0.0
 10
50.8254007333728
 20
91.9292719439113
 30
0.0
 10
50.70799213811944
 20
91.87990696636159
 30
0.0
 10
50.59124060841614
 20
91.83081825500908
 30
0.0
 10
50.45849887320603
 20
91.80385821716338
 30
0.0
 10
50.08092350437987
 20
91.80385821716338
 30
0.0
 10
49.89547129142284
 20
91.85322319471311
 30
0.0
 10
49.75137892452098
 20
91.95328733839494
 30
0.0
 10
49.60791163295706
 20
92.052917401981
 30
0.0
 10
49.53524037416818
 20
92.23079856353927
 30
0.0
 10
49.53390618558577
 20
92.48829695994723
 30
0.0
  0
LINE
  5
123
330
40
100
AcDbEntity
  8
0012876
  6
Continuous
 62
     7
100
AcDbLine
 10
49.5339061856
 20
92.4882969599
 30
0.0
 11
49.7967413363
 21
92.5123123544
 31
0.0
  0
SPLINE
  5
124
330
40
100
AcDbEntity
  8
0012876
  6
Continuous
 62
     7
100
AcDbSpline
210
0.0
220
0.0
230
1.0
 70
     8
 71
     3
 72
    53
 73
    49
 74
     0
 42
0.0000000019443841
 43
0.0000000001
 12
1.0
 22
0.0
 32
0.0
 13
1.0
 23
0.0
 33
0.0
 40
0.0
 40
0.0
 40
0.0
 40
0.0
 40
0.0139279295162094
 40
0.0139279295162094
 40
0.0139279295162094
 40
0.0577976464619989
 40
0.0577976464619989
 40
0.0577976464619989
 40
0.1039292770824251
 40
0.1039292770824251
 40
0.1039292770824251
 40
0.1600699665979061
 40
0.1600699665979061
 40
0.239987889319944
 40
0.239987889319944
 40
0.239987889319944
 40
0.3145741291728393
 40
0.3145741291728393
 40
0.3661263831888107
 40
0.3661263831888107
 40
0.4176786372047812
 40
0.4176786372047812
 40
0.4176786372047812
 40
0.4884441251585018
 40
0.4884441251585018
 40
0.4884441251585018
 40
0.5436731416407827
 40
0.5436731416407827
 40
0.5436731416407827
 40
0.5942702858438738
 40
0.5942702858438738
 40
0.6515641108973734
 40
0.6515641108973734
 40
0.6515641108973734
 40
0.7140850984473004
 40
0.7140850984473004
 40
0.7140850984473004
 40
0.7862250893864359
 40
0.7862250893864359
 40
0.8716724572949273
 40
0.8716724572949273
 40
0.8716724572949273
 40
0.9374079905604938
 40
0.9374079905604938
 40
0.9374079905604938
 40
0.9945572165704776
 40
0.9945572165704776
 40
1.0
 40
1.0
 40
1.0
 40
1.0
 10
49.79674133632341
 20
92.51231235443088
 30
0.0
 10
49.79585187726847
 20
92.4887416894747
 30
0.0
 10
49.79496241821352
 20
92.46517102451853
 30
0.0
 10
49.79407295915856
 20
92.44160035956236
 30
0.0
 10
49.79115700060729
 20
92.36432745795348
 30
0.0
 10
49.81141741073009
 20
92.29217123833081
 30
0.0
 10
49.84744050245554
 20
92.22813018637441
 30
0.0
 10
49.88314291383926
 20
92.16465923280342
 30
0.0
 10
49.94216789180769
 20
92.11472415686833
 30
0.0
 10
50.02355339533561
 20
92.08003525372528
 30
0.0
 10
50.10654921016823
 20
92.04465998838678
 30
0.0
 10
50.20366885396292
 20
92.0266677104283
 30
0.0
 10
50.47851170194241
 20
92.0266677104283
 30
0.0
 10
50.60125705152546
 20
92.06135661357135
 30
0.0
 10
50.68531093221821
 20
92.13206860843985
 30
0.0
 10
50.77014607500653
 20
92.20343785554746
 30
0.0
 10
50.81205884754855
 20
92.28416610683625
 30
0.0
 10
50.81205884754855
 20
92.43759779381509
 30
0.0
 10
50.79071183022976
 20
92.49496790285934
 30
0.0
 10
50.69998700662489
 20
92.59903461228846
 30
0.0
 10
50.57590746845941
 20
92.66841241857456
 30
0.0
 10
50.37177661534843
 20
92.75646886501457
 30
0.0
 10
50.21429479025797
 20
92.82440220132811
 30
0.0
 10
50.10627308744592
 20
92.8765458374328
 30
0.0
 10
50.04890297840167
 20
92.91390311774069
 30
0.0
 10
49.95834841205608
 20
92.9728688818727
 30
0.0
 10
49.89146872567557
 20
93.03798265590616
 30
0.0
 10
49.84877469103799
 20
93.10736046219226
 30
0.0
 10
49.80548513874987
 20
93.17770598466043
 30
0.0
 10
49.78473363908159
 20
93.25678958342381
 30
0.0
 10
49.78473363908159
 20
93.45024692787538
 30
0.0
 10
49.81275159931251
 20
93.54364012864511
 30
0.0
 10
49.87012170835678
 20
93.62635982075543
 30
0.0
 10
49.92768328623502
 20
93.70935558420777
 30
0.0
 10
50.00887732092893
 20
93.77312056482215
 30
0.0
 10
50.11828078468776
 20
93.81714878804215
 30
0.0
 10
50.2265360231774
 20
93.86071492060505
 30
0.0
 10
50.34909540944721
 20
93.88385821716338
 30
0.0
 10
50.64928784049276
 20
93.88385821716338
 30
0.0
 10
50.78670926448249
 20
93.85584025693247
 30
0.0
 10
50.89878110540617
 20
93.80113852505306
 30
0.0
 10
51.01137886431974
 20
93.74618009510715
 30
0.0
 10
51.09223844985772
 20
93.67172223255787
 30
0.0
 10
51.14293761598987
 20
93.580997408953
 30
0.0
 10
51.19420493362119
 20
93.48925589319171
 30
0.0
 10
51.21898636518807
 20
93.40221613890809
 30
0.0
 10
51.21898636518807
 20
93.3101571267208
 30
0.0
 10
51.21898636518807
 20
93.29681524089655
 30
0.0
 10
51.21898636518807
 20
93.27680241216018
 30
0.0
  0
LINE
  5
125
330
40
100
AcDbEntity
  8
0012876
  6
Continuous
 62
     7
100
AcDbLine
 10
58.5657666963
 20
90.5472632372
 30
0.0
 11
58.6906706133
 21
90.9472632372
 31
0.0
  0
LINE
  5
126
330
40
100
AcDbEntity
  8
0012876
  6
Continuous
 62
     7
100
AcDbLine
 10
58.6906706133
 20
90.9472632372
 30
0.0
 11
48.650587037
 21
90.9472632372
 31
0.0
  0
ENDBLK
  5
128
330
40
100
AcDbEntity
  8
0
100
AcDbBlockEnd
  0
BLOCK
  5
12F
330
129
100
AcDbEntity
  8
0
100
AcDbBlockBegin
  2
SE1
 70
     0
 10
0.0
 20
0.0
 30
0.0
  3
SE1
  1

  0
LINE
  5
12B
330
129
100
AcDbEntity
  8
0012876
  6
Continuous
 62
     7
100
AcDbLine
 10
260.341245965
 20
48.503674117
 30
0.0
 11
38.741245965
 21
48.503674117
 31
0.0
  0
LINE
  5
12C
330
129
100
AcDbEntity
  8
0012876
  6
Continuous
 62
     7
100
AcDbLine
 10
260.341245965
 20
68.503674117
 30
0.0
 11
38.741245965
 21
68.503674117
 31
0.0
  0
LINE
  5
12D
330
129
100
AcDbEntity
  8
0012876
  6
Continuous
 62
     7
100
AcDbLine
 10
38.741245965
 20
48.503674117
 30
0.0
 11
38.741245965
 21
68.503674117
 31
0.0
  0
LINE
  5
12E
330
129
100
AcDbEntity
  8
0012876
  6
Continuous
 62
     7
100
AcDbLine
 10
260.341245965
 20
48.503674117
 30
0.0
 11
260.341245965
 21
68.503674117
 31
0.0
  0
ENDBLK
  5
130
330
129
100
AcDbEntity
  8
0
100
AcDbBlockEnd
  0
BLOCK
  5
13A
330
131
100
AcDbEntity
  8
0
100
AcDbBlockBegin
  2
GDimGGroup
 70
     0
 10
0.0
 20
0.0
 30
0.0
  3
GDimGGroup
  1

  0
HATCH
  5
133
330
131
100
AcDbEntity
  8
Default
  6
Continuous
 62
     7
100
AcDbHatch
 10
0.0
 20
0.0
 30
0.0
210
0.0
220
0.0
230
1.0
  2
SOLID
 70
     1
 71
     0
 91
        1
 92
        1
 93
        3
 72
     1
 10
42.24124607300528
 20
166.8708604595044
 11
38.74124596497186
 21
166.2875271081655
 72
     1
 10
38.74124596497186
 20
166.2875271081655
 11
42.24124607300528
 21
165.7041937568266
 72
     1
 10
42.24124607300528
 20
165.7041937568266
 11
42.24124607300528
 21
166.8708604595044
 97
        0
 75
     0
 76
     1
 98
        0
  0
HATCH
  5
134
330
131
100
AcDbEntity
  8
Default
  6
Continuous
 62
     7
100
AcDbHatch
 10
0.0
 20
0.0
 30
0.0
210
0.0
220
0.0
230
1.0
  2
SOLID
 70
     1
 71
     0
 91
        1
 92
        1
 93
        3
 72
     1
 10
256.8412419468738
 20
166.8708604595044
 11
256.8412419468738
 21
165.7041937568266
 72
     1
 10
256.8412419468738
 20
165.7041937568266
 11
260.3412420549072
 21
166.2875271081655
 72
     1
 10
260.3412420549072
 20
166.2875271081655
 11
256.8412419468738
 21
166.8708604595044
 97
        0
 75
     0
 76
     1
 98
        0
  0
LINE
  5
135
330
131
100
AcDbEntity
  8
Default
  6
Continuous
 62
     7
100
AcDbLine
 10
38.741245965
 20
119.8760761559
 30
0.0
 11
38.741245965
 21
168.0375271622
 31
0.0
  0
LINE
  5
136
330
131
100
AcDbEntity
  8
Default
  6
Continuous
 62
     7
100
AcDbLine
 10
260.341245965
 20
119.8760761559
 30
0.0
 11
260.341245965
 21
168.0375271622
 31
0.0
  0
LINE
  5
137
330
131
100
AcDbEntity
  8
Default
  6
Continuous
 62
     7
100
AcDbLine
 10
38.741245965
 20
166.2875271082
 30
0.0
 11
260.3412420549
 21
166.2875271082
 31
0.0
  0
TEXT
  5
139
330
131
100
AcDbEntity
  8
Default
  6
Continuous
 62
     7
100
AcDbText
 10
146.2401076463
 20
167.1625271082
 30
0.0
 40
3.5
  1
277
  7
SEACAD_Solid_Edge_ISO
 11
146.2401076463
 21
170.6625271082
 31
0.0
100
AcDbText
 73
     3
  0
ENDBLK
  5
13B
330
131
100
AcDbEntity
  8
0
100
AcDbBlockEnd
  0
BLOCK
  5
144
330
13C
100
AcDbEntity
  8
0
100
AcDbBlockBegin
  2
GDimGGroup1
 70
     0
 10
0.0
 20
0.0
 30
0.0
  3
GDimGGroup1
  1

  0
HATCH
  5
13E
330
13C
100
AcDbEntity
  8
Default
  6
Continuous
 62
     7
100
AcDbHatch
 10
0.0
 20
0.0
 30
0.0
210
0.0
220
0.0
230
1.0
  2
SOLID
 70
     1
 71
     0
 91
        1
 92
        1
 93
        3
 72
     1
 10
25.82479611951379
 20
149.1760760478406
 11
26.9914628221916
 21
149.1760760478406
 72
     1
 10
26.9914628221916
 20
149.1760760478406
 11
26.40812947085269
 21
152.676076155874
 72
     1
 10
26.40812947085269
 20
152.676076155874
 11
25.82479611951379
 21
149.1760760478406
 97
        0
 75
     0
 76
     1
 98
        0
  0
HATCH
  5
13F
330
13C
100
AcDbEntity
  8
Default
  6
Continuous
 62
     7
100
AcDbHatch
 10
0.0
 20
0.0
 30
0.0
210
0.0
220
0.0
230
1.0
  2
SOLID
 70
     1
 71
     0
 91
        1
 92
        1
 93
        3
 72
     1
 10
25.82479611951379
 20
90.57607594204234
 11
26.40812947085269
 21
87.07607583400892
 72
     1
 10
26.40812947085269
 20
87.07607583400892
 11
26.9914628221916
 21
90.57607594204234
 72
     1
 10
26.9914628221916
 20
90.57607594204234
 11
25.82479611951379
 21
90.57607594204234
 97
        0
 75
     0
 76
     1
 98
        0
  0
LINE
  5
140
330
13C
100
AcDbEntity
  8
Default
  6
Continuous
 62
     7
100
AcDbLine
 10
38.741245965
 20
152.6760761559
 30
0.0
 11
24.6581294168
 21
152.6760761559
 31
0.0
  0
LINE
  5
141
330
13C
100
AcDbEntity
  8
Default
  6
Continuous
 62
     7
100
AcDbLine
 10
38.741245965
 20
87.0760761559
 30
0.0
 11
24.6581294168
 21
87.0760761559
 31
0.0
  0
LINE
  5
142
330
13C
100
AcDbEntity
  8
Default
  6
Continuous
 62
     7
100
AcDbLine
 10
26.4081294709
 20
152.6760761559
 30
0.0
 11
26.4081294709
 21
87.076075834
 31
0.0
  0
TEXT
  5
143
330
13C
100
AcDbEntity
  8
Default
  6
Continuous
 62
     7
100
AcDbText
 10
25.5331294709
 20
117.6885759949
 30
0.0
 40
3.5
  1
82
 50
90.0
  7
SEACAD_Solid_Edge_ISO
 11
22.0331294709
 21
117.6885759949
 31
0.0
100
AcDbText
 73
     3
  0
ENDBLK
  5
145
330
13C
100
AcDbEntity
  8
0
100
AcDbBlockEnd
  0
BLOCK
  5
14E
330
146
100
AcDbEntity
  8
0
100
AcDbBlockBegin
  2
GDimGGroup2
 70
     0
 10
0.0
 20
0.0
 30
0.0
  3
GDimGGroup2
  1

  0
HATCH
  5
148
330
146
100
AcDbEntity
  8
Default
  6
Continuous
 62
     7
100
AcDbHatch
 10
0.0
 20
0.0
 30
0.0
210
0.0
220
0.0
230
1.0
  2
SOLID
 70
     1
 71
     0
 91
        1
 92
        1
 93
        3
 72
     1
 10
25.82479611951379
 20
52.00367422503479
 11
26.40812947085269
 21
48.50367411700137
 72
     1
 10
26.40812947085269
 20
48.50367411700137
 11
26.9914628221916
 21
52.00367422503479
 72
     1
 10
26.9914628221916
 20
52.00367422503479
 11
25.82479611951379
 21
52.00367422503479
 97
        0
 75
     0
 76
     1
 98
        0
  0
HATCH
  5
149
330
146
100
AcDbEntity
  8
Default
  6
Continuous
 62
     7
100
AcDbHatch
 10
0.0
 20
0.0
 30
0.0
210
0.0
220
0.0
230
1.0
  2
SOLID
 70
     1
 71
     0
 91
        1
 92
        1
 93
        3
 72
     1
 10
25.82479611951379
 20
65.00367356193311
 11
26.9914628221916
 21
65.00367356193311
 72
     1
 10
26.9914628221916
 20
65.00367356193311
 11
26.40812947085269
 21
68.50367366996653
 72
     1
 10
26.40812947085269
 20
68.50367366996653
 11
25.82479611951379
 21
65.00367356193311
 97
        0
 75
     0
 76
     1
 98
        0
  0
LINE
  5
14A
330
146
100
AcDbEntity
  8
Default
  6
Continuous
 62
     7
100
AcDbLine
 10
38.741245965
 20
48.503674117
 30
0.0
 11
24.6581294168
 21
48.503674117
 31
0.0
  0
LINE
  5
14B
330
146
100
AcDbEntity
  8
Default
  6
Continuous
 62
     7
100
AcDbLine
 10
38.741245965
 20
68.503674117
 30
0.0
 11
24.6581294168
 21
68.503674117
 31
0.0
  0
LINE
  5
14C
330
146
100
AcDbEntity
  8
Default
  6
Continuous
 62
     7
100
AcDbLine
 10
26.4081294709
 20
48.503674117
 30
0.0
 11
26.4081294709
 21
68.50367367
 31
0.0
  0
TEXT
  5
14D
330
146
100
AcDbEntity
  8
Default
  6
Continuous
 62
     7
100
AcDbText
 10
25.5331294709
 20
56.4354920753
 30
0.0
 40
3.5
  1
25
 50
90.0
  7
SEACAD_Solid_Edge_ISO
 11
22.0331294709
 21
56.4354920753
 31
0.0
100
AcDbText
 73
     3
  0
ENDBLK
  5
14F
330
146
100
AcDbEntity
  8
0
100
AcDbBlockEnd
  0
BLOCK
  5
153
330
150
100
AcDbEntity
  8
0
100
AcDbBlockBegin
  2
SEANNOT_GROUP
 70
     0
 10
0.0
 20
0.0
 30
0.0
  3
SEANNOT_GROUP
  1

  0
TEXT
  5
152
330
150
100
AcDbEntity
  8
Default
  6
Continuous
 62
     7
100
AcDbText
 10
243.1483969886
 20
25.7525109624
 30
0.0
 40
3.5
  1
712232000
  7
SEACAD_Solid_Edge_ANSIB
 11
243.1483969886
 21
29.2525109624
 31
0.0
100
AcDbText
 73
     3
  0
ENDBLK
  5
154
330
150
100
AcDbEntity
  8
0
100
AcDbBlockEnd
  0
BLOCK
  5
158
330
155
100
AcDbEntity
  8
0
100
AcDbBlockBegin
  2
SEANNOT_GROUP1
 70
     0
 10
0.0
 20
0.0
 30
0.0
  3
SEANNOT_GROUP1
  1

  0
TEXT
  5
157
330
155
100
AcDbEntity
  8
Default
  6
Continuous
 62
     7
100
AcDbText
 10
243.1477357349
 20
20.0537100543
 30
0.0
 40
3.5
  1
14.10.2015
  7
SEACAD_Solid_Edge_ANSI
 11
243.1477357349
 21
23.5537100543
 31
0.0
100
AcDbText
 73
     3
  0
ENDBLK
  5
159
330
155
100
AcDbEntity
  8
0
100
AcDbBlockEnd
  0
BLOCK
  5
15C
330
15A
100
AcDbEntity
  8
0
100
AcDbBlockBegin
  2
SEANNOT_GROUP2
 70
     0
 10
0.0
 20
0.0
 30
0.0
  3
SEANNOT_GROUP2
  1

  0
TEXT
  5
15B
330
15A
100
AcDbEntity
  8
Default
  6
Continuous
 62
     7
100
AcDbText
 10
243.1795282745
 20
31.5598894014
 30
0.0
 40
3.5
  1
DSR 32
  7
SEACAD_Solid_Edge_ANSIB
 11
243.1795282745
 21
35.0598894014
 31
0.0
100
AcDbText
 73
     3
  0
ENDBLK
  5
15D
330
15A
100
AcDbEntity
  8
0
100
AcDbBlockEnd
  0
BLOCK
  5
160
330
15E
100
AcDbEntity
  8
0
100
AcDbBlockBegin
  2
SEANNOT_GROUP3
 70
     0
 10
0.0
 20
0.0
 30
0.0
  3
SEANNOT_GROUP3
  1

  0
TEXT
  5
15F
330
15E
100
AcDbEntity
  8
Default
  6
Continuous
 62
     7
100
AcDbText
 10
243.2357917511
 20
14.1955389783
 30
0.0
 40
3.5
  1
1:1.25
  7
SEACAD_Solid_Edge_ANSI
 11
243.2357917511
 21
17.6955389783
 31
0.0
100
AcDbText
 73
     3
  0
ENDBLK
  5
161
330
15E
100
AcDbEntity
  8
0
100
AcDbBlockEnd
  0
BLOCK
  5
1A8
330
162
100
AcDbEntity
  8
0
100
AcDbBlockBegin
  2
Block1
 70
     0
 10
0.0
 20
0.0
 30
0.0
  3
Block1
  1

  0
LINE
  5
163
330
162
100
AcDbEntity
  8
Default
  6
Continuous
 62
     7
100
AcDbLine
 10
42.3415792923
 20
6.5926277851
 30
0.0
 11
40.225655308
 21
3.525
 31
0.0
  0
LINE
  5
164
330
162
100
AcDbEntity
  8
Default
  6
Continuous
 62
     7
100
AcDbLine
 10
40.225655308
 20
3.525
 30
0.0
 11
41.2882372215
 21
1.9958060288
 31
0.0
  0
LINE
  5
165
330
162
100
AcDbEntity
  8
Default
  6
Continuous
 62
     7
100
AcDbLine
 10
41.2882372215
 20
1.9958060288
 30
0.0
 11
40.2556847969
 21
0.5266710354
 31
0.0
  0
LINE
  5
166
330
162
100
AcDbEntity
  8
Default
  6
Continuous
 62
     7
100
AcDbLine
 10
40.2556847969
 20
0.5266710354
 30
0.0
 11
39.2231323722
 21
2.1459534731
 31
0.0
  0
LINE
  5
167
330
162
100
AcDbEntity
  8
Default
  6
Continuous
 62
     7
100
AcDbLine
 10
39.2231323722
 20
2.1459534731
 30
0.0
 11
37.7031782438
 21
0.0
 31
0.0
  0
LINE
  5
168
330
162
100
AcDbEntity
  8
Default
  6
Continuous
 62
     7
100
AcDbLine
 10
37.7031782438
 20
0.0
 30
0.0
 11
35.6265235911
 21
0.0
 31
0.0
  0
LINE
  5
169
330
162
100
AcDbEntity
  8
Default
  6
Continuous
 62
     7
100
AcDbLine
 10
35.6265235911
 20
0.0
 30
0.0
 11
38.209059633
 21
3.525
 31
0.0
  0
LINE
  5
16A
330
162
100
AcDbEntity
  8
Default
  6
Continuous
 62
     7
100
AcDbLine
 10
38.209059633
 20
3.525
 30
0.0
 11
36.1046854522
 21
6.5926277851
 31
0.0
  0
LINE
  5
16B
330
162
100
AcDbEntity
  8
Default
  6
Continuous
 62
     7
100
AcDbLine
 10
36.1046854522
 20
6.5926277851
 30
0.0
 11
38.209059633
 21
6.5926277851
 31
0.0
  0
LINE
  5
16C
330
162
100
AcDbEntity
  8
Default
  6
Continuous
 62
     7
100
AcDbLine
 10
38.209059633
 20
6.5926277851
 30
0.0
 11
39.2231323722
 21
4.8855668414
 31
0.0
  0
LINE
  5
16D
330
162
100
AcDbEntity
  8
Default
  6
Continuous
 62
     7
100
AcDbLine
 10
39.2231323722
 20
4.8855668414
 30
0.0
 11
40.225655308
 21
6.5926277851
 31
0.0
  0
LINE
  5
16E
330
162
100
AcDbEntity
  8
Default
  6
Continuous
 62
     7
100
AcDbLine
 10
40.225655308
 20
6.5926277851
 30
0.0
 11
42.3415792923
 21
6.5926277851
 31
0.0
  0
SPLINE
  5
16F
330
162
100
AcDbEntity
  8
Default
  6
Continuous
 62
     7
100
AcDbSpline
210
0.0
220
0.0
230
1.0
 70
     8
 71
     3
 72
    13
 73
     9
 74
     0
 42
0.0000000012369638
 43
0.0000000001
 12
1.0
 22
0.0
 32
0.0
 13
1.0
 23
0.0
 33
0.0
 40
0.0
 40
0.0
 40
0.0
 40
0.0
 40
0.9091644120227717
 40
0.9091644120227717
 40
0.9091644120227717
 40
0.9554905618911577
 40
0.9554905618911577
 40
1.0
 40
1.0
 40
1.0
 40
1.0
 10
40.88399410222804
 20
0.427342726081259
 30
0.0
 10
42.29076015727392
 20
2.423148754914811
 30
0.0
 10
43.69752621231979
 20
4.418954783748362
 30
0.0
 10
45.10429226736566
 20
6.414760812581914
 30
0.0
 10
45.18660375034128
 20
6.531537694833034
 30
0.0
 10
45.28446920052424
 20
6.592627785058978
 30
0.0
 10
45.51546526867628
 20
6.592627785058978
 30
0.0
 10
45.61941349934469
 20
6.53256880733945
 30
0.0
 10
45.71181192660551
 20
6.414760812581914
 30
0.0
  0
SPLINE
  5
170
330
162
100
AcDbEntity
  8
Default
  6
Continuous
 62
     7
100
AcDbSpline
210
0.0
220
0.0
230
1.0
 70
     8
 71
     3
 72
    16
 73
    12
 74
     0
 42
0.0000000006014133
 43
0.0000000001
 12
1.0
 22
0.0
 32
0.0
 13
1.0
 23
0.0
 33
0.0
 40
0.0
 40
0.0
 40
0.0
 40
0.0
 40
0.4418652593848311
 40
0.4418652593848311
 40
0.4418652593848311
 40
0.455090010411123
 40
0.455090010411123
 40
0.4811129075918901
 40
0.4811129075918901
 40
0.4811129075918901
 40
1.0
 40
1.0
 40
1.0
 40
1.0
 10
45.71181192660551
 20
6.414760812581914
 30
0.0
 10
47.11857798165137
 20
4.418954783748362
 30
0.0
 10
48.52534403669725
 20
2.42314875491481
 30
0.0
 10
49.93211009174313
 20
0.427342726081259
 30
0.0
 10
49.98455330475264
 20
0.352940532254955
 30
0.0
 10
50.01295871559633
 20
0.281815203145479
 30
0.0
 10
50.01295871559633
 20
0.0692988204456104
 30
0.0
 10
49.91363040629096
 20
0.0000000000000009
 30
0.0
 10
49.71497378768021
 20
0.0000000000000009
 30
0.0
 10
46.84754259501965
 20
0.0000000000000009
 30
0.0
 10
43.98011140235911
 20
0.0000000000000009
 30
0.0
 10
41.11268020969855
 20
0.0000000000000009
 30
0.0
  0
SPLINE
  5
171
330
162
100
AcDbEntity
  8
Default
  6
Continuous
 62
     7
100
AcDbSpline
210
0.0
220
0.0
230
1.0
 70
     8
 71
     3
 72
    11
 73
     7
 74
     0
 42
0.0000000141737466
 43
0.0000000001
 12
1.0
 22
0.0
 32
0.0
 13
1.0
 23
0.0
 33
0.0
 40
0.0
 40
0.0
 40
0.0
 40
0.0
 40
0.6560933575639865
 40
0.6560933575639865
 40
0.6560933575639865
 40
1.0
 40
1.0
 40
1.0
 40
1.0
 10
41.11268020969855
 20
0.0000000000000009
 30
0.0
 10
40.90709370904325
 20
0.0000000000000009
 30
0.0
 10
40.80545543905635
 20
0.0739187418086509
 30
0.0
 10
40.80314547837483
 20
0.2194462647444313
 30
0.0
 10
40.80230295367286
 20
0.2725253209688669
 30
0.0
 10
40.83086500655307
 20
0.3418741808650076
 30
0.0
 10
40.88399410222804
 20
0.427342726081259
 30
0.0
  0
LINE
  5
172
330
162
100
AcDbEntity
  8
Default
  6
Continuous
 62
     7
100
AcDbLine
 10
35.1853211009
 20
6.6087975098
 30
0.0
 11
35.1853211009
 21
0.0
 31
0.0
  0
SPLINE
  5
173
330
162
100
AcDbEntity
  8
Default
  6
Continuous
 62
     7
100
AcDbSpline
210
0.0
220
0.0
230
1.0
 70
     8
 71
     3
 72
    14
 73
    10
 74
     0
 42
0.0000000052950889
 43
0.0000000001
 12
1.0
 22
0.0
 32
0.0
 13
1.0
 23
0.0
 33
0.0
 40
0.0
 40
0.0
 40
0.0
 40
0.0
 40
0.1210177131110554
 40
0.1210177131110554
 40
0.1210177131110554
 40
0.2419901306838391
 40
0.2419901306838391
 40
0.2419901306838391
 40
1.0
 40
1.0
 40
1.0
 40
1.0
 10
33.47364023591088
 20
6.320052424639582
 30
0.0
 10
33.47364023591088
 20
6.400901048492791
 30
0.0
 10
33.50135976408912
 20
6.467889908256881
 30
0.0
 10
33.55910878112713
 20
6.523328964613368
 30
0.0
 10
33.61680971405436
 20
6.578721860223512
 30
0.0
 10
33.68153669724771
 20
6.608797509829621
 30
0.0
 10
33.76238532110091
 20
6.608797509829621
 30
0.0
 10
34.23669724770642
 20
6.608797509829621
 30
0.0
 10
34.71100917431193
 20
6.608797509829621
 30
0.0
 10
35.18532110091743
 20
6.608797509829621
 30
0.0
  0
LINE
  5
174
330
162
100
AcDbEntity
  8
Default
  6
Continuous
 62
     7
100
AcDbLine
 10
33.4736402359
 20
0.0
 30
0.0
 11
33.4736402359
 21
6.3200524246
 31
0.0
  0
LINE
  5
175
330
162
100
AcDbEntity
  8
Default
  6
Continuous
 62
     7
100
AcDbLine
 10
35.1853211009
 20
0.0
 30
0.0
 11
33.4736402359
 21
0.0
 31
0.0
  0
SPLINE
  5
176
330
162
100
AcDbEntity
  8
Default
  6
Continuous
 62
     7
100
AcDbSpline
210
0.0
220
0.0
230
1.0
 70
     8
 71
     3
 72
    16
 73
    12
 74
     0
 42
0.0000000009758823
 43
0.0000000001
 12
1.0
 22
0.0
 32
0.0
 13
1.0
 23
0.0
 33
0.0
 40
0.0
 40
0.0
 40
0.0
 40
0.0
 40
0.6159054655977501
 40
0.6159054655977501
 40
0.6159054655977501
 40
0.6376683166669079
 40
0.6376683166669079
 40
0.6603379531972834
 40
0.6603379531972834
 40
0.6603379531972834
 40
1.0
 40
1.0
 40
1.0
 40
1.0
 10
28.82137942332896
 20
0.0
 30
0.0
 10
28.82137942332896
 20
2.101294233289646
 30
0.0
 10
28.82137942332896
 20
4.202588466579293
 30
0.0
 10
28.82137942332896
 20
6.303882699868939
 30
0.0
 10
28.82137942332896
 20
6.38473132372215
 30
0.0
 10
28.84909895150721
 20
6.451720183486239
 30
0.0
 10
28.96228702490171
 20
6.564908256880734
 30
0.0
 10
29.02927588466579
 20
6.592627785058978
 30
0.0
 10
29.110124508519
 20
6.592627785058978
 30
0.0
 10
30.26895478374836
 20
6.592627785058978
 30
0.0
 10
31.42778505897771
 20
6.592627785058978
 30
0.0
 10
32.58661533420707
 20
6.592627785058978
 30
0.0
  0
LINE
  5
177
330
162
100
AcDbEntity
  8
Default
  6
Continuous
 62
     7
100
AcDbLine
 10
30.5399901704
 20
0.0
 30
0.0
 11
28.8213794233
 21
0.0
 31
0.0
  0
LINE
  5
178
330
162
100
AcDbEntity
  8
Default
  6
Continuous
 62
     7
100
AcDbLine
 10
30.5399901704
 20
2.5848460026
 30
0.0
 11
30.5399901704
 21
0.0
 31
0.0
  0
LINE
  5
179
330
162
100
AcDbEntity
  8
Default
  6
Continuous
 62
     7
100
AcDbLine
 10
32.4872870249
 20
2.5848460026
 30
0.0
 11
30.5399901704
 21
2.5848460026
 31
0.0
  0
LINE
  5
17A
330
162
100
AcDbEntity
  8
Default
  6
Continuous
 62
     7
100
AcDbLine
 10
32.4872870249
 20
4.0424311927
 30
0.0
 11
32.4872870249
 21
2.5848460026
 31
0.0
  0
LINE
  5
17B
330
162
100
AcDbEntity
  8
Default
  6
Continuous
 62
     7
100
AcDbLine
 10
30.5399901704
 20
4.0424311927
 30
0.0
 11
32.4872870249
 21
4.0424311927
 31
0.0
  0
LINE
  5
17C
330
162
100
AcDbEntity
  8
Default
  6
Continuous
 62
     7
100
AcDbLine
 10
30.5399901704
 20
5.1419724771
 30
0.0
 11
30.5399901704
 21
4.0424311927
 31
0.0
  0
LINE
  5
17D
330
162
100
AcDbEntity
  8
Default
  6
Continuous
 62
     7
100
AcDbLine
 10
32.5866153342
 20
5.1419724771
 30
0.0
 11
30.5399901704
 21
5.1419724771
 31
0.0
  0
LINE
  5
17E
330
162
100
AcDbEntity
  8
Default
  6
Continuous
 62
     7
100
AcDbLine
 10
32.5866153342
 20
6.5926277851
 30
0.0
 11
32.5866153342
 21
5.1419724771
 31
0.0
  0
LINE
  5
17F
330
162
100
AcDbEntity
  8
Default
  6
Continuous
 62
     7
100
AcDbLine
 10
28.0706422018
 20
4.0424311927
 30
0.0
 11
28.0706422018
 21
2.5848460026
 31
0.0
  0
LINE
  5
180
330
162
100
AcDbEntity
  8
Default
  6
Continuous
 62
     7
100
AcDbLine
 10
25.9362385321
 20
4.0424311927
 30
0.0
 11
28.0706422018
 21
4.0424311927
 31
0.0
  0
LINE
  5
181
330
162
100
AcDbEntity
  8
Default
  6
Continuous
 62
     7
100
AcDbLine
 10
25.9362385321
 20
2.5848460026
 30
0.0
 11
25.9362385321
 21
4.0424311927
 31
0.0
  0
LINE
  5
182
330
162
100
AcDbEntity
  8
Default
  6
Continuous
 62
     7
100
AcDbLine
 10
28.0706422018
 20
2.5848460026
 30
0.0
 11
25.9362385321
 21
2.5848460026
 31
0.0
  0
SPLINE
  5
183
330
162
100
AcDbEntity
  8
Default
  6
Continuous
 62
     7
100
AcDbSpline
210
0.0
220
0.0
230
1.0
 70
    11
 71
     3
 72
    47
 73
    43
 74
     0
 42
0.0000000008494054
 43
0.0000000001
 12
1.0
 22
0.0
 32
0.0
 13
1.0
 23
0.0
 33
0.0
 40
0.0
 40
0.0
 40
0.0
 40
0.0
 40
0.0637917384076936
 40
0.0637917384076936
 40
0.0637917384076936
 40
0.1265834997779105
 40
0.1265834997779105
 40
0.1893752611481286
 40
0.1893752611481286
 40
0.1893752611481286
 40
0.2604081010642026
 40
0.2604081010642026
 40
0.3159741129340349
 40
0.3159741129340349
 40
0.3159741129340349
 40
0.3751091105868484
 40
0.3751091105868484
 40
0.3751091105868484
 40
0.435995169879425
 40
0.435995169879425
 40
0.435995169879425
 40
0.4997689343159713
 40
0.4997689343159713
 40
0.5635426987525196
 40
0.5635426987525196
 40
0.5635426987525196
 40
0.624232315369434
 40
0.624232315369434
 40
0.624232315369434
 40
0.6835869381889372
 40
0.6835869381889372
 40
0.6835869381889372
 40
0.7357943705008892
 40
0.7357943705008892
 40
0.8025337685079206
 40
0.8025337685079206
 40
0.8692731665149518
 40
0.8692731665149518
 40
0.9360125645219831
 40
0.9360125645219831
 40
0.9360125645219831
 40
1.0
 40
1.0
 40
1.0
 40
1.0
 10
21.44336500655308
 20
1.450655307994758
 30
0.0
 10
21.70208060288335
 20
1.450655307994758
 30
0.0
 10
21.94462647444299
 20
1.501474442988205
 30
0.0
 10
22.16869266055046
 20
1.600802752293579
 30
0.0
 10
22.39468942225328
 20
1.700986883770089
 30
0.0
 10
22.5937254259502
 20
1.836418741808651
 30
0.0
 10
22.93097968545217
 20
2.187532765399738
 30
0.0
 10
23.06495740498034
 20
2.395429226736567
 30
0.0
 10
23.15966579292267
 20
2.63335517693316
 30
0.0
 10
23.25469013236262
 20
2.87207485894082
 30
0.0
 10
23.30519331585845
 20
3.132306684141548
 30
0.0
 10
23.30519331585845
 20
3.642807994757537
 30
0.0
 10
23.25668414154652
 20
3.862254259501967
 30
0.0
 10
23.15966579292267
 20
4.074770642201835
 30
0.0
 10
23.06391850987524
 20
4.284502786020031
 30
0.0
 10
22.93097968545217
 20
4.472083879423329
 30
0.0
 10
22.76235255570118
 20
4.636091087811272
 30
0.0
 10
22.59487996078263
 20
4.798975392458079
 30
0.0
 10
22.39506880733945
 20
4.927146133682831
 30
0.0
 10
22.16869266055046
 20
5.021854521625164
 30
0.0
 10
21.94345992894685
 20
5.116084541989939
 30
0.0
 10
21.70208060288335
 20
5.167382044560944
 30
0.0
 10
21.18464941022281
 20
5.167382044560944
 30
0.0
 10
20.94210353866317
 20
5.118872870249017
 30
0.0
 10
20.71572739187418
 20
5.021854521625164
 30
0.0
 10
20.49213912866634
 20
4.926030980250372
 30
0.0
 10
20.29300458715597
 20
4.797788335517694
 30
0.0
 10
20.12437745740498
 20
4.636091087811272
 30
0.0
 10
19.95459636352431
 20
4.473287299158574
 30
0.0
 10
19.82177260812581
 20
4.284977064220183
 30
0.0
 10
19.72244429882045
 20
4.074770642201835
 30
0.0
 10
19.62222370164274
 20
3.86267589003505
 30
0.0
 10
19.57229685452162
 20
3.642807994757537
 30
0.0
 10
19.57229685452162
 20
3.132306684141548
 30
0.0
 10
19.62311598951508
 20
2.871281127129752
 30
0.0
 10
19.82177260812581
 20
2.395429226736567
 30
0.0
 10
19.95575032765399
 20
2.187532765399738
 30
0.0
 10
20.29300458715597
 20
1.836418741808651
 30
0.0
 10
20.49166120576671
 20
1.700131061598952
 30
0.0
 10
20.71572739187418
 20
1.600802752293579
 30
0.0
 10
20.941724153577
 20
1.500618620817073
 30
0.0
 10
21.18464941022281
 20
1.450655307994758
 30
0.0
 10
21.44336500655308
 20
1.450655307994758
 30
0.0
  0
SPLINE
  5
184
330
162
100
AcDbEntity
  8
Default
  6
Continuous
 62
     7
100
AcDbSpline
210
0.0
220
0.0
230
1.0
 70
    11
 71
     3
 72
    49
 73
    45
 74
     0
 42
0.0000000004385322
 43
0.0000000001
 12
1.0
 22
0.0
 32
0.0
 13
1.0
 23
0.0
 33
0.0
 40
0.0
 40
0.0
 40
0.0
 40
0.0
 40
0.0617996483207596
 40
0.0617996483207596
 40
0.0617996483207596
 40
0.1220737652654132
 40
0.1220737652654132
 40
0.1220737652654132
 40
0.1820249318660078
 40
0.1820249318660078
 40
0.1820249318660078
 40
0.2438982680995642
 40
0.2438982680995642
 40
0.3109516975991858
 40
0.3109516975991858
 40
0.3109516975991858
 40
0.3722543214771952
 40
0.3722543214771952
 40
0.3722543214771952
 40
0.4335172266527087
 40
0.4335172266527087
 40
0.4335172266527087
 40
0.4994898970728853
 40
0.4994898970728853
 40
0.5657506577569065
 40
0.5657506577569065
 40
0.5657506577569065
 40
0.626961718898901
 40
0.626961718898901
 40
0.6886100019061948
 40
0.6886100019061948
 40
0.6886100019061948
 40
0.7556907268882871
 40
0.7556907268882871
 40
0.8175892499404324
 40
0.8175892499404324
 40
0.8175892499404324
 40
0.8774725210786118
 40
0.8774725210786118
 40
0.8774725210786118
 40
0.9379094648157675
 40
0.9379094648157675
 40
0.9379094648157675
 40
1.0
 40
1.0
 40
1.0
 40
1.0
 10
21.44336500655308
 20
6.83055373525557
 30
0.0
 10
21.91919464291449
 20
6.832852429151036
 30
0.0
 10
22.37658912188729
 20
6.745085190039319
 30
0.0
 10
22.81317169069462
 20
6.581077981651377
 30
0.0
 10
23.25051470703607
 20
6.416785102496653
 30
0.0
 10
23.63782765399738
 20
6.181454783748363
 30
0.0
 10
23.97508191349934
 20
5.878849934469201
 30
0.0
 10
24.31246764930903
 20
5.576127116722139
 30
0.0
 10
24.58491153342071
 20
5.218201179554391
 30
0.0
 10
24.78587811271298
 20
4.800098296199214
 30
0.0
 10
24.9863762849025
 20
4.38296991497732
 30
0.0
 10
25.08848296199213
 20
3.926933158584535
 30
0.0
 10
25.08848296199213
 20
2.892070773263434
 30
0.0
 10
24.99839449541284
 20
2.402359108781128
 30
0.0
 10
24.81590760157274
 20
1.958846657929228
 30
0.0
 10
24.63260786737497
 20
1.513358696334639
 30
0.0
 10
24.38163499344692
 20
1.129570773263435
 30
0.0
 10
24.06055045871559
 20
0.8038663171690699
 30
0.0
 10
23.7406207864759
 20
0.4793333402928437
 30
0.0
 10
23.3560124508519
 20
0.2286861074705122
 30
0.0
 10
22.90788007863696
 20
0.0485091743119273
 30
0.0
 10
22.46253572118054
 20
-0.1305468044592142
 30
0.0
 10
21.97234600262123
 20
-0.2194462647444295
 30
0.0
 10
20.91207404980341
 20
-0.2194462647444295
 30
0.0
 10
20.42467234600262
 20
-0.1293577981651364
 30
0.0
 10
19.9788499344692
 20
0.0485091743119273
 30
0.0
 10
19.53023971314575
 20
0.2274883817829441
 30
0.0
 10
19.14495412844037
 20
0.4804718217562263
 30
0.0
 10
18.49585517693316
 20
1.129570773263435
 30
0.0
 10
18.24406946264745
 20
1.513024246395807
 30
0.0
 10
18.06158256880734
 20
1.958846657929228
 30
0.0
 10
17.87990551563201
 20
2.402690597965156
 30
0.0
 10
17.78669724770642
 20
2.892070773263434
 30
0.0
 10
17.78669724770642
 20
3.926933158584535
 30
0.0
 10
17.88833551769332
 20
4.384305373525557
 30
0.0
 10
18.0916120576671
 20
4.800098296199214
 30
0.0
 10
18.2953544565906
 20
5.21684411217912
 30
0.0
 10
18.56284403669725
 20
5.57855504587156
 30
0.0
 10
18.90009829619921
 20
5.878849934469201
 30
0.0
 10
19.23849979910015
 20
6.18016634116182
 30
0.0
 10
19.62773591087812
 20
6.414760812581914
 30
0.0
 10
20.06662844036697
 20
6.581077981651377
 30
0.0
 10
20.50677543450266
 20
6.747870526797538
 30
0.0
 10
20.96520314547837
 20
6.82824377457405
 30
0.0
 10
21.44336500655308
 20
6.83055373525557
 30
0.0
  0
LINE
  5
185
330
162
100
AcDbEntity
  8
Default
  6
Continuous
 62
     7
100
AcDbLine
 10
15.3335190039
 20
2.3145806029
 30
0.0
 11
13.8343545216
 21
2.3145806029
 31
0.0
  0
SPLINE
  5
186
330
162
100
AcDbEntity
  8
Default
  6
Continuous
 62
     7
100
AcDbSpline
210
0.0
220
0.0
230
1.0
 70
     8
 71
     3
 72
    43
 73
    39
 74
     0
 42
0.0000000009932047
 43
0.0000000001
 12
1.0
 22
0.0
 32
0.0
 13
1.0
 23
0.0
 33
0.0
 40
0.0
 40
0.0
 40
0.0
 40
0.0
 40
0.0949373847537602
 40
0.0949373847537602
 40
0.0949373847537602
 40
0.1911787086491429
 40
0.1911787086491429
 40
0.2677918678027036
 40
0.2677918678027036
 40
0.2677918678027036
 40
0.3406026976746725
 40
0.3406026976746725
 40
0.3406026976746725
 40
0.4151543081273698
 40
0.4151543081273698
 40
0.4151543081273698
 40
0.4895478942304584
 40
0.4895478942304584
 40
0.5659890102262922
 40
0.5659890102262922
 40
0.6424301262221261
 40
0.6424301262221261
 40
0.6424301262221261
 40
0.714798401889747
 40
0.714798401889747
 40
0.714798401889747
 40
0.7953127750919691
 40
0.7953127750919691
 40
0.8472575319966263
 40
0.8472575319966263
 40
0.8472575319966263
 40
0.898191982468852
 40
0.898191982468852
 40
0.898191982468852
 40
0.9471592991231073
 40
0.9471592991231073
 40
0.9471592991231073
 40
1.0
 40
1.0
 40
1.0
 40
1.0
 10
15.25498034076016
 20
4.25956749672346
 30
0.0
 10
15.1348623853211
 20
4.578342070773264
 30
0.0
 10
14.95468545216252
 20
4.832437745740499
 30
0.0
 10
14.7144495412844
 20
5.024164482306685
 30
0.0
 10
14.47167626156505
 20
5.217916234390401
 30
0.0
 10
14.17622870249017
 20
5.312909567496725
 30
0.0
 10
13.54560943643512
 20
5.312909567496725
 30
0.0
 10
13.30075360419397
 20
5.252850589777196
 30
0.0
 10
13.08361730013106
 20
5.13042267365662
 30
0.0
 10
12.86823374940279
 20
5.008983012075785
 30
0.0
 10
12.69092398427261
 20
4.84629750982962
 30
0.0
 10
12.54770642201835
 20
4.647640891218874
 30
0.0
 10
12.40527884987617
 20
4.450080065344236
 30
0.0
 10
12.29823066841416
 20
4.227228047182176
 30
0.0
 10
12.22662188728703
 20
3.980062254259503
 30
0.0
 10
12.15421681189757
 20
3.730147961786198
 30
0.0
 10
12.11574377457405
 20
3.481110747051115
 30
0.0
 10
12.11574377457405
 20
2.970609436435126
 30
0.0
 10
12.15501310615989
 20
2.721133682830931
 30
0.0
 10
12.30747051114023
 20
2.231422018348625
 30
0.0
 10
12.41834862385321
 20
2.009665792922674
 30
0.0
 10
12.56387614678899
 20
1.815629095674968
 30
0.0
 10
12.7105124508519
 20
1.620114023591089
 30
0.0
 10
12.88958060288335
 20
1.46220511140236
 30
0.0
 10
13.10440694626475
 20
1.344397116644824
 30
0.0
 10
13.32020716906946
 20
1.226055058977723
 30
0.0
 10
13.56870904325033
 20
1.16653014416776
 30
0.0
 10
14.03994102228047
 20
1.16653014416776
 30
0.0
 10
14.21780799475754
 20
1.189629750982963
 30
0.0
 10
14.39105504587156
 20
1.240448885976409
 30
0.0
 10
14.5615512434976
 20
1.290461103946714
 30
0.0
 10
14.7144495412844
 20
1.362876802096987
 30
0.0
 10
14.84842726081258
 20
1.457585190039319
 30
0.0
 10
14.98086470130555
 20
1.551204760042966
 30
0.0
 10
15.08866317169069
 20
1.672411533420708
 30
0.0
 10
15.17644167758847
 20
1.815629095674968
 30
0.0
 10
15.26256022686942
 20
1.956138307659666
 30
0.0
 10
15.31503931847969
 20
2.12285386631717
 30
0.0
 10
15.33351900393184
 20
2.314580602883356
 30
0.0
  0
LINE
  5
187
330
162
100
AcDbEntity
  8
Default
  6
Continuous
 62
     7
100
AcDbLine
 10
16.8835026212
 20
4.9456258191
 30
0.0
 11
15.2549803408
 21
4.2595674967
 31
0.0
  0
SPLINE
  5
188
330
162
100
AcDbEntity
  8
Default
  6
Continuous
 62
     7
100
AcDbSpline
210
0.0
220
0.0
230
1.0
 70
     8
 71
     3
 72
    51
 73
    47
 74
     0
 42
0.0000000004766382
 43
0.0000000001
 12
1.0
 22
0.0
 32
0.0
 13
1.0
 23
0.0
 33
0.0
 40
0.0
 40
0.0
 40
0.0
 40
0.0
 40
0.0095402040290222
 40
0.0095402040290222
 40
0.0095402040290222
 40
0.0400756007423482
 40
0.0400756007423482
 40
0.0400756007423482
 40
0.0693620114069116
 40
0.0693620114069116
 40
0.0986484220714753
 40
0.0986484220714753
 40
0.0986484220714753
 40
0.1302632519246672
 40
0.1302632519246672
 40
0.1302632519246672
 40
0.2055179711079718
 40
0.2055179711079718
 40
0.2055179711079718
 40
0.281182745691462
 40
0.281182745691462
 40
0.3511962093102096
 40
0.3511962093102096
 40
0.3511962093102096
 40
0.4149417185613706
 40
0.4149417185613706
 40
0.4149417185613706
 40
0.4786592191897758
 40
0.4786592191897758
 40
0.4786592191897758
 40
0.5478830793697405
 40
0.5478830793697405
 40
0.6199007276287178
 40
0.6199007276287178
 40
0.6199007276287178
 40
0.6846819262147057
 40
0.6846819262147057
 40
0.6846819262147057
 40
0.7494892886116509
 40
0.7494892886116509
 40
0.7494892886116509
 40
0.8193637744922013
 40
0.8193637744922013
 40
0.9096818872461009
 40
0.9096818872461009
 40
1.0
 40
1.0
 40
1.0
 40
1.0
 10
17.14221821756225
 20
3.658977719528179
 30
0.0
 10
17.14221821756225
 20
3.59275884665793
 30
0.0
 10
17.14221821756225
 20
3.526539973787681
 30
0.0
 10
17.14221821756225
 20
3.460321100917432
 30
0.0
 10
17.14221821756225
 20
3.243184796854522
 30
0.0
 10
17.12835845347313
 20
3.030668414154654
 30
0.0
 10
17.11680865006553
 20
2.825081913499345
 30
0.0
 10
17.10526611434193
 20
2.619624777619178
 30
0.0
 10
17.08446920052425
 20
2.41852883355177
 30
0.0
 10
17.01055045871559
 20
2.021215596330276
 30
0.0
 10
16.95742136304062
 20
1.824868938401049
 30
0.0
 10
16.88350262123198
 20
1.633142201834863
 30
0.0
 10
16.80988280520848
 20
1.442190804023907
 30
0.0
 10
16.70563564875491
 20
1.249688728702491
 30
0.0
 10
16.5670380078637
 20
1.057961992136305
 30
0.0
 10
16.23809819736261
 20
0.6029285876097794
 30
0.0
 10
15.84633027522936
 20
0.2679554390563577
 30
0.0
 10
15.37971821756225
 20
0.06467889908257
 30
0.0
 10
14.91226036066398
 20
-0.1389661078830131
 30
0.0
 10
14.40029488859764
 20
-0.2425458715596323
 30
0.0
 10
13.32847313237222
 20
-0.2425458715596323
 30
0.0
 10
12.85262123197903
 20
-0.1593872870249009
 30
0.0
 10
12.41834862385321
 20
0.0092398427260818
 30
0.0
 10
11.9860833240235
 20
0.1770875389365569
 30
0.0
 10
11.61448230668415
 20
0.4157929226736576
 30
0.0
 10
11.30725753604194
 20
0.7183977719528185
 30
0.0
 10
10.99887791762487
 20
1.022140102874894
 30
0.0
 10
10.76210681520315
 20
1.39059633027523
 30
0.0
 10
10.58885976408912
 20
1.822558977719529
 30
0.0
 10
10.41673087643255
 20
2.251733670943243
 30
0.0
 10
10.33245412844037
 20
2.725753604193972
 30
0.0
 10
10.33245412844037
 20
3.776785714285715
 30
0.0
 10
10.41792267365662
 20
4.264187418086501
 30
0.0
 10
10.58885976408912
 20
4.700769986893841
 30
0.0
 10
10.76010389980871
 20
5.138136765961434
 30
0.0
 10
11.00465268676278
 20
5.511566186107471
 30
0.0
 10
11.31880733944954
 20
5.823410878112714
 30
0.0
 10
11.6318070432484
 20
6.134109113501288
 30
0.0
 10
12.00948558322411
 20
6.373181520314549
 30
0.0
 10
12.44837811271297
 20
6.544118610747052
 30
0.0
 10
12.88849518360602
 20
6.715532627831713
 30
0.0
 10
13.37467234600262
 20
6.795904325032767
 30
0.0
 10
14.58740170380079
 20
6.795904325032767
 30
0.0
 10
15.18106159895151
 20
6.643446920052426
 30
0.0
 10
16.20206422018348
 20
6.033617300131063
 30
0.0
 10
16.59937745740498
 20
5.56931520314548
 30
0.0
 10
16.88350262123198
 20
4.945625819134994
 30
0.0
  0
LINE
  5
189
330
162
100
AcDbEntity
  8
Default
  6
Continuous
 62
     7
100
AcDbLine
 10
13.8343545216
 20
3.6589777195
 30
0.0
 11
17.1422182176
 21
3.6589777195
 31
0.0
  0
LINE
  5
18A
330
162
100
AcDbEntity
  8
Default
  6
Continuous
 62
     7
100
AcDbLine
 10
13.8343545216
 20
2.3145806029
 30
0.0
 11
13.8343545216
 21
3.6589777195
 31
0.0
  0
SPLINE
  5
18B
330
162
100
AcDbEntity
  8
Default
  6
Continuous
 62
     7
100
AcDbSpline
210
0.0
220
0.0
230
1.0
 70
     8
 71
     3
 72
    16
 73
    12
 74
     0
 42
0.000000000976763
 43
0.0000000001
 12
1.0
 22
0.0
 32
0.0
 13
1.0
 23
0.0
 33
0.0
 40
0.0
 40
0.0
 40
0.0
 40
0.0
 40
0.6164577788718584
 40
0.6164577788718584
 40
0.6164577788718584
 40
0.6381328433885463
 40
0.6381328433885463
 40
0.6607110355934293
 40
0.6607110355934293
 40
0.6607110355934293
 40
1.0
 40
1.0
 40
1.0
 40
1.0
 10
6.022067496723459
 20
0.0000000000000018
 30
0.0
 10
6.022067496723459
 20
2.101294233289647
 30
0.0
 10
6.022067496723459
 20
4.202588466579293
 30
0.0
 10
6.022067496723459
 20
6.303882699868939
 30
0.0
 10
6.022067496723459
 20
6.38473132372215
 30
0.0
 10
6.049787024901704
 20
6.451720183486239
 30
0.0
 10
6.162975098296197
 20
6.564908256880734
 30
0.0
 10
6.229963958060289
 20
6.592627785058978
 30
0.0
 10
6.30850262123198
 20
6.592627785058978
 30
0.0
 10
7.465022935779817
 20
6.592627785058978
 30
0.0
 10
8.621543250327658
 20
6.592627785058978
 30
0.0
 10
9.778063564875495
 20
6.592627785058978
 30
0.0
  0
LINE
  5
18C
330
162
100
AcDbEntity
  8
Default
  6
Continuous
 62
     7
100
AcDbLine
 10
9.7780635649
 20
0.0
 30
0.0
 11
6.0220674967
 21
0.0
 31
0.0
  0
LINE
  5
18D
330
162
100
AcDbEntity
  8
Default
  6
Continuous
 62
     7
100
AcDbLine
 10
9.7780635649
 20
1.450655308
 30
0.0
 11
9.7780635649
 21
0.0
 31
0.0
  0
LINE
  5
18E
330
162
100
AcDbEntity
  8
Default
  6
Continuous
 62
     7
100
AcDbLine
 10
7.731438401
 20
1.450655308
 30
0.0
 11
9.7780635649
 21
1.450655308
 31
0.0
  0
LINE
  5
18F
330
162
100
AcDbEntity
  8
Default
  6
Continuous
 62
     7
100
AcDbLine
 10
7.731438401
 20
2.5848460026
 30
0.0
 11
7.731438401
 21
1.450655308
 31
0.0
  0
LINE
  5
190
330
162
100
AcDbEntity
  8
Default
  6
Continuous
 62
     7
100
AcDbLine
 10
9.6787352556
 20
2.5848460026
 30
0.0
 11
7.731438401
 21
2.5848460026
 31
0.0
  0
LINE
  5
191
330
162
100
AcDbEntity
  8
Default
  6
Continuous
 62
     7
100
AcDbLine
 10
9.6787352556
 20
4.0424311927
 30
0.0
 11
9.6787352556
 21
2.5848460026
 31
0.0
  0
LINE
  5
192
330
162
100
AcDbEntity
  8
Default
  6
Continuous
 62
     7
100
AcDbLine
 10
7.731438401
 20
4.0424311927
 30
0.0
 11
9.6787352556
 21
4.0424311927
 31
0.0
  0
LINE
  5
193
330
162
100
AcDbEntity
  8
Default
  6
Continuous
 62
     7
100
AcDbLine
 10
7.731438401
 20
5.1419724771
 30
0.0
 11
7.731438401
 21
4.0424311927
 31
0.0
  0
LINE
  5
194
330
162
100
AcDbEntity
  8
Default
  6
Continuous
 62
     7
100
AcDbLine
 10
9.7780635649
 20
5.1419724771
 30
0.0
 11
7.731438401
 21
5.1419724771
 31
0.0
  0
LINE
  5
195
330
162
100
AcDbEntity
  8
Default
  6
Continuous
 62
     7
100
AcDbLine
 10
9.7780635649
 20
6.5926277851
 30
0.0
 11
9.7780635649
 21
5.1419724771
 31
0.0
  0
LINE
  5
196
330
162
100
AcDbEntity
  8
Default
  6
Continuous
 62
     7
100
AcDbLine
 10
1.7093709043
 20
5.280570118
 30
0.0
 11
1.7093709043
 21
3.6312581913
 31
0.0
  0
LINE
  5
197
330
162
100
AcDbEntity
  8
Default
  6
Continuous
 62
     7
100
AcDbLine
 10
1.7093709043
 20
3.6312581913
 30
0.0
 11
1.8803079948
 21
3.6312581913
 31
0.0
  0
SPLINE
  5
198
330
162
100
AcDbEntity
  8
Default
  6
Continuous
 62
     7
100
AcDbSpline
210
0.0
220
0.0
230
1.0
 70
     8
 71
     3
 72
    29
 73
    25
 74
     0
 42
0.0000000028633018
 43
0.0000000001
 12
1.0
 22
0.0
 32
0.0
 13
1.0
 23
0.0
 33
0.0
 40
0.0
 40
0.0
 40
0.0
 40
0.0
 40
0.1203556671631279
 40
0.1203556671631279
 40
0.1203556671631279
 40
0.2363519504887718
 40
0.2363519504887718
 40
0.2363519504887718
 40
0.3551316836966588
 40
0.3551316836966588
 40
0.4739114169045465
 40
0.4739114169045465
 40
0.5942337440501996
 40
0.5942337440501996
 40
0.7145560711958533
 40
0.7145560711958533
 40
0.7145560711958533
 40
0.8303426976884648
 40
0.8303426976884648
 40
0.8303426976884648
 40
0.9506957818555967
 40
0.9506957818555967
 40
0.9506957818555967
 40
1.0
 40
1.0
 40
1.0
 40
1.0
 10
1.880307994757537
 20
3.631258191349935
 30
0.0
 10
2.018905635648757
 20
3.631258191349935
 30
0.0
 10
2.157503276539977
 20
3.640498034076017
 30
0.0
 10
2.296100917431193
 20
3.661287680209699
 30
0.0
 10
2.436957688573287
 20
3.682416195881014
 30
0.0
 10
2.564056356487548
 20
3.719036697247708
 30
0.0
 10
2.679554390563567
 20
3.776785714285715
 30
0.0
 10
2.795976408912189
 20
3.834996723460025
 30
0.0
 10
2.889760812581915
 20
3.915383355176934
 30
0.0
 10
3.028358453473135
 20
4.132519659239843
 30
0.0
 10
3.063007863695937
 20
4.278047182175624
 30
0.0
 10
3.063007863695937
 20
4.636091087811272
 30
0.0
 10
3.028358453473135
 20
4.779308650065532
 30
0.0
 10
2.889760812581915
 20
4.996444954128441
 30
0.0
 10
2.797362385321101
 20
5.079603538663172
 30
0.0
 10
2.679554390563567
 20
5.13735255570118
 30
0.0
 10
2.564521785639126
 20
5.193741087526886
 30
0.0
 10
2.437008519003932
 20
5.229750982961993
 30
0.0
 10
2.296100917431193
 20
5.250540629095676
 30
0.0
 10
2.157454063805833
 20
5.270996722253517
 30
0.0
 10
2.018905635648757
 20
5.28057011795544
 30
0.0
 10
1.880307994757537
 20
5.28057011795544
 30
0.0
 10
1.823328964613371
 20
5.28057011795544
 30
0.0
 10
1.766349934469201
 20
5.28057011795544
 30
0.0
 10
1.709370904325031
 20
5.28057011795544
 30
0.0
  0
LINE
  5
199
330
162
100
AcDbEntity
  8
Default
  6
Continuous
 62
     7
100
AcDbLine
 10
1.7093709043
 20
0.0
 30
0.0
 11
0.0
 21
0.0
 31
0.0
  0
LINE
  5
19A
330
162
100
AcDbEntity
  8
Default
  6
Continuous
 62
     7
100
AcDbLine
 10
1.7093709043
 20
2.5340268676
 30
0.0
 11
1.7093709043
 21
0.0
 31
0.0
  0
LINE
  5
19B
330
162
100
AcDbEntity
  8
Default
  6
Continuous
 62
     7
100
AcDbLine
 10
3.3402031455
 20
0.0
 30
0.0
 11
1.7093709043
 21
2.5340268676
 31
0.0
  0
LINE
  5
19C
330
162
100
AcDbEntity
  8
Default
  6
Continuous
 62
     7
100
AcDbLine
 10
5.4769167759
 20
0.0
 30
0.0
 11
3.3402031455
 21
0.0
 31
0.0
  0
LINE
  5
19D
330
162
100
AcDbEntity
  8
Default
  6
Continuous
 62
     7
100
AcDbLine
 10
3.4002621232
 20
2.7003440367
 30
0.0
 11
5.4769167759
 21
0.0
 31
0.0
  0
SPLINE
  5
19E
330
162
100
AcDbEntity
  8
Default
  6
Continuous
 62
     7
100
AcDbSpline
210
0.0
220
0.0
230
1.0
 70
     8
 71
     3
 72
    39
 73
    35
 74
     0
 42
0.0000000006617465
 43
0.0000000001
 12
1.0
 22
0.0
 32
0.0
 13
1.0
 23
0.0
 33
0.0
 40
0.0
 40
0.0
 40
0.0
 40
0.0
 40
0.4184837171182216
 40
0.4184837171182216
 40
0.4184837171182216
 40
0.4329116956232541
 40
0.4329116956232541
 40
0.447940839899329
 40
0.447940839899329
 40
0.447940839899329
 40
0.5989875461512338
 40
0.5989875461512338
 40
0.5989875461512338
 40
0.65983019696195
 40
0.65983019696195
 40
0.65983019696195
 40
0.7141636694202442
 40
0.7141636694202442
 40
0.7141636694202442
 40
0.7672492360561214
 40
0.7672492360561214
 40
0.7672492360561214
 40
0.8311842098663922
 40
0.8311842098663922
 40
0.8732466926363075
 40
0.8732466926363075
 40
0.8732466926363075
 40
0.9147241024096695
 40
0.9147241024096695
 40
0.9147241024096695
 40
0.9560702513872078
 40
0.9560702513872078
 40
0.9560702513872078
 40
1.0
 40
1.0
 40
1.0
 40
1.0
 10
0.0
 20
0.0
 30
0.0
 10
0.0
 20
2.101294233289646
 30
0.0
 10
0.0
 20
4.202588466579293
 30
0.0
 10
0.0
 20
6.303882699868939
 30
0.0
 10
0.0
 20
6.38473132372215
 30
0.0
 10
0.0277195281782454
 20
6.451720183486239
 30
0.0
 10
0.1409076015727422
 20
6.564908256880734
 30
0.0
 10
0.2055865006553077
 20
6.592627785058978
 30
0.0
 10
0.2771952817824364
 20
6.592627785058978
 30
0.0
 10
1.035632372214941
 20
6.592627785058978
 30
0.0
 10
1.794069462647446
 20
6.592627785058977
 30
0.0
 10
2.552506553079947
 20
6.592627785058978
 30
0.0
 10
2.878211009174311
 20
6.592627785058978
 30
0.0
 10
3.180815858453474
 20
6.553358453473132
 30
0.0
 10
3.458011140235911
 20
6.472509829619922
 30
0.0
 10
3.736714364351247
 20
6.39122138925295
 30
0.0
 10
3.977752293577982
 20
6.271543250327655
 30
0.0
 10
4.18333879423329
 20
6.105226081258192
 30
0.0
 10
4.387795784926965
 20
5.939822673056568
 30
0.0
 10
4.550622542595022
 20
5.731012450851901
 30
0.0
 10
4.666120576671034
 20
5.476916775884666
 30
0.0
 10
4.782488801414747
 20
5.220906681448501
 30
0.0
 10
4.839367627785059
 20
4.917906290956751
 30
0.0
 10
4.839367627785059
 20
4.335796199213631
 30
0.0
 10
4.809338138925298
 20
4.116349934469202
 30
0.0
 10
4.744659239842726
 20
3.913073394495413
 30
0.0
 10
4.679525282839784
 20
3.708366672486163
 30
0.0
 10
4.589891874180864
 20
3.520380078636961
 30
0.0
 10
4.467463958060289
 20
3.356372870249018
 30
0.0
 10
4.343928732125118
 20
3.19088228456228
 30
0.0
 10
4.19488859764089
 20
3.049148099606816
 30
0.0
 10
4.014711664482306
 20
2.9336500655308
 30
0.0
 10
3.836171940175813
 20
2.819201524308691
 30
0.0
 10
3.631258191349932
 20
2.739613368283093
 30
0.0
 10
3.400262123197905
 20
2.700344036697248
 30
0.0
  0
HATCH
  5
19F
330
162
100
AcDbEntity
  8
Default
  6
Continuous
 62
     7
100
AcDbHatch
 10
0.0
 20
0.0
 30
0.0
210
0.0
220
0.0
230
1.0
  2
SOLID
 70
     1
 71
     0
 91
        2
 92
        1
 93
        6
 72
     4
 94
        3
 73
     0
 74
     0
 95
       39
 96
       35
 40
0.0
 40
0.0
 40
0.0
 40
0.0
 40
0.0439297486127922
 40
0.0439297486127922
 40
0.0439297486127922
 40
0.0852758975903305
 40
0.0852758975903305
 40
0.0852758975903305
 40
0.1267533073636925
 40
0.1267533073636925
 40
0.1267533073636925
 40
0.1688157901336078
 40
0.1688157901336078
 40
0.2327507639438786
 40
0.2327507639438786
 40
0.2327507639438786
 40
0.2858363305797558
 40
0.2858363305797558
 40
0.2858363305797558
 40
0.34016980303805
 40
0.34016980303805
 40
0.34016980303805
 40
0.4010124538487662
 40
0.4010124538487662
 40
0.4010124538487662
 40
0.552059160100671
 40
0.552059160100671
 40
0.552059160100671
 40
0.5670883043767458
 40
0.5670883043767458
 40
0.5815162828817784
 40
0.5815162828817784
 40
0.5815162828817784
 40
1.0
 40
1.0
 40
1.0
 40
1.0
 10
3.400262123197905
 20
2.700344036697248
 10
3.631258191349932
 20
2.739613368283093
 10
3.836171940175813
 20
2.819201524308691
 10
4.014711664482306
 20
2.9336500655308
 10
4.19488859764089
 20
3.049148099606816
 10
4.343928732125118
 20
3.19088228456228
 10
4.467463958060289
 20
3.356372870249018
 10
4.589891874180864
 20
3.520380078636961
 10
4.679525282839784
 20
3.708366672486163
 10
4.744659239842726
 20
3.913073394495413
 10
4.809338138925298
 20
4.116349934469202
 10
4.839367627785059
 20
4.335796199213631
 10
4.839367627785059
 20
4.917906290956751
 10
4.782488801414747
 20
5.220906681448501
 10
4.666120576671034
 20
5.476916775884666
 10
4.550622542595022
 20
5.731012450851901
 10
4.387795784926965
 20
5.939822673056568
 10
4.18333879423329
 20
6.105226081258192
 10
3.977752293577982
 20
6.271543250327655
 10
3.736714364351247
 20
6.39122138925295
 10
3.458011140235911
 20
6.472509829619922
 10
3.180815858453474
 20
6.553358453473132
 10
2.878211009174311
 20
6.592627785058978
 10
2.552506553079947
 20
6.592627785058978
 10
1.794069462647446
 20
6.592627785058977
 10
1.035632372214941
 20
6.592627785058978
 10
0.2771952817824364
 20
6.592627785058978
 10
0.2055865006553077
 20
6.592627785058978
 10
0.1409076015727422
 20
6.564908256880734
 10
0.0277195281782454
 20
6.451720183486239
 10
0.0
 20
6.38473132372215
 10
0.0
 20
6.303882699868939
 10
0.0
 20
4.202588466579293
 10
0.0
 20
2.101294233289646
 10
0.0
 20
0.0
 72
     1
 10
0.0
 20
0.0
 11
1.709370904325033
 21
0.0000000000000009
 72
     1
 10
1.709370904325031
 20
0.0000000000000009
 11
1.709370904325031
 21
2.534026867627786
 72
     1
 10
1.709370904325031
 20
2.534026867627786
 11
3.340203145478373
 21
0.0000000000000004
 72
     1
 10
3.340203145478373
 20
0.0000000000000009
 11
5.476916775884664
 21
0.0000000000000009
 72
     1
 10
5.476916775884668
 20
0.0000000000000009
 11
3.400262123197905
 21
2.700344036697248
 97
        0
 92
        1
 93
        3
 72
     1
 10
1.709370904325031
 20
5.28057011795544
 11
1.709370904325031
 21
3.631258191349935
 72
     1
 10
1.709370904325031
 20
3.631258191349935
 11
1.880307994757535
 21
3.631258191349935
 72
     4
 94
        3
 73
     0
 74
     0
 95
       29
 96
       25
 40
0.0
 40
0.0
 40
0.0
 40
0.0
 40
0.120355667163128
 40
0.120355667163128
 40
0.120355667163128
 40
0.2363519504887718
 40
0.2363519504887718
 40
0.2363519504887718
 40
0.3551316836966587
 40
0.3551316836966587
 40
0.4739114169045465
 40
0.4739114169045465
 40
0.5942337440501996
 40
0.5942337440501996
 40
0.7145560711958533
 40
0.7145560711958533
 40
0.7145560711958533
 40
0.8303426976884648
 40
0.8303426976884648
 40
0.8303426976884648
 40
0.9506957818555967
 40
0.9506957818555967
 40
0.9506957818555967
 40
1.0
 40
1.0
 40
1.0
 40
1.0
 10
1.880307994757537
 20
3.631258191349935
 10
2.018905635648757
 20
3.631258191349935
 10
2.157503276539977
 20
3.640498034076017
 10
2.296100917431193
 20
3.661287680209699
 10
2.436957688573287
 20
3.682416195881014
 10
2.564056356487548
 20
3.719036697247708
 10
2.679554390563567
 20
3.776785714285715
 10
2.795976408912189
 20
3.834996723460025
 10
2.889760812581915
 20
3.915383355176934
 10
3.028358453473135
 20
4.132519659239843
 10
3.063007863695937
 20
4.278047182175624
 10
3.063007863695937
 20
4.636091087811272
 10
3.028358453473135
 20
4.779308650065532
 10
2.889760812581915
 20
4.996444954128441
 10
2.797362385321101
 20
5.079603538663172
 10
2.679554390563567
 20
5.13735255570118
 10
2.564521785639126
 20
5.193741087526886
 10
2.437008519003932
 20
5.229750982961993
 10
2.296100917431193
 20
5.250540629095676
 10
2.157454063805833
 20
5.270996722253517
 10
2.018905635648757
 20
5.28057011795544
 10
1.880307994757537
 20
5.28057011795544
 10
1.823328964613371
 20
5.28057011795544
 10
1.766349934469201
 20
5.28057011795544
 10
1.709370904325031
 20
5.28057011795544
 97
        0
 75
     0
 76
     1
 98
        0
  0
HATCH
  5
1A0
330
162
100
AcDbEntity
  8
Default
  6
Continuous
 62
     7
100
AcDbHatch
 10
0.0
 20
0.0
 30
0.0
210
0.0
220
0.0
230
1.0
  2
SOLID
 70
     1
 71
     0
 91
        1
 92
        1
 93
       11
 72
     4
 94
        3
 73
     0
 74
     0
 95
       16
 96
       12
 40
0.0
 40
0.0
 40
0.0
 40
0.0
 40
0.3392889644065707
 40
0.3392889644065707
 40
0.3392889644065707
 40
0.3618671566114537
 40
0.3618671566114537
 40
0.3835422211281416
 40
0.3835422211281416
 40
0.3835422211281416
 40
1.0
 40
1.0
 40
1.0
 40
1.0
 10
9.778063564875495
 20
6.592627785058978
 10
8.621543250327658
 20
6.592627785058978
 10
7.465022935779817
 20
6.592627785058978
 10
6.30850262123198
 20
6.592627785058978
 10
6.229963958060289
 20
6.592627785058978
 10
6.162975098296197
 20
6.564908256880734
 10
6.049787024901704
 20
6.451720183486239
 10
6.022067496723459
 20
6.38473132372215
 10
6.022067496723459
 20
6.303882699868939
 10
6.022067496723459
 20
4.202588466579293
 10
6.022067496723459
 20
2.101294233289647
 10
6.022067496723459
 20
0.0000000000000018
 72
     1
 10
6.022067496723459
 20
0.0000000000000018
 11
9.778063564875495
 21
0.0000000000000009
 72
     1
 10
9.778063564875495
 20
0.0000000000000009
 11
9.778063564875495
 21
1.450655307994759
 72
     1
 10
9.778063564875495
 20
1.450655307994758
 11
7.731438401048491
 21
1.450655307994758
 72
     1
 10
7.731438401048493
 20
1.450655307994758
 11
7.731438401048493
 21
2.584846002621233
 72
     1
 10
7.731438401048493
 20
2.584846002621233
 11
9.678735255570121
 21
2.584846002621233
 72
     1
 10
9.678735255570121
 20
2.584846002621233
 11
9.678735255570121
 21
4.042431192660551
 72
     1
 10
9.678735255570121
 20
4.042431192660551
 11
7.731438401048493
 21
4.042431192660551
 72
     1
 10
7.731438401048493
 20
4.042431192660551
 11
7.731438401048493
 21
5.141972477064221
 72
     1
 10
7.731438401048493
 20
5.141972477064221
 11
9.778063564875497
 21
5.141972477064221
 72
     1
 10
9.778063564875495
 20
5.141972477064221
 11
9.778063564875495
 21
6.592627785058978
 97
        0
 75
     0
 76
     1
 98
        0
  0
HATCH
  5
1A1
330
162
100
AcDbEntity
  8
Default
  6
Continuous
 62
     7
100
AcDbHatch
 10
0.0
 20
0.0
 30
0.0
210
0.0
220
0.0
230
1.0
  2
SOLID
 70
     1
 71
     0
 91
        1
 92
        1
 93
        6
 72
     4
 94
        3
 73
     0
 74
     0
 95
       51
 96
       47
 40
0.0
 40
0.0
 40
0.0
 40
0.0
 40
0.0903181127538991
 40
0.0903181127538991
 40
0.1806362255077987
 40
0.1806362255077987
 40
0.2505107113883491
 40
0.2505107113883491
 40
0.2505107113883491
 40
0.3153180737852943
 40
0.3153180737852943
 40
0.3153180737852943
 40
0.3800992723712822
 40
0.3800992723712822
 40
0.3800992723712822
 40
0.4521169206302595
 40
0.4521169206302595
 40
0.5213407808102242
 40
0.5213407808102242
 40
0.5213407808102242
 40
0.5850582814386294
 40
0.5850582814386294
 40
0.5850582814386294
 40
0.6488037906897904
 40
0.6488037906897904
 40
0.6488037906897904
 40
0.718817254308538
 40
0.718817254308538
 40
0.7944820288920282
 40
0.7944820288920282
 40
0.7944820288920282
 40
0.8697367480753329
 40
0.8697367480753329
 40
0.8697367480753329
 40
0.9013515779285247
 40
0.9013515779285247
 40
0.9013515779285247
 40
0.9306379885930884
 40
0.9306379885930884
 40
0.9599243992576518
 40
0.9599243992576518
 40
0.9599243992576518
 40
0.9904597959709778
 40
0.9904597959709778
 40
0.9904597959709778
 40
1.0
 40
1.0
 40
1.0
 40
1.0
 10
16.88350262123198
 20
4.945625819134994
 10
16.59937745740498
 20
5.56931520314548
 10
16.20206422018348
 20
6.033617300131063
 10
15.18106159895151
 20
6.643446920052426
 10
14.58740170380079
 20
6.795904325032767
 10
13.37467234600262
 20
6.795904325032767
 10
12.88849518360602
 20
6.715532627831713
 10
12.44837811271297
 20
6.544118610747052
 10
12.00948558322411
 20
6.373181520314549
 10
11.6318070432484
 20
6.134109113501288
 10
11.31880733944954
 20
5.823410878112714
 10
11.00465268676278
 20
5.511566186107471
 10
10.76010389980871
 20
5.138136765961434
 10
10.58885976408912
 20
4.700769986893841
 10
10.41792267365662
 20
4.264187418086501
 10
10.33245412844037
 20
3.776785714285715
 10
10.33245412844037
 20
2.725753604193972
 10
10.41673087643255
 20
2.251733670943243
 10
10.58885976408912
 20
1.822558977719529
 10
10.76210681520315
 20
1.39059633027523
 10
10.99887791762487
 20
1.022140102874894
 10
11.30725753604194
 20
0.7183977719528185
 10
11.61448230668415
 20
0.4157929226736576
 10
11.9860833240235
 20
0.1770875389365569
 10
12.41834862385321
 20
0.0092398427260818
 10
12.85262123197903
 20
-0.1593872870249009
 10
13.32847313237222
 20
-0.2425458715596323
 10
14.40029488859764
 20
-0.2425458715596323
 10
14.91226036066398
 20
-0.1389661078830131
 10
15.37971821756225
 20
0.06467889908257
 10
15.84633027522936
 20
0.2679554390563577
 10
16.23809819736261
 20
0.6029285876097794
 10
16.5670380078637
 20
1.057961992136305
 10
16.70563564875491
 20
1.249688728702491
 10
16.80988280520848
 20
1.442190804023907
 10
16.88350262123198
 20
1.633142201834863
 10
16.95742136304062
 20
1.824868938401049
 10
17.01055045871559
 20
2.021215596330276
 10
17.08446920052425
 20
2.41852883355177
 10
17.10526611434193
 20
2.619624777619178
 10
17.11680865006553
 20
2.825081913499345
 10
17.12835845347313
 20
3.030668414154654
 10
17.14221821756225
 20
3.243184796854522
 10
17.14221821756225
 20
3.460321100917432
 10
17.14221821756225
 20
3.526539973787681
 10
17.14221821756225
 20
3.59275884665793
 10
17.14221821756225
 20
3.658977719528179
 72
     1
 10
17.14221821756225
 20
3.658977719528179
 11
13.83435452162517
 21
3.658977719528179
 72
     1
 10
13.83435452162517
 20
3.658977719528179
 11
13.83435452162517
 21
2.314580602883356
 72
     1
 10
13.83435452162517
 20
2.314580602883356
 11
15.33351900393184
 21
2.314580602883356
 72
     4
 94
        3
 73
     0
 74
     0
 95
       43
 96
       39
 40
0.0
 40
0.0
 40
0.0
 40
0.0
 40
0.0528407008768927
 40
0.0528407008768927
 40
0.0528407008768927
 40
0.101808017531148
 40
0.101808017531148
 40
0.101808017531148
 40
0.1527424680033737
 40
0.1527424680033737
 40
0.1527424680033737
 40
0.2046872249080309
 40
0.2046872249080309
 40
0.285201598110253
 40
0.285201598110253
 40
0.285201598110253
 40
0.3575698737778739
 40
0.3575698737778739
 40
0.3575698737778739
 40
0.4340109897737078
 40
0.4340109897737078
 40
0.5104521057695417
 40
0.5104521057695417
 40
0.5848456918726302
 40
0.5848456918726302
 40
0.5848456918726302
 40
0.6593973023253275
 40
0.6593973023253275
 40
0.6593973023253275
 40
0.7322081321972964
 40
0.7322081321972964
 40
0.7322081321972964
 40
0.808821291350857
 40
0.808821291350857
 40
0.9050626152462398
 40
0.9050626152462398
 40
0.9050626152462398
 40
1.0
 40
1.0
 40
1.0
 40
1.0
 10
15.33351900393184
 20
2.314580602883356
 10
15.31503931847969
 20
2.12285386631717
 10
15.26256022686942
 20
1.956138307659666
 10
15.17644167758847
 20
1.815629095674968
 10
15.08866317169069
 20
1.672411533420708
 10
14.98086470130555
 20
1.551204760042966
 10
14.84842726081258
 20
1.457585190039319
 10
14.7144495412844
 20
1.362876802096987
 10
14.5615512434976
 20
1.290461103946714
 10
14.39105504587156
 20
1.240448885976409
 10
14.21780799475754
 20
1.189629750982963
 10
14.03994102228047
 20
1.16653014416776
 10
13.56870904325033
 20
1.16653014416776
 10
13.32020716906946
 20
1.226055058977723
 10
13.10440694626475
 20
1.344397116644824
 10
12.88958060288335
 20
1.46220511140236
 10
12.7105124508519
 20
1.620114023591089
 10
12.56387614678899
 20
1.815629095674968
 10
12.41834862385321
 20
2.009665792922674
 10
12.30747051114023
 20
2.231422018348625
 10
12.15501310615989
 20
2.721133682830931
 10
12.11574377457405
 20
2.970609436435126
 10
12.11574377457405
 20
3.481110747051115
 10
12.15421681189757
 20
3.730147961786198
 10
12.22662188728703
 20
3.980062254259503
 10
12.29823066841416
 20
4.227228047182176
 10
12.40527884987617
 20
4.450080065344236
 10
12.54770642201835
 20
4.647640891218874
 10
12.69092398427261
 20
4.84629750982962
 10
12.86823374940279
 20
5.008983012075785
 10
13.08361730013106
 20
5.13042267365662
 10
13.30075360419397
 20
5.252850589777196
 10
13.54560943643512
 20
5.312909567496725
 10
14.17622870249017
 20
5.312909567496725
 10
14.47167626156505
 20
5.217916234390401
 10
14.7144495412844
 20
5.024164482306685
 10
14.95468545216252
 20
4.832437745740499
 10
15.1348623853211
 20
4.578342070773264
 10
15.25498034076016
 20
4.25956749672346
 72
     1
 10
15.25498034076016
 20
4.25956749672346
 11
16.88350262123198
 21
4.945625819134994
 97
        0
 75
     0
 76
     1
 98
        0
  0
HATCH
  5
1A2
330
162
100
AcDbEntity
  8
Default
  6
Continuous
 62
     7
100
AcDbHatch
 10
0.0
 20
0.0
 30
0.0
210
0.0
220
0.0
230
1.0
  2
SOLID
 70
     1
 71
     0
 91
        2
 92
        1
 93
        1
 72
     4
 94
        3
 73
     0
 74
     0
 95
       49
 96
       45
 40
0.0
 40
0.0
 40
0.0
 40
0.0
 40
0.0620905351842325
 40
0.0620905351842325
 40
0.0620905351842325
 40
0.1225274789213882
 40
0.1225274789213882
 40
0.1225274789213882
 40
0.1824107500595676
 40
0.1824107500595676
 40
0.1824107500595676
 40
0.2443092731117129
 40
0.2443092731117129
 40
0.3113899980938052
 40
0.3113899980938052
 40
0.3113899980938052
 40
0.373038281101099
 40
0.373038281101099
 40
0.4342493422430935
 40
0.4342493422430935
 40
0.4342493422430935
 40
0.5005101029271146
 40
0.5005101029271146
 40
0.5664827733472912
 40
0.5664827733472912
 40
0.5664827733472912
 40
0.6277456785228048
 40
0.6277456785228048
 40
0.6277456785228048
 40
0.6890483024008142
 40
0.6890483024008142
 40
0.6890483024008142
 40
0.7561017319004357
 40
0.7561017319004357
 40
0.8179750681339922
 40
0.8179750681339922
 40
0.8179750681339922
 40
0.8779262347345869
 40
0.8779262347345869
 40
0.8779262347345869
 40
0.9382003516792404
 40
0.9382003516792404
 40
0.9382003516792404
 40
1.0
 40
1.0
 40
1.0
 40
1.0
 10
21.44336500655308
 20
6.83055373525557
 10
20.96520314547837
 20
6.82824377457405
 10
20.50677543450266
 20
6.747870526797538
 10
20.06662844036697
 20
6.581077981651377
 10
19.62773591087812
 20
6.414760812581914
 10
19.23849979910015
 20
6.18016634116182
 10
18.90009829619921
 20
5.878849934469201
 10
18.56284403669725
 20
5.57855504587156
 10
18.2953544565906
 20
5.21684411217912
 10
18.0916120576671
 20
4.800098296199214
 10
17.88833551769332
 20
4.384305373525557
 10
17.78669724770642
 20
3.926933158584535
 10
17.78669724770642
 20
2.892070773263434
 10
17.87990551563201
 20
2.402690597965156
 10
18.06158256880734
 20
1.958846657929228
 10
18.24406946264745
 20
1.513024246395807
 10
18.49585517693316
 20
1.129570773263435
 10
19.14495412844037
 20
0.4804718217562263
 10
19.53023971314575
 20
0.2274883817829441
 10
19.9788499344692
 20
0.0485091743119273
 10
20.42467234600262
 20
-0.1293577981651364
 10
20.91207404980341
 20
-0.2194462647444295
 10
21.97234600262123
 20
-0.2194462647444295
 10
22.46253572118054
 20
-0.1305468044592142
 10
22.90788007863696
 20
0.0485091743119273
 10
23.3560124508519
 20
0.2286861074705122
 10
23.7406207864759
 20
0.4793333402928437
 10
24.06055045871559
 20
0.8038663171690699
 10
24.38163499344692
 20
1.129570773263435
 10
24.63260786737497
 20
1.513358696334639
 10
24.81590760157274
 20
1.958846657929228
 10
24.99839449541284
 20
2.402359108781128
 10
25.08848296199213
 20
2.892070773263434
 10
25.08848296199213
 20
3.926933158584535
 10
24.9863762849025
 20
4.38296991497732
 10
24.78587811271298
 20
4.800098296199214
 10
24.58491153342071
 20
5.218201179554391
 10
24.31246764930903
 20
5.576127116722139
 10
23.97508191349934
 20
5.878849934469201
 10
23.63782765399738
 20
6.181454783748363
 10
23.25051470703607
 20
6.416785102496653
 10
22.81317169069462
 20
6.581077981651377
 10
22.37658912188729
 20
6.745085190039319
 10
21.91919464291449
 20
6.832852429151036
 10
21.44336500655308
 20
6.83055373525557
 97
        0
 92
        1
 93
        1
 72
     4
 94
        3
 73
     0
 74
     0
 95
       47
 96
       43
 40
0.0
 40
0.0
 40
0.0
 40
0.0
 40
0.0637917384076936
 40
0.0637917384076936
 40
0.0637917384076936
 40
0.1265834997779105
 40
0.1265834997779105
 40
0.1893752611481285
 40
0.1893752611481285
 40
0.1893752611481285
 40
0.2604081010642026
 40
0.2604081010642026
 40
0.3159741129340349
 40
0.3159741129340349
 40
0.3159741129340349
 40
0.3751091105868485
 40
0.3751091105868485
 40
0.3751091105868485
 40
0.435995169879425
 40
0.435995169879425
 40
0.435995169879425
 40
0.4997689343159712
 40
0.4997689343159712
 40
0.5635426987525196
 40
0.5635426987525196
 40
0.5635426987525196
 40
0.624232315369434
 40
0.624232315369434
 40
0.624232315369434
 40
0.6835869381889372
 40
0.6835869381889372
 40
0.6835869381889372
 40
0.7357943705008892
 40
0.7357943705008892
 40
0.8025337685079206
 40
0.8025337685079206
 40
0.8692731665149518
 40
0.8692731665149518
 40
0.9360125645219831
 40
0.9360125645219831
 40
0.9360125645219831
 40
1.0
 40
1.0
 40
1.0
 40
1.0
 10
21.44336500655308
 20
1.450655307994758
 10
21.70208060288335
 20
1.450655307994758
 10
21.94462647444299
 20
1.501474442988205
 10
22.16869266055046
 20
1.600802752293579
 10
22.39468942225328
 20
1.700986883770089
 10
22.5937254259502
 20
1.836418741808651
 10
22.93097968545217
 20
2.187532765399738
 10
23.06495740498034
 20
2.395429226736567
 10
23.15966579292267
 20
2.63335517693316
 10
23.25469013236262
 20
2.87207485894082
 10
23.30519331585845
 20
3.132306684141548
 10
23.30519331585845
 20
3.642807994757537
 10
23.25668414154652
 20
3.862254259501967
 10
23.15966579292267
 20
4.074770642201835
 10
23.06391850987524
 20
4.284502786020031
 10
22.93097968545217
 20
4.472083879423329
 10
22.76235255570118
 20
4.636091087811272
 10
22.59487996078263
 20
4.798975392458079
 10
22.39506880733945
 20
4.927146133682831
 10
22.16869266055046
 20
5.021854521625164
 10
21.94345992894685
 20
5.116084541989939
 10
21.70208060288335
 20
5.167382044560944
 10
21.18464941022281
 20
5.167382044560944
 10
20.94210353866317
 20
5.118872870249017
 10
20.71572739187418
 20
5.021854521625164
 10
20.49213912866634
 20
4.926030980250372
 10
20.29300458715597
 20
4.797788335517694
 10
20.12437745740498
 20
4.636091087811272
 10
19.95459636352431
 20
4.473287299158574
 10
19.82177260812581
 20
4.284977064220183
 10
19.72244429882045
 20
4.074770642201835
 10
19.62222370164274
 20
3.86267589003505
 10
19.57229685452162
 20
3.642807994757537
 10
19.57229685452162
 20
3.132306684141548
 10
19.62311598951508
 20
2.871281127129752
 10
19.82177260812581
 20
2.395429226736567
 10
19.95575032765399
 20
2.187532765399738
 10
20.29300458715597
 20
1.836418741808651
 10
20.49166120576671
 20
1.700131061598952
 10
20.71572739187418
 20
1.600802752293579
 10
20.941724153577
 20
1.500618620817073
 10
21.18464941022281
 20
1.450655307994758
 10
21.44336500655308
 20
1.450655307994758
 97
        0
 75
     0
 76
     1
 98
        0
  0
HATCH
  5
1A3
330
162
100
AcDbEntity
  8
Default
  6
Continuous
 62
     7
100
AcDbHatch
 10
0.0
 20
0.0
 30
0.0
210
0.0
220
0.0
230
1.0
  2
SOLID
 70
     1
 71
     0
 91
        1
 92
        1
 93
        4
 72
     1
 10
28.07064220183486
 20
2.584846002621233
 11
28.07064220183486
 21
4.042431192660551
 72
     1
 10
28.07064220183486
 20
4.042431192660551
 11
25.93623853211009
 21
4.042431192660551
 72
     1
 10
25.93623853211009
 20
4.042431192660551
 11
25.93623853211009
 21
2.584846002621233
 72
     1
 10
25.93623853211009
 20
2.584846002621233
 11
28.07064220183486
 21
2.584846002621233
 97
        0
 75
     0
 76
     1
 98
        0
  0
HATCH
  5
1A4
330
162
100
AcDbEntity
  8
Default
  6
Continuous
 62
     7
100
AcDbHatch
 10
0.0
 20
0.0
 30
0.0
210
0.0
220
0.0
230
1.0
  2
SOLID
 70
     1
 71
     0
 91
        1
 92
        1
 93
        9
 72
     4
 94
        3
 73
     0
 74
     0
 95
       16
 96
       12
 40
0.0
 40
0.0
 40
0.0
 40
0.0
 40
0.3396620468027166
 40
0.3396620468027166
 40
0.3396620468027166
 40
0.3623316833330921
 40
0.3623316833330921
 40
0.3840945344022499
 40
0.3840945344022499
 40
0.3840945344022499
 40
1.0
 40
1.0
 40
1.0
 40
1.0
 10
32.58661533420707
 20
6.592627785058978
 10
31.42778505897771
 20
6.592627785058978
 10
30.26895478374836
 20
6.592627785058978
 10
29.110124508519
 20
6.592627785058978
 10
29.02927588466579
 20
6.592627785058978
 10
28.96228702490171
 20
6.564908256880734
 10
28.84909895150721
 20
6.451720183486239
 10
28.82137942332896
 20
6.38473132372215
 10
28.82137942332896
 20
6.303882699868939
 10
28.82137942332896
 20
4.202588466579293
 10
28.82137942332896
 20
2.101294233289646
 10
28.82137942332896
 20
0.0
 72
     1
 10
28.82137942332896
 20
0.0
 11
30.53999017038007
 21
0.0000000000000009
 72
     1
 10
30.53999017038007
 20
0.0000000000000009
 11
30.53999017038007
 21
2.584846002621234
 72
     1
 10
30.53999017038007
 20
2.584846002621234
 11
32.4872870249017
 21
2.584846002621233
 72
     1
 10
32.4872870249017
 20
2.584846002621233
 11
32.4872870249017
 21
4.042431192660551
 72
     1
 10
32.4872870249017
 20
4.042431192660551
 11
30.53999017038007
 21
4.042431192660551
 72
     1
 10
30.53999017038007
 20
4.042431192660551
 11
30.53999017038007
 21
5.141972477064221
 72
     1
 10
30.53999017038007
 20
5.141972477064221
 11
32.58661533420707
 21
5.141972477064221
 72
     1
 10
32.58661533420707
 20
5.141972477064221
 11
32.58661533420707
 21
6.592627785058978
 97
        0
 75
     0
 76
     1
 98
        0
  0
HATCH
  5
1A5
330
162
100
AcDbEntity
  8
Default
  6
Continuous
 62
     7
100
AcDbHatch
 10
0.0
 20
0.0
 30
0.0
210
0.0
220
0.0
230
1.0
  2
SOLID
 70
     1
 71
     0
 91
        1
 92
        1
 93
        4
 72
     4
 94
        3
 73
     0
 74
     0
 95
       14
 96
       10
 40
0.0
 40
0.0
 40
0.0
 40
0.0
 40
0.7580098693161609
 40
0.7580098693161609
 40
0.7580098693161609
 40
0.8789822868889446
 40
0.8789822868889446
 40
0.8789822868889446
 40
1.0
 40
1.0
 40
1.0
 40
1.0
 10
35.18532110091743
 20
6.608797509829621
 10
34.71100917431193
 20
6.608797509829621
 10
34.23669724770642
 20
6.608797509829621
 10
33.76238532110091
 20
6.608797509829621
 10
33.68153669724771
 20
6.608797509829621
 10
33.61680971405436
 20
6.578721860223512
 10
33.55910878112713
 20
6.523328964613368
 10
33.50135976408912
 20
6.467889908256881
 10
33.47364023591088
 20
6.400901048492791
 10
33.47364023591088
 20
6.320052424639582
 72
     1
 10
33.47364023591088
 20
6.320052424639582
 11
33.47364023591088
 21
0.0000000000000009
 72
     1
 10
33.47364023591088
 20
0.0000000000000009
 11
35.18532110091743
 21
0.0000000000000009
 72
     1
 10
35.18532110091743
 20
0.0000000000000009
 11
35.18532110091743
 21
6.608797509829621
 97
        0
 75
     0
 76
     1
 98
        0
  0
HATCH
  5
1A6
330
162
100
AcDbEntity
  8
Default
  6
Continuous
 62
     7
100
AcDbHatch
 10
0.0
 20
0.0
 30
0.0
210
0.0
220
0.0
230
1.0
  2
SOLID
 70
     1
 71
     0
 91
        1
 92
        1
 93
       12
 72
     1
 10
39.22313237221493
 20
4.885566841415466
 11
38.20905963302751
 21
6.592627785058978
 72
     1
 10
38.20905963302752
 20
6.592627785058978
 11
36.10468545216251
 21
6.592627785058978
 72
     1
 10
36.10468545216251
 20
6.592627785058978
 11
38.20905963302751
 21
3.525
 72
     1
 10
38.20905963302752
 20
3.525000000000001
 11
35.62652359108781
 21
0.0000000000000013
 72
     1
 10
35.6265235910878
 20
0.0000000000000009
 11
37.70317824377457
 21
0.0000000000000009
 72
     1
 10
37.70317824377457
 20
0.0000000000000009
 11
39.22313237221493
 21
2.145953473132373
 72
     1
 10
39.22313237221493
 20
2.145953473132373
 11
40.25568479685452
 21
0.5266710353866326
 72
     1
 10
40.25568479685452
 20
0.5266710353866322
 11
41.28823722149409
 21
1.995806028833553
 72
     1
 10
41.28823722149409
 20
1.995806028833553
 11
40.22565530799475
 21
3.525000000000001
 72
     1
 10
40.22565530799475
 20
3.525000000000001
 11
42.34157929226736
 21
6.592627785058978
 72
     1
 10
42.34157929226736
 20
6.592627785058978
 11
40.22565530799475
 21
6.592627785058978
 72
     1
 10
40.22565530799475
 20
6.592627785058978
 11
39.22313237221493
 21
4.885566841415466
 97
        0
 75
     0
 76
     1
 98
        0
  0
HATCH
  5
1A7
330
162
100
AcDbEntity
  8
Default
  6
Continuous
 62
     7
100
AcDbHatch
 10
0.0
 20
0.0
 30
0.0
210
0.0
220
0.0
230
1.0
  2
SOLID
 70
     1
 71
     0
 91
        1
 92
        1
 93
        3
 72
     4
 94
        3
 73
     0
 74
     0
 95
       13
 96
        9
 40
0.0
 40
0.0
 40
0.0
 40
0.0
 40
0.0445094381088423
 40
0.0445094381088423
 40
0.0908355879772283
 40
0.0908355879772283
 40
0.0908355879772283
 40
1.0
 40
1.0
 40
1.0
 40
1.0
 10
45.71181192660551
 20
6.414760812581914
 10
45.61941349934469
 20
6.53256880733945
 10
45.51546526867628
 20
6.592627785058978
 10
45.28446920052424
 20
6.592627785058978
 10
45.18660375034128
 20
6.531537694833034
 10
45.10429226736566
 20
6.414760812581914
 10
43.69752621231979
 20
4.418954783748362
 10
42.29076015727392
 20
2.423148754914811
 10
40.88399410222804
 20
0.427342726081259
 72
     4
 94
        3
 73
     0
 74
     0
 95
       11
 96
        7
 40
0.0
 40
0.0
 40
0.0
 40
0.0
 40
0.3439066424360135
 40
0.3439066424360135
 40
0.3439066424360135
 40
1.0
 40
1.0
 40
1.0
 40
1.0
 10
40.88399410222804
 20
0.427342726081259
 10
40.83086500655307
 20
0.3418741808650076
 10
40.80230295367286
 20
0.2725253209688669
 10
40.80314547837483
 20
0.2194462647444313
 10
40.80545543905635
 20
0.0739187418086509
 10
40.90709370904325
 20
0.0000000000000009
 10
41.11268020969855
 20
0.0000000000000009
 72
     4
 94
        3
 73
     0
 74
     0
 95
       16
 96
       12
 40
0.0
 40
0.0
 40
0.0
 40
0.0
 40
0.5188870924081099
 40
0.5188870924081099
 40
0.5188870924081099
 40
0.544909989588877
 40
0.544909989588877
 40
0.5581347406151689
 40
0.5581347406151689
 40
0.5581347406151689
 40
1.0
 40
1.0
 40
1.0
 40
1.0
 10
41.11268020969855
 20
0.0000000000000009
 10
43.98011140235911
 20
0.0000000000000009
 10
46.84754259501965
 20
0.0000000000000009
 10
49.71497378768021
 20
0.0000000000000009
 10
49.91363040629096
 20
0.0000000000000009
 10
50.01295871559633
 20
0.0692988204456104
 10
50.01295871559633
 20
0.281815203145479
 10
49.98455330475264
 20
0.352940532254955
 10
49.93211009174313
 20
0.427342726081259
 10
48.52534403669725
 20
2.42314875491481
 10
47.11857798165137
 20
4.418954783748362
 10
45.71181192660551
 20
6.414760812581914
 97
        0
 75
     0
 76
     1
 98
        0
  0
ENDBLK
  5
1A9
330
162
100
AcDbEntity
  8
0
100
AcDbBlockEnd
  0
BLOCK
  5
1B3
330
1AA
100
AcDbEntity
  8
0
100
AcDbBlockBegin
  2
RF-Massblatt_2016
 70
     0
 10
0.0
 20
0.0
 30
0.0
  3
RF-Massblatt_2016
  1

  0
MTEXT
  5
1AB
102
{ACAD_XDICTIONARY
360
1BD
102
}
330
1AA
100
AcDbEntity
  8
Default
100
AcDbMText
 10
15.2206856049
 20
34.8070876502
 30
0.0
 40
2.5
 41
48.9706096033
 71
     1
 72
     1
  3
{\fVectora Com 45 Light|b1||i0||c0|p34;\C7;\H2.5;\W1.;REGO-FIX AG\P}{\fVectora Com 45 Light|b0||i0||c0|p34;\C7;\H2.5;\W1.;Obermattweg 60\P}{\fVectora Com 45 Light|b0||i0||c0|p34;\C7;\H2.5;\W1.;4456 Tenniken / Switzerland\P}{\fVectora Com 45 Light|b0
  3
||i0||c0|p34;\C7;\H2.5;\W1.;\P}{\fVectora Com 45 Light|b0||i0||c0|p34;\C7;\H2.5;\W1.;P +41 61 976 14 66\P}{\fVectora Com 45 Light|b0||i0||c0|p34;\C7;\H2.5;\W1.;F +41 61 976 14 14\P}{\fVectora Com 45 Light|b1||i0||c0|p34;\C7;\H2.5;\W1.;www.rego-fix.c
  1
om}
 73
     1
 44
1.0
1001
ACAD
1000
ACAD_MTEXT_DEFINED_HEIGHT_BEGIN
1070
    46
1040
31.3191355437
1000
ACAD_MTEXT_DEFINED_HEIGHT_END
  0
MTEXT
  5
1AC
102
{ACAD_XDICTIONARY
360
1BF
102
}
330
1AA
100
AcDbEntity
  8
Default
100
AcDbMText
 10
90.3836341545
 20
34.4892285804
 30
0.0
 40
2.5
 41
104.0282149141
 71
     1
 72
     1
  3
{\fSolid Edge ISO|b0||i0||c0|p34;\C7;\H2.;\W1.;This is a non-controlled copy. All information given herein is subject to change without notice\P}{\fSolid Edge ISO|b0||i0||c0|p34;\C7;\H2.;\W1.;\P}{\fSolid Edge ISO|b0||i0||c0|p34;\C7;\H2.;\W1.;The inf
  3
ormation given herein has been carefully checked and is believed to be correct. REGO-FIX,\P}{\fSolid Edge ISO|b0||i0||c0|p34;\C7;\H2.;\W1.;however, assumes no responsibility or liability for any errors, inaccuracies or omissions that may appear\P}{\
  3
fSolid Edge ISO|b0||i0||c0|p34;\C7;\H2.;\W1.;in this drawing\P}{\fSolid Edge ISO|b0||i0||c0|p34;\C7;\H2.;\W1.;\P}{\fSolid Edge ISO|b0||i0||c0|p34;\C7;\H2.;\W1.;This document is subject to copyright laws. No part of this document may be reproduced or
  3
 transmitted\P}{\fSolid Edge ISO|b0||i0||c0|p34;\C7;\H2.;\W1.;in any form or any means, electronic or mechanic, for any purpose, without the express written permission\P}{\fSolid Edge ISO|b0||i0||c0|p34;\C7;\H2.;\W1.;of REGO-FIX\P}{\fSolid Edge ISO|
  1
b0||i0||c0|p34;\C7;\H1.5;\W1.;\P}
 73
     1
 44
1.0
1001
ACAD
1000
ACAD_MTEXT_DEFINED_HEIGHT_BEGIN
1070
    46
1040
38.4545554545
1000
ACAD_MTEXT_DEFINED_HEIGHT_END
  0
INSERT
  5
1AD
330
1AA
100
AcDbEntity
  8
Default
100
AcDbBlockReference
  2
SEANNOT_GROUP
 10
0.0
 20
0.0
 30
0.0
  0
INSERT
  5
1AE
330
1AA
100
AcDbEntity
  8
Default
100
AcDbBlockReference
  2
SEANNOT_GROUP1
 10
0.0
 20
0.0
 30
0.0
  0
MTEXT
  5
1AF
102
{ACAD_XDICTIONARY
360
1C1
102
}
330
1AA
100
AcDbEntity
  8
Default
100
AcDbMText
 10
219.0323311835
 20
34.8066733186
 30
0.0
 40
2.5
 41
20.1335141444
 71
     1
 72
     1
  3
{\fVectora Com 45 Light|b0||i0||c0|p34;\C7;\H3.5;\W1.;Type :\P}{\fVectora Com 45 Light|b0||i0||c0|p34;\C7;\H3.5;\W1.;Part No. :\P}{\fVectora Com 45 Light|b0||i0||c0|p34;\C7;\H3.5;\W1.;Date : \P}{\fVectora Com 45 Light|b0||i0||c0|p34;\C7;\H3.5;\W1.;S
  1
cale :}
 73
     1
 44
1.0
1001
ACAD
1000
ACAD_MTEXT_DEFINED_HEIGHT_BEGIN
1070
    46
1040
23.6666666667
1000
ACAD_MTEXT_DEFINED_HEIGHT_END
  0
INSERT
  5
1B0
330
1AA
100
AcDbEntity
  8
Default
100
AcDbBlockReference
  2
SEANNOT_GROUP2
 10
0.0
 20
0.0
 30
0.0
  0
INSERT
  5
1B1
330
1AA
100
AcDbEntity
  8
Default
100
AcDbBlockReference
  2
SEANNOT_GROUP3
 10
0.0
 20
0.0
 30
0.0
  0
INSERT
  5
1B2
330
1AA
100
AcDbEntity
  8
Default
 62
     7
100
AcDbBlockReference
  2
Block1
 10
227.000440997
 20
183.1186606679
 30
0.0
  0
ENDBLK
  5
1B4
330
1AA
100
AcDbEntity
  8
0
100
AcDbBlockEnd
  0
ENDSEC
  0
SECTION
  2
ENTITIES
  0
INSERT
  5
41
330
1F
100
AcDbEntity
  8
Default
100
AcDbBlockReference
  2
SE
 10
0.0
 20
0.0
 30
0.0
  0
INSERT
  5
12A
330
1F
100
AcDbEntity
  8
Default
100
AcDbBlockReference
  2
SE1
 10
0.0
 20
0.0
 30
0.0
  0
INSERT
  5
132
330
1F
100
AcDbEntity
  8
Default
100
AcDbBlockReference
  2
GDimGGroup
 10
0.0
 20
0.0
 30
0.0
  0
INSERT
  5
13D
330
1F
100
AcDbEntity
  8
Default
100
AcDbBlockReference
  2
GDimGGroup1
 10
0.0
 20
0.0
 30
0.0
  0
INSERT
  5
147
330
1F
100
AcDbEntity
  8
Default
100
AcDbBlockReference
  2
GDimGGroup2
 10
0.0
 20
0.0
 30
0.0
  0
INSERT
  5
1B5
330
1F
100
AcDbEntity
  8
Default
 62
     7
100
AcDbBlockReference
  2
RF-Massblatt_2016
 10
0.0
 20
0.0
 30
0.0
  0
ENDSEC
  0
SECTION
  2
OBJECTS
  0
DICTIONARY
  5
C
330
0
100
AcDbDictionary
281
     1
  3
ACAD_GROUP
350
D
  3
ACAD_LAYOUT
350
1A
  3
ACAD_MATERIAL
350
3B
  3
ACAD_MLEADERSTYLE
350
1B8
  3
ACAD_MLINESTYLE
350
17
  3
ACAD_PLOTSETTINGS
350
19
  3
ACAD_PLOTSTYLENAME
350
E
  3
ACAD_VISUALSTYLE
350
2A
  3
AcDbVariableDictionary
350
1B6
  0
DICTIONARY
  5
1BD
330
1AB
100
AcDbDictionary
280
     1
281
     1
  3
ACAD_MTEXT_RT
360
1BE
  0
DICTIONARY
  5
1BF
330
1AC
100
AcDbDictionary
280
     1
281
     1
  3
ACAD_MTEXT_RT
360
1C0
  0
DICTIONARY
  5
1C1
330
1AF
100
AcDbDictionary
280
     1
281
     1
  3
ACAD_MTEXT_RT
360
1C2
  0
DICTIONARY
  5
D
102
{ACAD_REACTORS
330
C
102
}
330
C
100
AcDbDictionary
281
     1
  0
DICTIONARY
  5
1A
102
{ACAD_REACTORS
330
C
102
}
330
C
100
AcDbDictionary
281
     1
  3
Layout1
350
1E
  3
Model
350
22
  0
DICTIONARY
  5
3B
102
{ACAD_REACTORS
330
C
102
}
330
C
100
AcDbDictionary
281
     1
  3
ByBlock
350
3D
  3
ByLayer
350
3C
  3
Global
350
3E
  0
DICTIONARY
  5
1B8
102
{ACAD_REACTORS
330
C
102
}
330
C
100
AcDbDictionary
281
     1
  0
DICTIONARY
  5
17
102
{ACAD_REACTORS
330
C
102
}
330
C
100
AcDbDictionary
281
     1
  3
Standard
350
18
  0
DICTIONARY
  5
19
102
{ACAD_REACTORS
330
C
102
}
330
C
100
AcDbDictionary
281
     1
  0
ACDBDICTIONARYWDFLT
  5
E
102
{ACAD_REACTORS
330
C
102
}
330
C
100
AcDbDictionary
281
     1
  3
Normal
350
F
100
AcDbDictionaryWithDefault
340
F
  0
DICTIONARY
  5
2A
102
{ACAD_REACTORS
330
C
102
}
330
C
100
AcDbDictionary
281
     1
  3
2dWireframe
350
2F
  3
3D Hidden
350
31
  3
3dWireframe
350
30
  3
Basic
350
32
  3
Brighten
350
36
  3
ColorChange
350
3A
  3
Conceptual
350
34
  3
Dim
350
35
  3
Facepattern
350
39
  3
Flat
350
2B
  3
FlatWithEdges
350
2C
  3
Gouraud
350
2D
  3
GouraudWithEdges
350
2E
  3
Linepattern
350
38
  3
Realistic
350
33
  3
Thicken
350
37
  0
DICTIONARY
  5
1B6
102
{ACAD_REACTORS
330
C
102
}
330
C
100
AcDbDictionary
281
     1
  3
DIMASSOC
350
1BB
  3
HIDETEXT
350
1BC
  3
PSOLHEIGHT
350
1BA
  3
PSOLWIDTH
350
1B9
  0
XRECORD
  5
1BE
102
{ACAD_REACTORS
330
1BD
102
}
330
1BD
100
AcDbXrecord
280
     1
 40
10118767.0
  1
\pxsm1.;{\fVectora Com 45 Light|b1||i0||c0|p34;\C7;\H2.5;\W1.;REGO-FIX AG\P}{\fVectora Com 45 Light|b0||i0||c0|p34;\C7;\H2.5;\W1.;Obermattweg 60\P}{\fVectora Com 45 Light|b0||i0||c0|p34;\C7;\H2.5;\W1.;4456 Tenniken / Switzerland\P}{\fVectora Com 45 L
  1
ight|b0||i0||c0|p34;\C7;\H2.5;\W1.;\P}{\fVectora Com 45 Light|b0||i0||c0|p34;\C7;\H2.5;\W1.;P +41 61 976 14 66\P}{\fVectora Com 45 Light|b0||i0||c0|p34;\C7;\H2.5;\W1.;F +41 61 976 14 14\P}{\fVectora Com 45 Light|b1||i0||c0|p34;\C7;\H2.5;\W1.;www.rego
  1
-fix.com}
  0
XRECORD
  5
1C0
102
{ACAD_REACTORS
330
1BF
102
}
330
1BF
100
AcDbXrecord
280
     1
 40
47111022.0
  1
\pxsm1.;{\fSolid Edge ISO|b0||i0||c0|p34;\C7;\H2.;\W1.;This is a non-controlled copy. All information given herein is subject to change without notice\P}{\fSolid Edge ISO|b0||i0||c0|p34;\C7;\H2.;\W1.;\P}{\fSolid Edge ISO|b0||i0||c0|p34;\C7;\H2.;\W1.;
  1
The information given herein has been carefully checked and is believed to be correct. REGO-FIX,\P}{\fSolid Edge ISO|b0||i0||c0|p34;\C7;\H2.;\W1.;however, assumes no responsibility or liability for any errors, inaccuracies or omissions that may appea
  1
r\P}{\fSolid Edge ISO|b0||i0||c0|p34;\C7;\H2.;\W1.;in this drawing\P}{\fSolid Edge ISO|b0||i0||c0|p34;\C7;\H2.;\W1.;\P}{\fSolid Edge ISO|b0||i0||c0|p34;\C7;\H2.;\W1.;This document is subject to copyright laws. No part of this document may be reproduc
  1
ed or transmitted\P}{\fSolid Edge ISO|b0||i0||c0|p34;\C7;\H2.;\W1.;in any form or any means, electronic or mechanic, for any purpose, without the express written permission\P}{\fSolid Edge ISO|b0||i0||c0|p34;\C7;\H2.;\W1.;of REGO-FIX\P}{\fSolid Edge 
  1
ISO|b0||i0||c0|p34;\C7;\H1.5;\W1.;\P}
  0
XRECORD
  5
1C2
102
{ACAD_REACTORS
330
1C1
102
}
330
1C1
100
AcDbXrecord
280
     1
 40
2697483.0
  1
\pxsm1.;{\fVectora Com 45 Light|b0||i0||c0|p34;\C7;\H3.5;\W1.;Type :\P}{\fVectora Com 45 Light|b0||i0||c0|p34;\C7;\H3.5;\W1.;Part No. :\P}{\fVectora Com 45 Light|b0||i0||c0|p34;\C7;\H3.5;\W1.;Date : \P}{\fVectora Com 45 Light|b0||i0||c0|p34;\C7;\H3.5
  1
;\W1.;Scale :}
  0
LAYOUT
  5
1E
102
{ACAD_REACTORS
330
1A
102
}
330
1A
100
AcDbPlotSettings
  1

  2
none_device
  4

  6

 40
0.0
 41
0.0
 42
0.0
 43
0.0
 44
0.0
 45
0.0
 46
0.0
 47
0.0
 48
0.0
 49
0.0
140
0.0
141
0.0
142
1.0
143
1.0
 70
   688
 72
     0
 73
     0
 74
     5
  7

 75
    16
147
1.0
148
0.0
149
0.0
100
AcDbLayout
  1
Layout1
 70
     1
 71
     1
 10
0.0
 20
0.0
 11
297.0
 21
210.0
 12
0.0
 22
0.0
 32
0.0
 14
0.0
 24
0.0
 34
0.0
 15
297.0
 25
210.0
 35
0.0
146
0.0
 13
0.0
 23
0.0
 33
0.0
 16
1.0
 26
0.0
 36
0.0
 17
0.0
 27
1.0
 37
0.0
 76
     0
330
1B
  0
LAYOUT
  5
22
102
{ACAD_REACTORS
330
1A
102
}
330
1A
100
AcDbPlotSettings
  1

  2
none_device
  4

  6

 40
0.0
 41
0.0
 42
0.0
 43
0.0
 44
0.0
 45
0.0
 46
0.0
 47
0.0
 48
0.0
 49
0.0
140
0.0
141
0.0
142
1.0
143
1.0
 70
  1712
 72
     0
 73
     0
 74
     0
  7

 75
     0
147
1.0
148
0.0
149
0.0
100
AcDbLayout
  1
Model
 70
     1
 71
     0
 10
0.0
 20
0.0
 11
297.0
 21
210.0
 12
0.0
 22
0.0
 32
0.0
 14
0.0
 24
0.0
 34
0.0
 15
297.0
 25
210.0
 35
0.0
146
0.0
 13
0.0
 23
0.0
 33
0.0
 16
1.0
 26
0.0
 36
0.0
 17
0.0
 27
1.0
 37
0.0
 76
     0
330
1F
331
29
  0
MATERIAL
  5
3D
102
{ACAD_REACTORS
330
3B
102
}
102
{ACAD_XDICTIONARY
360
1E5
102
}
330
3B
100
AcDbMaterial
  1
ByBlock
  0
MATERIAL
  5
3C
102
{ACAD_REACTORS
330
3B
102
}
102
{ACAD_XDICTIONARY
360
1E3
102
}
330
3B
100
AcDbMaterial
  1
ByLayer
  0
MATERIAL
  5
3E
102
{ACAD_REACTORS
330
3B
102
}
102
{ACAD_XDICTIONARY
360
1E7
102
}
330
3B
100
AcDbMaterial
  1
Global
  0
MLINESTYLE
  5
18
102
{ACAD_REACTORS
330
17
102
}
330
17
100
AcDbMlineStyle
  2
Standard
 70
     0
  3

 62
   256
 51
90.0
 52
90.0
 71
     2
 49
0.5
 62
   256
  6
BYLAYER
 49
-0.5
 62
   256
  6
BYLAYER
  0
ACDBPLACEHOLDER
  5
F
102
{ACAD_REACTORS
330
E
102
}
330
E
  0
VISUALSTYLE
  5
2F
102
{ACAD_REACTORS
330
2A
102
}
102
{ACAD_XDICTIONARY
360
1CB
102
}
330
2A
100
AcDbVisualStyle
  2
2dWireframe
 70
     4
 71
     0
 72
     2
 73
     0
 90
        0
 40
-0.6
 41
-30.0
 62
     5
 63
     7
 74
     1
 91
        4
 64
     7
 65
   257
 75
     1
175
     1
 42
1.0
 92
        0
 66
   257
 43
1.0
 76
     1
 77
     6
 78
     2
 67
     7
 79
     5
170
     0
171
     0
290
     0
174
     0
 93
        1
 44
0.0
173
     0
291
     0
 45
0.0
1001
ACAD
1000
AcDbSavedByObjectVersion
1070
     0
  0
VISUALSTYLE
  5
31
102
{ACAD_REACTORS
330
2A
102
}
102
{ACAD_XDICTIONARY
360
1CF
102
}
330
2A
100
AcDbVisualStyle
  2
3D Hidden
 70
     6
 71
     1
 72
     2
 73
     2
 90
        0
 40
-0.6
 41
-30.0
 62
     5
 63
     7
 74
     2
 91
        2
 64
     7
 65
   257
 75
     2
175
     1
 42
40.0
 92
        0
 66
   257
 43
1.0
 76
     1
 77
     6
 78
     2
 67
     7
 79
     3
170
     0
171
     0
290
     0
174
     0
 93
        1
 44
0.0
173
     0
291
     0
 45
0.0
1001
ACAD
1000
AcDbSavedByObjectVersion
1070
     0
  0
VISUALSTYLE
  5
30
102
{ACAD_REACTORS
330
2A
102
}
102
{ACAD_XDICTIONARY
360
1CD
102
}
330
2A
100
AcDbVisualStyle
  2
3dWireframe
 70
     5
 71
     0
 72
     2
 73
     0
 90
        0
 40
-0.6
 41
-30.0
 62
     5
 63
     7
 74
     1
 91
        4
 64
     7
 65
   257
 75
     1
175
     1
 42
1.0
 92
        0
 66
   257
 43
1.0
 76
     1
 77
     6
 78
     2
 67
     7
 79
     5
170
     0
171
     0
290
     0
174
     0
 93
        1
 44
0.0
173
     0
291
     0
 45
0.0
1001
ACAD
1000
AcDbSavedByObjectVersion
1070
     0
  0
VISUALSTYLE
  5
32
102
{ACAD_REACTORS
330
2A
102
}
102
{ACAD_XDICTIONARY
360
1D1
102
}
330
2A
100
AcDbVisualStyle
  2
Basic
 70
     7
 71
     1
 72
     0
 73
     1
 90
        0
 40
-0.6
 41
-30.0
 62
     5
 63
     7
 74
     0
 91
        4
 64
     7
 65
   257
 75
     1
175
     1
 42
1.0
 92
        8
 66
     7
 43
1.0
 76
     1
 77
     6
 78
     2
 67
     7
 79
     5
170
     0
171
     0
290
     0
174
     0
 93
        1
 44
0.0
173
     0
291
     1
 45
0.0
1001
ACAD
1000
AcDbSavedByObjectVersion
1070
     0
  0
VISUALSTYLE
  5
36
102
{ACAD_REACTORS
330
2A
102
}
102
{ACAD_XDICTIONARY
360
1D9
102
}
330
2A
100
AcDbVisualStyle
  2
Brighten
 70
    12
 71
     2
 72
     2
 73
     0
 90
        0
 40
-0.6
 41
-30.0
 62
     5
 63
     7
 74
     1
 91
        4
 64
     7
 65
   257
 75
     1
175
     1
 42
1.0
 92
        8
 66
     7
 43
1.0
 76
     1
 77
     6
 78
     2
 67
     7
 79
     5
170
     0
171
     0
290
     0
174
     0
 93
        1
 44
50.0
173
     0
291
     1
 45
0.0
1001
ACAD
1000
AcDbSavedByObjectVersion
1070
     0
  0
VISUALSTYLE
  5
3A
102
{ACAD_REACTORS
330
2A
102
}
102
{ACAD_XDICTIONARY
360
1E1
102
}
330
2A
100
AcDbVisualStyle
  2
ColorChange
 70
    16
 71
     2
 72
     2
 73
     3
 90
        0
 40
-0.6
 41
-30.0
 62
     5
 63
     8
 74
     1
 91
        4
 64
     7
 65
   257
 75
     1
175
     1
 42
1.0
 92
        8
 66
     8
 43
1.0
 76
     1
 77
     6
 78
     2
 67
     7
 79
     5
170
     0
171
     0
290
     0
174
     0
 93
        1
 44
0.0
173
     0
291
     1
 45
0.0
1001
ACAD
1000
AcDbSavedByObjectVersion
1070
     0
  0
VISUALSTYLE
  5
34
102
{ACAD_REACTORS
330
2A
102
}
102
{ACAD_XDICTIONARY
360
1D5
102
}
330
2A
100
AcDbVisualStyle
  2
Conceptual
 70
     9
 71
     3
 72
     2
 73
     0
 90
        0
 40
-0.6
 41
-30.0
 62
     5
 63
     7
 74
     2
 91
        2
 64
     7
 65
   257
 75
     1
175
     1
 42
40.0
 92
        8
 66
     7
 43
1.0
 76
     1
 77
     6
 78
     2
 67
     7
 79
     3
170
     0
171
     0
290
     0
174
     0
 93
        1
 44
0.0
173
     0
291
     0
 45
0.0
1001
ACAD
1000
AcDbSavedByObjectVersion
1070
     0
  0
VISUALSTYLE
  5
35
102
{ACAD_REACTORS
330
2A
102
}
102
{ACAD_XDICTIONARY
360
1D7
102
}
330
2A
100
AcDbVisualStyle
  2
Dim
 70
    11
 71
     2
 72
     2
 73
     0
 90
        0
 40
-0.6
 41
-30.0
 62
     5
 63
     7
 74
     1
 91
        4
 64
     7
 65
   257
 75
     1
175
     1
 42
1.0
 92
        8
 66
     7
 43
1.0
 76
     1
 77
     6
 78
     2
 67
     7
 79
     5
170
     0
171
     0
290
     0
174
     0
 93
        1
 44
-50.0
173
     0
291
     1
 45
0.0
1001
ACAD
1000
AcDbSavedByObjectVersion
1070
     0
  0
VISUALSTYLE
  5
39
102
{ACAD_REACTORS
330
2A
102
}
102
{ACAD_XDICTIONARY
360
1DF
102
}
330
2A
100
AcDbVisualStyle
  2
Facepattern
 70
    15
 71
     2
 72
     2
 73
     0
 90
        0
 40
-0.6
 41
-30.0
 62
     5
 63
     7
 74
     1
 91
        4
 64
     7
 65
   257
 75
     1
175
     1
 42
1.0
 92
        8
 66
     7
 43
1.0
 76
     1
 77
     6
 78
     2
 67
     7
 79
     5
170
     0
171
     0
290
     0
174
     0
 93
        1
 44
0.0
173
     0
291
     1
 45
0.0
1001
ACAD
1000
AcDbSavedByObjectVersion
1070
     0
  0
VISUALSTYLE
  5
2B
102
{ACAD_REACTORS
330
2A
102
}
102
{ACAD_XDICTIONARY
360
1C3
102
}
330
2A
100
AcDbVisualStyle
  2
Flat
 70
     0
 71
     2
 72
     1
 73
     1
 90
        2
 40
-0.6
 41
30.0
 62
     5
 63
     7
 74
     0
 91
        4
 64
     7
 65
   257
 75
     1
175
     1
 42
1.0
 92
        8
 66
     7
 43
1.0
 76
     1
 77
     6
 78
     2
 67
     7
 79
     5
170
     0
171
     0
290
     0
174
     0
 93
       13
 44
0.0
173
     0
291
     1
 45
0.0
1001
ACAD
1000
AcDbSavedByObjectVersion
1070
     0
  0
VISUALSTYLE
  5
2C
102
{ACAD_REACTORS
330
2A
102
}
102
{ACAD_XDICTIONARY
360
1C5
102
}
330
2A
100
AcDbVisualStyle
  2
FlatWithEdges
 70
     1
 71
     2
 72
     1
 73
     1
 90
        2
 40
-0.6
 41
30.0
 62
     5
 63
     7
 74
     1
 91
        4
 64
     7
 65
   257
 75
     1
175
     1
 42
1.0
 92
        0
 66
   257
 43
1.0
 76
     1
 77
     6
 78
     2
 67
     7
 79
     5
170
     0
171
     0
290
     0
174
     0
 93
       13
 44
0.0
173
     0
291
     1
 45
0.0
1001
ACAD
1000
AcDbSavedByObjectVersion
1070
     0
  0
VISUALSTYLE
  5
2D
102
{ACAD_REACTORS
330
2A
102
}
102
{ACAD_XDICTIONARY
360
1C7
102
}
330
2A
100
AcDbVisualStyle
  2
Gouraud
 70
     2
 71
     2
 72
     2
 73
     1
 90
        2
 40
-0.6
 41
30.0
 62
     5
 63
     7
 74
     0
 91
        4
 64
     7
 65
   257
 75
     1
175
     1
 42
1.0
 92
        0
 66
     7
 43
1.0
 76
     1
 77
     6
 78
     2
 67
     7
 79
     5
170
     0
171
     0
290
     0
174
     0
 93
       13
 44
0.0
173
     0
291
     1
 45
0.0
1001
ACAD
1000
AcDbSavedByObjectVersion
1070
     0
  0
VISUALSTYLE
  5
2E
102
{ACAD_REACTORS
330
2A
102
}
102
{ACAD_XDICTIONARY
360
1C9
102
}
330
2A
100
AcDbVisualStyle
  2
GouraudWithEdges
 70
     3
 71
     2
 72
     2
 73
     1
 90
        2
 40
-0.6
 41
30.0
 62
     5
 63
     7
 74
     1
 91
        4
 64
     7
 65
   257
 75
     1
175
     1
 42
1.0
 92
        0
 66
   257
 43
1.0
 76
     1
 77
     6
 78
     2
 67
     7
 79
     5
170
     0
171
     0
290
     0
174
     0
 93
       13
 44
0.0
173
     0
291
     1
 45
0.0
1001
ACAD
1000
AcDbSavedByObjectVersion
1070
     0
  0
VISUALSTYLE
  5
38
102
{ACAD_REACTORS
330
2A
102
}
102
{ACAD_XDICTIONARY
360
1DD
102
}
330
2A
100
AcDbVisualStyle
  2
Linepattern
 70
    14
 71
     2
 72
     2
 73
     0
 90
        0
 40
-0.6
 41
-30.0
 62
     5
 63
     7
 74
     1
 91
        4
 64
     7
 65
   257
 75
     7
175
     7
 42
1.0
 92
        8
 66
     7
 43
1.0
 76
     1
 77
     6
 78
     2
 67
     7
 79
     5
170
     0
171
     0
290
     0
174
     0
 93
        1
 44
0.0
173
     0
291
     1
 45
0.0
1001
ACAD
1000
AcDbSavedByObjectVersion
1070
     0
  0
VISUALSTYLE
  5
33
102
{ACAD_REACTORS
330
2A
102
}
102
{ACAD_XDICTIONARY
360
1D3
102
}
330
2A
100
AcDbVisualStyle
  2
Realistic
 70
     8
 71
     2
 72
     2
 73
     0
 90
        0
 40
-0.6
 41
-30.0
 62
     5
 63
     7
 74
     1
 91
        0
 64
     7
 65
   257
 75
     1
175
     1
 42
1.0
 92
        8
 66
     8
 43
1.0
 76
     1
 77
     6
 78
     2
 67
     7
 79
     5
170
     0
171
     0
290
     0
174
     0
 93
       13
 44
0.0
173
     0
291
     0
 45
0.0
1001
ACAD
1000
AcDbSavedByObjectVersion
1070
     0
  0
VISUALSTYLE
  5
37
102
{ACAD_REACTORS
330
2A
102
}
102
{ACAD_XDICTIONARY
360
1DB
102
}
330
2A
100
AcDbVisualStyle
  2
Thicken
 70
    13
 71
     2
 72
     2
 73
     0
 90
        0
 40
-0.6
 41
-30.0
 62
     5
 63
     7
 74
     1
 91
        4
 64
     7
 65
   257
 75
     1
175
     1
 42
1.0
 92
       12
 66
     7
 43
1.0
 76
     1
 77
     6
 78
     2
 67
     7
 79
     5
170
     0
171
     0
290
     0
174
     0
 93
        1
 44
0.0
173
     0
291
     1
 45
0.0
1001
ACAD
1000
AcDbSavedByObjectVersion
1070
     0
  0
DICTIONARYVAR
  5
1BB
102
{ACAD_REACTORS
330
1B6
102
}
330
1B6
100
DictionaryVariables
280
     0
  1
2
  0
DICTIONARYVAR
  5
1BC
102
{ACAD_REACTORS
330
1B6
102
}
330
1B6
100
DictionaryVariables
280
     0
  1
1
  0
DICTIONARYVAR
  5
1BA
102
{ACAD_REACTORS
330
1B6
102
}
330
1B6
100
DictionaryVariables
280
     0
  1
80.000000
  0
DICTIONARYVAR
  5
1B9
102
{ACAD_REACTORS
330
1B6
102
}
330
1B6
100
DictionaryVariables
280
     0
  1
5.000000
  0
DICTIONARY
  5
1E5
330
3D
100
AcDbDictionary
280
     1
281
     1
  3
ACAD_XREC_ROUNDTRIP
360
1E6
  0
DICTIONARY
  5
1E3
330
3C
100
AcDbDictionary
280
     1
281
     1
  3
ACAD_XREC_ROUNDTRIP
360
1E4
  0
DICTIONARY
  5
1E7
330
3E
100
AcDbDictionary
280
     1
281
     1
  3
ACAD_XREC_ROUNDTRIP
360
1E8
  0
DICTIONARY
  5
1CB
330
2F
100
AcDbDictionary
280
     1
281
     1
  3
ACAD_XREC_ROUNDTRIP
360
1CC
  0
DICTIONARY
  5
1CF
330
31
100
AcDbDictionary
280
     1
281
     1
  3
ACAD_XREC_ROUNDTRIP
360
1D0
  0
DICTIONARY
  5
1CD
330
30
100
AcDbDictionary
280
     1
281
     1
  3
ACAD_XREC_ROUNDTRIP
360
1CE
  0
DICTIONARY
  5
1D1
330
32
100
AcDbDictionary
280
     1
281
     1
  3
ACAD_XREC_ROUNDTRIP
360
1D2
  0
DICTIONARY
  5
1D9
330
36
100
AcDbDictionary
280
     1
281
     1
  3
ACAD_XREC_ROUNDTRIP
360
1DA
  0
DICTIONARY
  5
1E1
330
3A
100
AcDbDictionary
280
     1
281
     1
  3
ACAD_XREC_ROUNDTRIP
360
1E2
  0
DICTIONARY
  5
1D5
330
34
100
AcDbDictionary
280
     1
281
     1
  3
ACAD_XREC_ROUNDTRIP
360
1D6
  0
DICTIONARY
  5
1D7
330
35
100
AcDbDictionary
280
     1
281
     1
  3
ACAD_XREC_ROUNDTRIP
360
1D8
  0
DICTIONARY
  5
1DF
330
39
100
AcDbDictionary
280
     1
281
     1
  3
ACAD_XREC_ROUNDTRIP
360
1E0
  0
DICTIONARY
  5
1C3
330
2B
100
AcDbDictionary
280
     1
281
     1
  3
ACAD_XREC_ROUNDTRIP
360
1C4
  0
DICTIONARY
  5
1C5
330
2C
100
AcDbDictionary
280
     1
281
     1
  3
ACAD_XREC_ROUNDTRIP
360
1C6
  0
DICTIONARY
  5
1C7
330
2D
100
AcDbDictionary
280
     1
281
     1
  3
ACAD_XREC_ROUNDTRIP
360
1C8
  0
DICTIONARY
  5
1C9
330
2E
100
AcDbDictionary
280
     1
281
     1
  3
ACAD_XREC_ROUNDTRIP
360
1CA
  0
DICTIONARY
  5
1DD
330
38
100
AcDbDictionary
280
     1
281
     1
  3
ACAD_XREC_ROUNDTRIP
360
1DE
  0
DICTIONARY
  5
1D3
330
33
100
AcDbDictionary
280
     1
281
     1
  3
ACAD_XREC_ROUNDTRIP
360
1D4
  0
DICTIONARY
  5
1DB
330
37
100
AcDbDictionary
280
     1
281
     1
  3
ACAD_XREC_ROUNDTRIP
360
1DC
  0
XRECORD
  5
1E6
102
{ACAD_REACTORS
330
1E5
102
}
330
1E5
100
AcDbXrecord
280
     1
102
MATERIAL
148
0.0
149
0.0
149
0.0
 93
        0
 94
      127
282
     0
 72
     1
 77
     1
171
     1
175
     1
179
     1
273
     0
  0
XRECORD
  5
1E4
102
{ACAD_REACTORS
330
1E3
102
}
330
1E3
100
AcDbXrecord
280
     1
102
MATERIAL
148
0.0
149
0.0
149
0.0
 93
        0
 94
      127
282
     0
 72
     1
 77
     1
171
     1
175
     1
179
     1
273
     0
  0
XRECORD
  5
1E8
102
{ACAD_REACTORS
330
1E7
102
}
330
1E7
100
AcDbXrecord
280
     1
102
MATERIAL
148
0.0
149
0.0
149
0.0
 93
        0
 94
      127
282
     0
 72
     1
 77
     1
171
     1
175
     1
179
     1
273
     0
  0
XRECORD
  5
1CC
102
{ACAD_REACTORS
330
1CB
102
}
330
1CB
100
AcDbXrecord
280
     1
102
RTVSPropertyOp0
 70
     1
102
RTVSPropertyOp1
 70
     1
102
RTVSPropertyOp2
 70
     1
102
RTVSPropertyOp3
 70
     1
102
RTVSPropertyOp4
 70
     1
102
RTVSPropertyOp5
 70
     1
102
RTVSPropertyOp6
 70
     1
102
RTVSPropertyOp7
 70
     1
102
RTVSPropertyOp8
 70
     1
102
RTVSPropertyOp9
 70
     1
102
RTVSPropertyOp10
 70
     1
102
RTVSPropertyOp11
 70
     1
102
RTVSPropertyOp12
 70
     1
102
RTVSPropertyOp13
 70
     1
102
RTVSPropertyOp14
 70
     1
102
RTVSPropertyOp15
 70
     1
102
RTVSPropertyOp16
 70
     1
102
RTVSPropertyOp17
 70
     1
102
RTVSPropertyOp18
 70
     1
102
RTVSPropertyOp19
 70
     1
102
RTVSPropertyOp20
 70
     1
102
RTVSPropertyOp21
 70
     1
102
RTVSPropertyOp22
 70
     1
102
RTVSPropertyOp23
 70
     1
102
RTVSPropertyOp24
 70
     1
102
RTVSPropertyOp25
 70
     1
102
RTVSPropertyOp26
 70
     1
102
RTVSPropertyOp27
 70
     1
102
RTVSPropertyOp28
 70
     1
102
RTVSPropertyOp29
 70
     1
102
RTVSPropertyOp30
 70
     1
102
RTVSPropertyOp31
 70
     1
102
RTVSPropertyOp32
 70
     1
  0
XRECORD
  5
1D0
102
{ACAD_REACTORS
330
1CF
102
}
330
1CF
100
AcDbXrecord
280
     1
102
RTVSPropertyOp0
 70
     1
102
RTVSPropertyOp1
 70
     1
102
RTVSPropertyOp2
 70
     1
102
RTVSPropertyOp3
 70
     1
102
RTVSPropertyOp4
 70
     1
102
RTVSPropertyOp5
 70
     1
102
RTVSPropertyOp6
 70
     1
102
RTVSPropertyOp7
 70
     1
102
RTVSPropertyOp8
 70
     1
102
RTVSPropertyOp9
 70
     1
102
RTVSPropertyOp10
 70
     1
102
RTVSPropertyOp11
 70
     1
102
RTVSPropertyOp12
 70
     1
102
RTVSPropertyOp13
 70
     1
102
RTVSPropertyOp14
 70
     1
102
RTVSPropertyOp15
 70
     1
102
RTVSPropertyOp16
 70
     1
102
RTVSPropertyOp17
 70
     1
102
RTVSPropertyOp18
 70
     1
102
RTVSPropertyOp19
 70
     1
102
RTVSPropertyOp20
 70
     1
102
RTVSPropertyOp21
 70
     1
102
RTVSPropertyOp22
 70
     1
102
RTVSPropertyOp23
 70
     1
102
RTVSPropertyOp24
 70
     1
102
RTVSPropertyOp25
 70
     1
102
RTVSPropertyOp26
 70
     1
102
RTVSPropertyOp27
 70
     1
102
RTVSPropertyOp28
 70
     1
102
RTVSPropertyOp29
 70
     1
102
RTVSPropertyOp30
 70
     1
102
RTVSPropertyOp31
 70
     1
102
RTVSPropertyOp32
 70
     1
  0
XRECORD
  5
1CE
102
{ACAD_REACTORS
330
1CD
102
}
330
1CD
100
AcDbXrecord
280
     1
102
RTVSPropertyOp0
 70
     1
102
RTVSPropertyOp1
 70
     1
102
RTVSPropertyOp2
 70
     1
102
RTVSPropertyOp3
 70
     1
102
RTVSPropertyOp4
 70
     1
102
RTVSPropertyOp5
 70
     1
102
RTVSPropertyOp6
 70
     1
102
RTVSPropertyOp7
 70
     1
102
RTVSPropertyOp8
 70
     1
102
RTVSPropertyOp9
 70
     1
102
RTVSPropertyOp10
 70
     1
102
RTVSPropertyOp11
 70
     1
102
RTVSPropertyOp12
 70
     1
102
RTVSPropertyOp13
 70
     1
102
RTVSPropertyOp14
 70
     1
102
RTVSPropertyOp15
 70
     1
102
RTVSPropertyOp16
 70
     1
102
RTVSPropertyOp17
 70
     1
102
RTVSPropertyOp18
 70
     1
102
RTVSPropertyOp19
 70
     1
102
RTVSPropertyOp20
 70
     1
102
RTVSPropertyOp21
 70
     1
102
RTVSPropertyOp22
 70
     1
102
RTVSPropertyOp23
 70
     1
102
RTVSPropertyOp24
 70
     1
102
RTVSPropertyOp25
 70
     1
102
RTVSPropertyOp26
 70
     1
102
RTVSPropertyOp27
 70
     1
102
RTVSPropertyOp28
 70
     1
102
RTVSPropertyOp29
 70
     1
102
RTVSPropertyOp30
 70
     1
102
RTVSPropertyOp31
 70
     1
102
RTVSPropertyOp32
 70
     1
  0
XRECORD
  5
1D2
102
{ACAD_REACTORS
330
1D1
102
}
330
1D1
100
AcDbXrecord
280
     1
102
RTVSPropertyOp0
 70
     1
102
RTVSPropertyOp1
 70
     1
102
RTVSPropertyOp2
 70
     1
102
RTVSPropertyOp3
 70
     1
102
RTVSPropertyOp4
 70
     1
102
RTVSPropertyOp5
 70
     1
102
RTVSPropertyOp6
 70
     1
102
RTVSPropertyOp7
 70
     1
102
RTVSPropertyOp8
 70
     1
102
RTVSPropertyOp9
 70
     1
102
RTVSPropertyOp10
 70
     1
102
RTVSPropertyOp11
 70
     1
102
RTVSPropertyOp12
 70
     1
102
RTVSPropertyOp13
 70
     1
102
RTVSPropertyOp14
 70
     1
102
RTVSPropertyOp15
 70
     1
102
RTVSPropertyOp16
 70
     1
102
RTVSPropertyOp17
 70
     1
102
RTVSPropertyOp18
 70
     1
102
RTVSPropertyOp19
 70
     1
102
RTVSPropertyOp20
 70
     1
102
RTVSPropertyOp21
 70
     1
102
RTVSPropertyOp22
 70
     1
102
RTVSPropertyOp23
 70
     1
102
RTVSPropertyOp24
 70
     1
102
RTVSPropertyOp25
 70
     1
102
RTVSPropertyOp26
 70
     1
102
RTVSPropertyOp27
 70
     1
102
RTVSPropertyOp28
 70
     1
102
RTVSPropertyOp29
 70
     1
102
RTVSPropertyOp30
 70
     1
102
RTVSPropertyOp31
 70
     1
102
RTVSPropertyOp32
 70
     1
  0
XRECORD
  5
1DA
102
{ACAD_REACTORS
330
1D9
102
}
330
1D9
100
AcDbXrecord
280
     1
102
RTVSPropertyOp0
 70
     1
102
RTVSPropertyOp1
 70
     1
102
RTVSPropertyOp2
 70
     1
102
RTVSPropertyOp3
 70
     1
102
RTVSPropertyOp4
 70
     1
102
RTVSPropertyOp5
 70
     1
102
RTVSPropertyOp6
 70
     1
102
RTVSPropertyOp7
 70
     1
102
RTVSPropertyOp8
 70
     1
102
RTVSPropertyOp9
 70
     1
102
RTVSPropertyOp10
 70
     1
102
RTVSPropertyOp11
 70
     1
102
RTVSPropertyOp12
 70
     1
102
RTVSPropertyOp13
 70
     1
102
RTVSPropertyOp14
 70
     1
102
RTVSPropertyOp15
 70
     1
102
RTVSPropertyOp16
 70
     1
102
RTVSPropertyOp17
 70
     1
102
RTVSPropertyOp18
 70
     1
102
RTVSPropertyOp19
 70
     1
102
RTVSPropertyOp20
 70
     1
102
RTVSPropertyOp21
 70
     1
102
RTVSPropertyOp22
 70
     1
102
RTVSPropertyOp23
 70
     1
102
RTVSPropertyOp24
 70
     1
102
RTVSPropertyOp25
 70
     1
102
RTVSPropertyOp26
 70
     1
102
RTVSPropertyOp27
 70
     1
102
RTVSPropertyOp28
 70
     1
102
RTVSPropertyOp29
 70
     1
102
RTVSPropertyOp30
 70
     1
102
RTVSPropertyOp31
 70
     1
102
RTVSPropertyOp32
 70
     1
  0
XRECORD
  5
1E2
102
{ACAD_REACTORS
330
1E1
102
}
330
1E1
100
AcDbXrecord
280
     1
102
RTVSPropertyOp0
 70
     1
102
RTVSPropertyOp1
 70
     1
102
RTVSPropertyOp2
 70
     1
102
RTVSPropertyOp3
 70
     1
102
RTVSPropertyOp4
 70
     1
102
RTVSPropertyOp5
 70
     1
102
RTVSPropertyOp6
 70
     1
102
RTVSPropertyOp7
 70
     1
102
RTVSPropertyOp8
 70
     1
102
RTVSPropertyOp9
 70
     1
102
RTVSPropertyOp10
 70
     1
102
RTVSPropertyOp11
 70
     1
102
RTVSPropertyOp12
 70
     1
102
RTVSPropertyOp13
 70
     1
102
RTVSPropertyOp14
 70
     1
102
RTVSPropertyOp15
 70
     1
102
RTVSPropertyOp16
 70
     1
102
RTVSPropertyOp17
 70
     1
102
RTVSPropertyOp18
 70
     1
102
RTVSPropertyOp19
 70
     1
102
RTVSPropertyOp20
 70
     1
102
RTVSPropertyOp21
 70
     1
102
RTVSPropertyOp22
 70
     1
102
RTVSPropertyOp23
 70
     1
102
RTVSPropertyOp24
 70
     1
102
RTVSPropertyOp25
 70
     1
102
RTVSPropertyOp26
 70
     1
102
RTVSPropertyOp27
 70
     1
102
RTVSPropertyOp28
 70
     1
102
RTVSPropertyOp29
 70
     1
102
RTVSPropertyOp30
 70
     1
102
RTVSPropertyOp31
 70
     1
102
RTVSPropertyOp32
 70
     1
  0
XRECORD
  5
1D6
102
{ACAD_REACTORS
330
1D5
102
}
330
1D5
100
AcDbXrecord
280
     1
102
RTVSPropertyOp0
 70
     1
102
RTVSPropertyOp1
 70
     1
102
RTVSPropertyOp2
 70
     1
102
RTVSPropertyOp3
 70
     1
102
RTVSPropertyOp4
 70
     1
102
RTVSPropertyOp5
 70
     1
102
RTVSPropertyOp6
 70
     1
102
RTVSPropertyOp7
 70
     1
102
RTVSPropertyOp8
 70
     1
102
RTVSPropertyOp9
 70
     1
102
RTVSPropertyOp10
 70
     1
102
RTVSPropertyOp11
 70
     1
102
RTVSPropertyOp12
 70
     1
102
RTVSPropertyOp13
 70
     1
102
RTVSPropertyOp14
 70
     1
102
RTVSPropertyOp15
 70
     1
102
RTVSPropertyOp16
 70
     1
102
RTVSPropertyOp17
 70
     1
102
RTVSPropertyOp18
 70
     1
102
RTVSPropertyOp19
 70
     1
102
RTVSPropertyOp20
 70
     1
102
RTVSPropertyOp21
 70
     1
102
RTVSPropertyOp22
 70
     1
102
RTVSPropertyOp23
 70
     1
102
RTVSPropertyOp24
 70
     1
102
RTVSPropertyOp25
 70
     1
102
RTVSPropertyOp26
 70
     1
102
RTVSPropertyOp27
 70
     1
102
RTVSPropertyOp28
 70
     1
102
RTVSPropertyOp29
 70
     1
102
RTVSPropertyOp30
 70
     1
102
RTVSPropertyOp31
 70
     1
102
RTVSPropertyOp32
 70
     1
  0
XRECORD
  5
1D8
102
{ACAD_REACTORS
330
1D7
102
}
330
1D7
100
AcDbXrecord
280
     1
102
RTVSPropertyOp0
 70
     1
102
RTVSPropertyOp1
 70
     1
102
RTVSPropertyOp2
 70
     1
102
RTVSPropertyOp3
 70
     1
102
RTVSPropertyOp4
 70
     1
102
RTVSPropertyOp5
 70
     1
102
RTVSPropertyOp6
 70
     1
102
RTVSPropertyOp7
 70
     1
102
RTVSPropertyOp8
 70
     1
102
RTVSPropertyOp9
 70
     1
102
RTVSPropertyOp10
 70
     1
102
RTVSPropertyOp11
 70
     1
102
RTVSPropertyOp12
 70
     1
102
RTVSPropertyOp13
 70
     1
102
RTVSPropertyOp14
 70
     1
102
RTVSPropertyOp15
 70
     1
102
RTVSPropertyOp16
 70
     1
102
RTVSPropertyOp17
 70
     1
102
RTVSPropertyOp18
 70
     1
102
RTVSPropertyOp19
 70
     1
102
RTVSPropertyOp20
 70
     1
102
RTVSPropertyOp21
 70
     1
102
RTVSPropertyOp22
 70
     1
102
RTVSPropertyOp23
 70
     1
102
RTVSPropertyOp24
 70
     1
102
RTVSPropertyOp25
 70
     1
102
RTVSPropertyOp26
 70
     1
102
RTVSPropertyOp27
 70
     1
102
RTVSPropertyOp28
 70
     1
102
RTVSPropertyOp29
 70
     1
102
RTVSPropertyOp30
 70
     1
102
RTVSPropertyOp31
 70
     1
102
RTVSPropertyOp32
 70
     1
  0
XRECORD
  5
1E0
102
{ACAD_REACTORS
330
1DF
102
}
330
1DF
100
AcDbXrecord
280
     1
102
RTVSPropertyOp0
 70
     1
102
RTVSPropertyOp1
 70
     1
102
RTVSPropertyOp2
 70
     1
102
RTVSPropertyOp3
 70
     1
102
RTVSPropertyOp4
 70
     1
102
RTVSPropertyOp5
 70
     1
102
RTVSPropertyOp6
 70
     1
102
RTVSPropertyOp7
 70
     1
102
RTVSPropertyOp8
 70
     1
102
RTVSPropertyOp9
 70
     1
102
RTVSPropertyOp10
 70
     1
102
RTVSPropertyOp11
 70
     1
102
RTVSPropertyOp12
 70
     1
102
RTVSPropertyOp13
 70
     1
102
RTVSPropertyOp14
 70
     1
102
RTVSPropertyOp15
 70
     1
102
RTVSPropertyOp16
 70
     1
102
RTVSPropertyOp17
 70
     1
102
RTVSPropertyOp18
 70
     1
102
RTVSPropertyOp19
 70
     1
102
RTVSPropertyOp20
 70
     1
102
RTVSPropertyOp21
 70
     1
102
RTVSPropertyOp22
 70
     1
102
RTVSPropertyOp23
 70
     1
102
RTVSPropertyOp24
 70
     1
102
RTVSPropertyOp25
 70
     1
102
RTVSPropertyOp26
 70
     1
102
RTVSPropertyOp27
 70
     1
102
RTVSPropertyOp28
 70
     1
102
RTVSPropertyOp29
 70
     1
102
RTVSPropertyOp30
 70
     1
102
RTVSPropertyOp31
 70
     1
102
RTVSPropertyOp32
 70
     1
  0
XRECORD
  5
1C4
102
{ACAD_REACTORS
330
1C3
102
}
330
1C3
100
AcDbXrecord
280
     1
102
RTVSPropertyOp0
 70
     1
102
RTVSPropertyOp1
 70
     1
102
RTVSPropertyOp2
 70
     1
102
RTVSPropertyOp3
 70
     1
102
RTVSPropertyOp4
 70
     1
102
RTVSPropertyOp5
 70
     1
102
RTVSPropertyOp6
 70
     1
102
RTVSPropertyOp7
 70
     1
102
RTVSPropertyOp8
 70
     1
102
RTVSPropertyOp9
 70
     1
102
RTVSPropertyOp10
 70
     1
102
RTVSPropertyOp11
 70
     1
102
RTVSPropertyOp12
 70
     1
102
RTVSPropertyOp13
 70
     1
102
RTVSPropertyOp14
 70
     1
102
RTVSPropertyOp15
 70
     1
102
RTVSPropertyOp16
 70
     1
102
RTVSPropertyOp17
 70
     1
102
RTVSPropertyOp18
 70
     1
102
RTVSPropertyOp19
 70
     1
102
RTVSPropertyOp20
 70
     1
102
RTVSPropertyOp21
 70
     1
102
RTVSPropertyOp22
 70
     1
102
RTVSPropertyOp23
 70
     1
102
RTVSPropertyOp24
 70
     1
102
RTVSPropertyOp25
 70
     1
102
RTVSPropertyOp26
 70
     1
102
RTVSPropertyOp27
 70
     1
102
RTVSPropertyOp28
 70
     1
102
RTVSPropertyOp29
 70
     1
102
RTVSPropertyOp30
 70
     1
102
RTVSPropertyOp31
 70
     1
102
RTVSPropertyOp32
 70
     1
  0
XRECORD
  5
1C6
102
{ACAD_REACTORS
330
1C5
102
}
330
1C5
100
AcDbXrecord
280
     1
102
RTVSPropertyOp0
 70
     1
102
RTVSPropertyOp1
 70
     1
102
RTVSPropertyOp2
 70
     1
102
RTVSPropertyOp3
 70
     1
102
RTVSPropertyOp4
 70
     1
102
RTVSPropertyOp5
 70
     1
102
RTVSPropertyOp6
 70
     1
102
RTVSPropertyOp7
 70
     1
102
RTVSPropertyOp8
 70
     1
102
RTVSPropertyOp9
 70
     1
102
RTVSPropertyOp10
 70
     1
102
RTVSPropertyOp11
 70
     1
102
RTVSPropertyOp12
 70
     1
102
RTVSPropertyOp13
 70
     1
102
RTVSPropertyOp14
 70
     1
102
RTVSPropertyOp15
 70
     1
102
RTVSPropertyOp16
 70
     1
102
RTVSPropertyOp17
 70
     1
102
RTVSPropertyOp18
 70
     1
102
RTVSPropertyOp19
 70
     1
102
RTVSPropertyOp20
 70
     1
102
RTVSPropertyOp21
 70
     1
102
RTVSPropertyOp22
 70
     1
102
RTVSPropertyOp23
 70
     1
102
RTVSPropertyOp24
 70
     1
102
RTVSPropertyOp25
 70
     1
102
RTVSPropertyOp26
 70
     1
102
RTVSPropertyOp27
 70
     1
102
RTVSPropertyOp28
 70
     1
102
RTVSPropertyOp29
 70
     1
102
RTVSPropertyOp30
 70
     1
102
RTVSPropertyOp31
 70
     1
102
RTVSPropertyOp32
 70
     1
  0
XRECORD
  5
1C8
102
{ACAD_REACTORS
330
1C7
102
}
330
1C7
100
AcDbXrecord
280
     1
102
RTVSPropertyOp0
 70
     1
102
RTVSPropertyOp1
 70
     1
102
RTVSPropertyOp2
 70
     1
102
RTVSPropertyOp3
 70
     1
102
RTVSPropertyOp4
 70
     1
102
RTVSPropertyOp5
 70
     1
102
RTVSPropertyOp6
 70
     1
102
RTVSPropertyOp7
 70
     1
102
RTVSPropertyOp8
 70
     1
102
RTVSPropertyOp9
 70
     1
102
RTVSPropertyOp10
 70
     1
102
RTVSPropertyOp11
 70
     1
102
RTVSPropertyOp12
 70
     1
102
RTVSPropertyOp13
 70
     1
102
RTVSPropertyOp14
 70
     1
102
RTVSPropertyOp15
 70
     1
102
RTVSPropertyOp16
 70
     1
102
RTVSPropertyOp17
 70
     1
102
RTVSPropertyOp18
 70
     1
102
RTVSPropertyOp19
 70
     1
102
RTVSPropertyOp20
 70
     1
102
RTVSPropertyOp21
 70
     1
102
RTVSPropertyOp22
 70
     1
102
RTVSPropertyOp23
 70
     1
102
RTVSPropertyOp24
 70
     1
102
RTVSPropertyOp25
 70
     1
102
RTVSPropertyOp26
 70
     1
102
RTVSPropertyOp27
 70
     1
102
RTVSPropertyOp28
 70
     1
102
RTVSPropertyOp29
 70
     1
102
RTVSPropertyOp30
 70
     1
102
RTVSPropertyOp31
 70
     1
102
RTVSPropertyOp32
 70
     1
  0
XRECORD
  5
1CA
102
{ACAD_REACTORS
330
1C9
102
}
330
1C9
100
AcDbXrecord
280
     1
102
RTVSPropertyOp0
 70
     1
102
RTVSPropertyOp1
 70
     1
102
RTVSPropertyOp2
 70
     1
102
RTVSPropertyOp3
 70
     1
102
RTVSPropertyOp4
 70
     1
102
RTVSPropertyOp5
 70
     1
102
RTVSPropertyOp6
 70
     1
102
RTVSPropertyOp7
 70
     1
102
RTVSPropertyOp8
 70
     1
102
RTVSPropertyOp9
 70
     1
102
RTVSPropertyOp10
 70
     1
102
RTVSPropertyOp11
 70
     1
102
RTVSPropertyOp12
 70
     1
102
RTVSPropertyOp13
 70
     1
102
RTVSPropertyOp14
 70
     1
102
RTVSPropertyOp15
 70
     1
102
RTVSPropertyOp16
 70
     1
102
RTVSPropertyOp17
 70
     1
102
RTVSPropertyOp18
 70
     1
102
RTVSPropertyOp19
 70
     1
102
RTVSPropertyOp20
 70
     1
102
RTVSPropertyOp21
 70
     1
102
RTVSPropertyOp22
 70
     1
102
RTVSPropertyOp23
 70
     1
102
RTVSPropertyOp24
 70
     1
102
RTVSPropertyOp25
 70
     1
102
RTVSPropertyOp26
 70
     1
102
RTVSPropertyOp27
 70
     1
102
RTVSPropertyOp28
 70
     1
102
RTVSPropertyOp29
 70
     1
102
RTVSPropertyOp30
 70
     1
102
RTVSPropertyOp31
 70
     1
102
RTVSPropertyOp32
 70
     1
  0
XRECORD
  5
1DE
102
{ACAD_REACTORS
330
1DD
102
}
330
1DD
100
AcDbXrecord
280
     1
102
RTVSPropertyOp0
 70
     1
102
RTVSPropertyOp1
 70
     1
102
RTVSPropertyOp2
 70
     1
102
RTVSPropertyOp3
 70
     1
102
RTVSPropertyOp4
 70
     1
102
RTVSPropertyOp5
 70
     1
102
RTVSPropertyOp6
 70
     1
102
RTVSPropertyOp7
 70
     1
102
RTVSPropertyOp8
 70
     1
102
RTVSPropertyOp9
 70
     1
102
RTVSPropertyOp10
 70
     1
102
RTVSPropertyOp11
 70
     1
102
RTVSPropertyOp12
 70
     1
102
RTVSPropertyOp13
 70
     1
102
RTVSPropertyOp14
 70
     1
102
RTVSPropertyOp15
 70
     1
102
RTVSPropertyOp16
 70
     1
102
RTVSPropertyOp17
 70
     1
102
RTVSPropertyOp18
 70
     1
102
RTVSPropertyOp19
 70
     1
102
RTVSPropertyOp20
 70
     1
102
RTVSPropertyOp21
 70
     1
102
RTVSPropertyOp22
 70
     1
102
RTVSPropertyOp23
 70
     1
102
RTVSPropertyOp24
 70
     1
102
RTVSPropertyOp25
 70
     1
102
RTVSPropertyOp26
 70
     1
102
RTVSPropertyOp27
 70
     1
102
RTVSPropertyOp28
 70
     1
102
RTVSPropertyOp29
 70
     1
102
RTVSPropertyOp30
 70
     1
102
RTVSPropertyOp31
 70
     1
102
RTVSPropertyOp32
 70
     1
  0
XRECORD
  5
1D4
102
{ACAD_REACTORS
330
1D3
102
}
330
1D3
100
AcDbXrecord
280
     1
102
RTVSPropertyOp0
 70
     1
102
RTVSPropertyOp1
 70
     1
102
RTVSPropertyOp2
 70
     1
102
RTVSPropertyOp3
 70
     1
102
RTVSPropertyOp4
 70
     1
102
RTVSPropertyOp5
 70
     1
102
RTVSPropertyOp6
 70
     1
102
RTVSPropertyOp7
 70
     1
102
RTVSPropertyOp8
 70
     1
102
RTVSPropertyOp9
 70
     1
102
RTVSPropertyOp10
 70
     1
102
RTVSPropertyOp11
 70
     1
102
RTVSPropertyOp12
 70
     1
102
RTVSPropertyOp13
 70
     1
102
RTVSPropertyOp14
 70
     1
102
RTVSPropertyOp15
 70
     1
102
RTVSPropertyOp16
 70
     1
102
RTVSPropertyOp17
 70
     1
102
RTVSPropertyOp18
 70
     1
102
RTVSPropertyOp19
 70
     1
102
RTVSPropertyOp20
 70
     1
102
RTVSPropertyOp21
 70
     1
102
RTVSPropertyOp22
 70
     1
102
RTVSPropertyOp23
 70
     1
102
RTVSPropertyOp24
 70
     1
102
RTVSPropertyOp25
 70
     1
102
RTVSPropertyOp26
 70
     1
102
RTVSPropertyOp27
 70
     1
102
RTVSPropertyOp28
 70
     1
102
RTVSPropertyOp29
 70
     1
102
RTVSPropertyOp30
 70
     1
102
RTVSPropertyOp31
 70
     1
102
RTVSPropertyOp32
 70
     1
  0
XRECORD
  5
1DC
102
{ACAD_REACTORS
330
1DB
102
}
330
1DB
100
AcDbXrecord
280
     1
102
RTVSPropertyOp0
 70
     1
102
RTVSPropertyOp1
 70
     1
102
RTVSPropertyOp2
 70
     1
102
RTVSPropertyOp3
 70
     1
102
RTVSPropertyOp4
 70
     1
102
RTVSPropertyOp5
 70
     1
102
RTVSPropertyOp6
 70
     1
102
RTVSPropertyOp7
 70
     1
102
RTVSPropertyOp8
 70
     1
102
RTVSPropertyOp9
 70
     1
102
RTVSPropertyOp10
 70
     1
102
RTVSPropertyOp11
 70
     1
102
RTVSPropertyOp12
 70
     1
102
RTVSPropertyOp13
 70
     1
102
RTVSPropertyOp14
 70
     1
102
RTVSPropertyOp15
 70
     1
102
RTVSPropertyOp16
 70
     1
102
RTVSPropertyOp17
 70
     1
102
RTVSPropertyOp18
 70
     1
102
RTVSPropertyOp19
 70
     1
102
RTVSPropertyOp20
 70
     1
102
RTVSPropertyOp21
 70
     1
102
RTVSPropertyOp22
 70
     1
102
RTVSPropertyOp23
 70
     1
102
RTVSPropertyOp24
 70
     1
102
RTVSPropertyOp25
 70
     1
102
RTVSPropertyOp26
 70
     1
102
RTVSPropertyOp27
 70
     1
102
RTVSPropertyOp28
 70
     1
102
RTVSPropertyOp29
 70
     1
102
RTVSPropertyOp30
 70
     1
102
RTVSPropertyOp31
 70
     1
102
RTVSPropertyOp32
 70
     1
  0
ENDSEC
  0
EOF
