ISO-10303-21;
HEADER;
/* Generated by software containing ST-Developer
 * from STEP Tools, Inc. (www.steptools.com) 
 */
/* OPTION: strings as raw bytes, not using required /X/ escapes */

FILE_DESCRIPTION(
/* description */ ('Unknown'),
/* implementation_level */ '2;1');

FILE_NAME(
/* name */ '391109999',
/* time_stamp */ '2019-10-21T14:56:56+02:00',
/* author */ ('Unknown'),
/* organization */ ('Unknown'),
/* preprocessor_version */ 'ST-DEVELOPER v16.7',
/* originating_system */ 'DEX',
/* authorisation */ $);

FILE_SCHEMA (('AUTOMOTIVE_DESIGN {1 0 10303 214 3 1 1}'));
ENDSEC;

DATA;
#10=PROPERTY_DEFINITION_REPRESENTATION(#14,#12);
#11=PROPERTY_DEFINITION_REPRESENTATION(#15,#13);
#12=REPRESENTATION('',(#16),#163);
#13=REPRESENTATION('',(#17),#163);
#14=PROPERTY_DEFINITION('pmi validation property','',#168);
#15=PROPERTY_DEFINITION('pmi validation property','',#168);
#16=VALUE_REPRESENTATION_ITEM('number of annotations',COUNT_MEASURE(0.));
#17=VALUE_REPRESENTATION_ITEM('number of views',COUNT_MEASURE(0.));
#18=SHAPE_REPRESENTATION_RELATIONSHIP('','',#99,#19);
#19=ADVANCED_BREP_SHAPE_REPRESENTATION('',(#97),#163);
#20=CYLINDRICAL_SURFACE('',#111,3.75);
#21=TOROIDAL_SURFACE('',#107,3.95434574946537,0.5);
#22=CONICAL_SURFACE('',#103,4.32367301929154,0.174532925199433);
#23=CONICAL_SURFACE('',#105,4.5,0.0872664625997168);
#24=ORIENTED_EDGE('',*,*,#36,.T.);
#25=ORIENTED_EDGE('',*,*,#37,.T.);
#26=ORIENTED_EDGE('',*,*,#36,.F.);
#27=ORIENTED_EDGE('',*,*,#38,.T.);
#28=ORIENTED_EDGE('',*,*,#37,.F.);
#29=ORIENTED_EDGE('',*,*,#39,.T.);
#30=ORIENTED_EDGE('',*,*,#38,.F.);
#31=ORIENTED_EDGE('',*,*,#40,.T.);
#32=ORIENTED_EDGE('',*,*,#39,.F.);
#33=ORIENTED_EDGE('',*,*,#41,.T.);
#34=ORIENTED_EDGE('',*,*,#40,.F.);
#35=ORIENTED_EDGE('',*,*,#41,.F.);
#36=EDGE_CURVE('',#42,#42,#48,.T.);
#37=EDGE_CURVE('',#43,#43,#49,.T.);
#38=EDGE_CURVE('',#44,#44,#50,.T.);
#39=EDGE_CURVE('',#45,#45,#51,.T.);
#40=EDGE_CURVE('',#46,#46,#52,.T.);
#41=EDGE_CURVE('',#47,#47,#53,.T.);
#42=VERTEX_POINT('',#145);
#43=VERTEX_POINT('',#148);
#44=VERTEX_POINT('',#151);
#45=VERTEX_POINT('',#154);
#46=VERTEX_POINT('',#157);
#47=VERTEX_POINT('',#160);
#48=CIRCLE('',#102,4.32367301929154);
#49=CIRCLE('',#104,4.5);
#50=CIRCLE('',#106,4.45244309851124);
#51=CIRCLE('',#108,3.95434574946537);
#52=CIRCLE('',#110,3.75);
#53=CIRCLE('',#112,3.75);
#54=EDGE_LOOP('',(#24));
#55=EDGE_LOOP('',(#25));
#56=EDGE_LOOP('',(#26));
#57=EDGE_LOOP('',(#27));
#58=EDGE_LOOP('',(#28));
#59=EDGE_LOOP('',(#29));
#60=EDGE_LOOP('',(#30));
#61=EDGE_LOOP('',(#31));
#62=EDGE_LOOP('',(#32));
#63=EDGE_LOOP('',(#33));
#64=EDGE_LOOP('',(#34));
#65=EDGE_LOOP('',(#35));
#66=FACE_BOUND('',#54,.T.);
#67=FACE_BOUND('',#55,.T.);
#68=FACE_BOUND('',#56,.T.);
#69=FACE_BOUND('',#57,.T.);
#70=FACE_BOUND('',#58,.T.);
#71=FACE_BOUND('',#59,.T.);
#72=FACE_BOUND('',#60,.T.);
#73=FACE_BOUND('',#61,.T.);
#74=FACE_BOUND('',#62,.T.);
#75=FACE_BOUND('',#63,.T.);
#76=FACE_BOUND('',#64,.T.);
#77=FACE_BOUND('',#65,.T.);
#78=PLANE('',#101);
#79=PLANE('',#109);
#80=PLANE('',#113);
#81=ADVANCED_FACE('',(#66),#78,.T.);
#82=ADVANCED_FACE('',(#67,#68),#22,.T.);
#83=ADVANCED_FACE('',(#69,#70),#23,.T.);
#84=ADVANCED_FACE('',(#71,#72),#21,.T.);
#85=ADVANCED_FACE('',(#73,#74),#79,.T.);
#86=ADVANCED_FACE('',(#75,#76),#20,.T.);
#87=ADVANCED_FACE('',(#77),#80,.T.);
#88=CLOSED_SHELL('',(#81,#82,#83,#84,#85,#86,#87));
#89=STYLED_ITEM('',(#90),#97);
#90=PRESENTATION_STYLE_ASSIGNMENT((#91));
#91=SURFACE_STYLE_USAGE(.BOTH.,#92);
#92=SURFACE_SIDE_STYLE('',(#93));
#93=SURFACE_STYLE_FILL_AREA(#94);
#94=FILL_AREA_STYLE('',(#95));
#95=FILL_AREA_STYLE_COLOUR('',#96);
#96=COLOUR_RGB('',0.645180702209473,0.678915679454803,0.699999988079071);
#97=MANIFOLD_SOLID_BREP('',#88);
#98=SHAPE_DEFINITION_REPRESENTATION(#168,#99);
#99=SHAPE_REPRESENTATION('0019594',(#100),#163);
#100=AXIS2_PLACEMENT_3D('',#142,#114,#115);
#101=AXIS2_PLACEMENT_3D('',#143,#116,#117);
#102=AXIS2_PLACEMENT_3D('',#144,#118,#119);
#103=AXIS2_PLACEMENT_3D('',#146,#120,#121);
#104=AXIS2_PLACEMENT_3D('',#147,#122,#123);
#105=AXIS2_PLACEMENT_3D('',#149,#124,#125);
#106=AXIS2_PLACEMENT_3D('',#150,#126,#127);
#107=AXIS2_PLACEMENT_3D('',#152,#128,#129);
#108=AXIS2_PLACEMENT_3D('',#153,#130,#131);
#109=AXIS2_PLACEMENT_3D('',#155,#132,#133);
#110=AXIS2_PLACEMENT_3D('',#156,#134,#135);
#111=AXIS2_PLACEMENT_3D('',#158,#136,#137);
#112=AXIS2_PLACEMENT_3D('',#159,#138,#139);
#113=AXIS2_PLACEMENT_3D('',#161,#140,#141);
#114=DIRECTION('',(0.,0.,1.));
#115=DIRECTION('',(1.,0.,0.));
#116=DIRECTION('',(-1.,0.,-1.74921689300221E-17));
#117=DIRECTION('',(-1.74921689300221E-17,0.,1.));
#118=DIRECTION('',(-1.,0.,-1.74921689300221E-17));
#119=DIRECTION('',(-1.74921689300221E-17,0.,1.));
#120=DIRECTION('',(1.,0.,1.74921689300221E-17));
#121=DIRECTION('',(1.74921689300221E-17,0.,-1.));
#122=DIRECTION('',(-1.,0.,-1.74921689300221E-17));
#123=DIRECTION('',(-1.74921689300221E-17,0.,1.));
#124=DIRECTION('',(-1.,0.,-1.74921689300221E-17));
#125=DIRECTION('',(-1.74921689300221E-17,0.,1.));
#126=DIRECTION('',(-1.,0.,-1.74921689300221E-17));
#127=DIRECTION('',(-1.74921689300221E-17,0.,1.));
#128=DIRECTION('',(-1.,0.,-1.74921689300221E-17));
#129=DIRECTION('',(-1.74921689300221E-17,0.,1.));
#130=DIRECTION('',(-1.,0.,-1.74921689300221E-17));
#131=DIRECTION('',(-1.74921689300221E-17,0.,1.));
#132=DIRECTION('',(1.,0.,1.74921689300221E-17));
#133=DIRECTION('',(1.74921689300221E-17,0.,-1.));
#134=DIRECTION('',(-1.,0.,-1.74921689300221E-17));
#135=DIRECTION('',(-1.74921689300221E-17,0.,1.));
#136=DIRECTION('',(-1.,0.,-1.74921689300221E-17));
#137=DIRECTION('',(-1.74921689300221E-17,0.,1.));
#138=DIRECTION('',(-1.,0.,-1.74921689300221E-17));
#139=DIRECTION('',(-1.74921689300221E-17,0.,1.));
#140=DIRECTION('',(1.,0.,1.74921689300221E-17));
#141=DIRECTION('',(1.74921689300221E-17,0.,-1.));
#142=CARTESIAN_POINT('',(0.,0.,0.));
#143=CARTESIAN_POINT('',(3.7815209425813E-17,0.,9.51605487885937E-16));
#144=CARTESIAN_POINT('',(0.,0.,-2.18652111625276E-17));
#145=CARTESIAN_POINT('',(-7.56304188516261E-17,0.,4.32367301929154));
#146=CARTESIAN_POINT('',(0.,0.,-2.18652111625276E-17));
#147=CARTESIAN_POINT('',(1.,0.,-4.37304223250553E-18));
#148=CARTESIAN_POINT('',(1.,0.,4.5));
#149=CARTESIAN_POINT('',(1.,0.,-4.37304223250553E-18));
#150=CARTESIAN_POINT('',(1.54357787137383,0.,5.13531372018723E-18));
#151=CARTESIAN_POINT('',(1.54357787137383,0.,4.45244309851124));
#152=CARTESIAN_POINT('',(1.5,0.,0.));
#153=CARTESIAN_POINT('',(2.,0.,1.31191266975165E-17));
#154=CARTESIAN_POINT('',(2.,0.,3.95434574946537));
#155=CARTESIAN_POINT('',(2.,0.,4.41251133647408));
#156=CARTESIAN_POINT('',(2.,0.,1.31191266975165E-17));
#157=CARTESIAN_POINT('',(2.,0.,3.75));
#158=CARTESIAN_POINT('',(2.5,0.,2.18652111625276E-17));
#159=CARTESIAN_POINT('',(2.5,0.,2.18652111625276E-17));
#160=CARTESIAN_POINT('',(2.5,0.,3.75));
#161=CARTESIAN_POINT('',(2.5,0.,3.75));
#162=MECHANICAL_DESIGN_GEOMETRIC_PRESENTATION_REPRESENTATION('',(#89),#163);
#163=(
GEOMETRIC_REPRESENTATION_CONTEXT(3)
GLOBAL_UNCERTAINTY_ASSIGNED_CONTEXT((#164))
GLOBAL_UNIT_ASSIGNED_CONTEXT((#167,#166,#165))
REPRESENTATION_CONTEXT('0019594','TOP_LEVEL_ASSEMBLY_PART')
);
#164=UNCERTAINTY_MEASURE_WITH_UNIT(LENGTH_MEASURE(0.005),#167,
'DISTANCE_ACCURACY_VALUE','Maximum Tolerance applied to model');
#165=(
NAMED_UNIT(*)
SI_UNIT($,.STERADIAN.)
SOLID_ANGLE_UNIT()
);
#166=(
NAMED_UNIT(*)
PLANE_ANGLE_UNIT()
SI_UNIT($,.RADIAN.)
);
#167=(
LENGTH_UNIT()
NAMED_UNIT(*)
SI_UNIT(.MILLI.,.METRE.)
);
#168=PRODUCT_DEFINITION_SHAPE('','',#169);
#169=PRODUCT_DEFINITION('','',#171,#170);
#170=PRODUCT_DEFINITION_CONTEXT('',#177,'design');
#171=PRODUCT_DEFINITION_FORMATION_WITH_SPECIFIED_SOURCE('','',#173,
 .NOT_KNOWN.);
#172=PRODUCT_RELATED_PRODUCT_CATEGORY('','',(#173));
#173=PRODUCT('0019594','0019594','0019594',(#175));
#174=PRODUCT_CATEGORY('','');
#175=PRODUCT_CONTEXT('',#177,'mechanical');
#176=APPLICATION_PROTOCOL_DEFINITION('international standard',
'automotive_design',2010,#177);
#177=APPLICATION_CONTEXT(
'core data for automotive mechanical design processes');
ENDSEC;
END-ISO-10303-21;
