ISO-10303-21;
HEADER;
/* Generated by software containing ST-Developer
 * from STEP Tools, Inc. (www.steptools.com) 
 */
/* OPTION: strings as raw bytes, not using required /X/ escapes */

FILE_DESCRIPTION(
/* description */ ('Unknown'),
/* implementation_level */ '2;1');

FILE_NAME(
/* name */ '394032000',
/* time_stamp */ '2018-04-11T08:56:37+02:00',
/* author */ ('Unknown'),
/* organization */ ('Unknown'),
/* preprocessor_version */ 'ST-DEVELOPER v16.7',
/* originating_system */ 'DEX',
/* authorisation */ $);

FILE_SCHEMA (('AUTOMOTIVE_DESIGN {1 0 10303 214 3 1 1}'));
ENDSEC;

DATA;
#10=PROPERTY_DEFINITION_REPRESENTATION(#14,#12);
#11=PROPERTY_DEFINITION_REPRESENTATION(#15,#13);
#12=REPRESENTATION('',(#16),#297);
#13=REPRESENTATION('',(#17),#297);
#14=PROPERTY_DEFINITION('pmi validation property','',#302);
#15=PROPERTY_DEFINITION('pmi validation property','',#302);
#16=VALUE_REPRESENTATION_ITEM('number of annotations',COUNT_MEASURE(0.));
#17=VALUE_REPRESENTATION_ITEM('number of views',COUNT_MEASURE(0.));
#18=SHAPE_REPRESENTATION_RELATIONSHIP('','',#174,#19);
#19=ADVANCED_BREP_SHAPE_REPRESENTATION('',(#172),#297);
#20=CONICAL_SURFACE('',#181,13.5,1.48352986419518);
#21=CONICAL_SURFACE('',#185,14.75,1.48352986419518);
#22=CONICAL_SURFACE('',#199,16.4855095289373,0.174532925199432);
#23=CONICAL_SURFACE('',#201,16.75,0.174532925199433);
#24=CYLINDRICAL_SURFACE('',#179,13.5);
#25=CYLINDRICAL_SURFACE('',#183,14.75);
#26=CYLINDRICAL_SURFACE('',#187,13.5);
#27=CYLINDRICAL_SURFACE('',#191,12.);
#28=CYLINDRICAL_SURFACE('',#195,15.25);
#29=ORIENTED_EDGE('',*,*,#55,.F.);
#30=ORIENTED_EDGE('',*,*,#56,.T.);
#31=ORIENTED_EDGE('',*,*,#57,.F.);
#32=ORIENTED_EDGE('',*,*,#55,.T.);
#33=ORIENTED_EDGE('',*,*,#58,.F.);
#34=ORIENTED_EDGE('',*,*,#57,.T.);
#35=ORIENTED_EDGE('',*,*,#59,.F.);
#36=ORIENTED_EDGE('',*,*,#58,.T.);
#37=ORIENTED_EDGE('',*,*,#60,.F.);
#38=ORIENTED_EDGE('',*,*,#59,.T.);
#39=ORIENTED_EDGE('',*,*,#61,.F.);
#40=ORIENTED_EDGE('',*,*,#60,.T.);
#41=ORIENTED_EDGE('',*,*,#62,.F.);
#42=ORIENTED_EDGE('',*,*,#61,.T.);
#43=ORIENTED_EDGE('',*,*,#63,.F.);
#44=ORIENTED_EDGE('',*,*,#62,.T.);
#45=ORIENTED_EDGE('',*,*,#64,.F.);
#46=ORIENTED_EDGE('',*,*,#63,.T.);
#47=ORIENTED_EDGE('',*,*,#65,.F.);
#48=ORIENTED_EDGE('',*,*,#64,.T.);
#49=ORIENTED_EDGE('',*,*,#66,.F.);
#50=ORIENTED_EDGE('',*,*,#65,.T.);
#51=ORIENTED_EDGE('',*,*,#67,.F.);
#52=ORIENTED_EDGE('',*,*,#66,.T.);
#53=ORIENTED_EDGE('',*,*,#56,.F.);
#54=ORIENTED_EDGE('',*,*,#67,.T.);
#55=EDGE_CURVE('',#68,#68,#81,.T.);
#56=EDGE_CURVE('',#69,#69,#82,.T.);
#57=EDGE_CURVE('',#70,#70,#83,.T.);
#58=EDGE_CURVE('',#71,#71,#84,.T.);
#59=EDGE_CURVE('',#72,#72,#85,.T.);
#60=EDGE_CURVE('',#73,#73,#86,.T.);
#61=EDGE_CURVE('',#74,#74,#87,.T.);
#62=EDGE_CURVE('',#75,#75,#88,.T.);
#63=EDGE_CURVE('',#76,#76,#89,.T.);
#64=EDGE_CURVE('',#77,#77,#90,.T.);
#65=EDGE_CURVE('',#78,#78,#91,.T.);
#66=EDGE_CURVE('',#79,#79,#92,.T.);
#67=EDGE_CURVE('',#80,#80,#93,.T.);
#68=VERTEX_POINT('',#259);
#69=VERTEX_POINT('',#261);
#70=VERTEX_POINT('',#264);
#71=VERTEX_POINT('',#267);
#72=VERTEX_POINT('',#270);
#73=VERTEX_POINT('',#273);
#74=VERTEX_POINT('',#276);
#75=VERTEX_POINT('',#279);
#76=VERTEX_POINT('',#282);
#77=VERTEX_POINT('',#285);
#78=VERTEX_POINT('',#288);
#79=VERTEX_POINT('',#291);
#80=VERTEX_POINT('',#294);
#81=CIRCLE('',#177,13.5);
#82=CIRCLE('',#178,16.4855095289373);
#83=CIRCLE('',#180,13.5);
#84=CIRCLE('',#182,14.75);
#85=CIRCLE('',#184,14.75);
#86=CIRCLE('',#186,13.5);
#87=CIRCLE('',#188,13.5);
#88=CIRCLE('',#190,12.);
#89=CIRCLE('',#192,12.);
#90=CIRCLE('',#194,15.25);
#91=CIRCLE('',#196,15.25);
#92=CIRCLE('',#198,16.4855095289373);
#93=CIRCLE('',#200,16.75);
#94=EDGE_LOOP('',(#29));
#95=EDGE_LOOP('',(#30));
#96=EDGE_LOOP('',(#31));
#97=EDGE_LOOP('',(#32));
#98=EDGE_LOOP('',(#33));
#99=EDGE_LOOP('',(#34));
#100=EDGE_LOOP('',(#35));
#101=EDGE_LOOP('',(#36));
#102=EDGE_LOOP('',(#37));
#103=EDGE_LOOP('',(#38));
#104=EDGE_LOOP('',(#39));
#105=EDGE_LOOP('',(#40));
#106=EDGE_LOOP('',(#41));
#107=EDGE_LOOP('',(#42));
#108=EDGE_LOOP('',(#43));
#109=EDGE_LOOP('',(#44));
#110=EDGE_LOOP('',(#45));
#111=EDGE_LOOP('',(#46));
#112=EDGE_LOOP('',(#47));
#113=EDGE_LOOP('',(#48));
#114=EDGE_LOOP('',(#49));
#115=EDGE_LOOP('',(#50));
#116=EDGE_LOOP('',(#51));
#117=EDGE_LOOP('',(#52));
#118=EDGE_LOOP('',(#53));
#119=EDGE_LOOP('',(#54));
#120=FACE_BOUND('',#94,.T.);
#121=FACE_BOUND('',#95,.T.);
#122=FACE_BOUND('',#96,.T.);
#123=FACE_BOUND('',#97,.T.);
#124=FACE_BOUND('',#98,.T.);
#125=FACE_BOUND('',#99,.T.);
#126=FACE_BOUND('',#100,.T.);
#127=FACE_BOUND('',#101,.T.);
#128=FACE_BOUND('',#102,.T.);
#129=FACE_BOUND('',#103,.T.);
#130=FACE_BOUND('',#104,.T.);
#131=FACE_BOUND('',#105,.T.);
#132=FACE_BOUND('',#106,.T.);
#133=FACE_BOUND('',#107,.T.);
#134=FACE_BOUND('',#108,.T.);
#135=FACE_BOUND('',#109,.T.);
#136=FACE_BOUND('',#110,.T.);
#137=FACE_BOUND('',#111,.T.);
#138=FACE_BOUND('',#112,.T.);
#139=FACE_BOUND('',#113,.T.);
#140=FACE_BOUND('',#114,.T.);
#141=FACE_BOUND('',#115,.T.);
#142=FACE_BOUND('',#116,.T.);
#143=FACE_BOUND('',#117,.T.);
#144=FACE_BOUND('',#118,.T.);
#145=FACE_BOUND('',#119,.T.);
#146=PLANE('',#176);
#147=PLANE('',#189);
#148=PLANE('',#193);
#149=PLANE('',#197);
#150=ADVANCED_FACE('',(#120,#121),#146,.F.);
#151=ADVANCED_FACE('',(#122,#123),#24,.F.);
#152=ADVANCED_FACE('',(#124,#125),#20,.F.);
#153=ADVANCED_FACE('',(#126,#127),#25,.F.);
#154=ADVANCED_FACE('',(#128,#129),#21,.F.);
#155=ADVANCED_FACE('',(#130,#131),#26,.F.);
#156=ADVANCED_FACE('',(#132,#133),#147,.F.);
#157=ADVANCED_FACE('',(#134,#135),#27,.F.);
#158=ADVANCED_FACE('',(#136,#137),#148,.F.);
#159=ADVANCED_FACE('',(#138,#139),#28,.T.);
#160=ADVANCED_FACE('',(#140,#141),#149,.F.);
#161=ADVANCED_FACE('',(#142,#143),#22,.T.);
#162=ADVANCED_FACE('',(#144,#145),#23,.T.);
#163=CLOSED_SHELL('',(#150,#151,#152,#153,#154,#155,#156,#157,#158,#159,
#160,#161,#162));
#164=STYLED_ITEM('',(#165),#172);
#165=PRESENTATION_STYLE_ASSIGNMENT((#166));
#166=SURFACE_STYLE_USAGE(.BOTH.,#167);
#167=SURFACE_SIDE_STYLE('',(#168));
#168=SURFACE_STYLE_FILL_AREA(#169);
#169=FILL_AREA_STYLE('',(#170));
#170=FILL_AREA_STYLE_COLOUR('',#171);
#171=COLOUR_RGB('',0.752941191196442,0.752941191196442,0.752941191196442);
#172=MANIFOLD_SOLID_BREP('',#163);
#173=SHAPE_DEFINITION_REPRESENTATION(#302,#174);
#174=SHAPE_REPRESENTATION('0020194',(#175),#297);
#175=AXIS2_PLACEMENT_3D('',#256,#202,#203);
#176=AXIS2_PLACEMENT_3D('',#257,#204,#205);
#177=AXIS2_PLACEMENT_3D('',#258,#206,#207);
#178=AXIS2_PLACEMENT_3D('',#260,#208,#209);
#179=AXIS2_PLACEMENT_3D('',#262,#210,#211);
#180=AXIS2_PLACEMENT_3D('',#263,#212,#213);
#181=AXIS2_PLACEMENT_3D('',#265,#214,#215);
#182=AXIS2_PLACEMENT_3D('',#266,#216,#217);
#183=AXIS2_PLACEMENT_3D('',#268,#218,#219);
#184=AXIS2_PLACEMENT_3D('',#269,#220,#221);
#185=AXIS2_PLACEMENT_3D('',#271,#222,#223);
#186=AXIS2_PLACEMENT_3D('',#272,#224,#225);
#187=AXIS2_PLACEMENT_3D('',#274,#226,#227);
#188=AXIS2_PLACEMENT_3D('',#275,#228,#229);
#189=AXIS2_PLACEMENT_3D('',#277,#230,#231);
#190=AXIS2_PLACEMENT_3D('',#278,#232,#233);
#191=AXIS2_PLACEMENT_3D('',#280,#234,#235);
#192=AXIS2_PLACEMENT_3D('',#281,#236,#237);
#193=AXIS2_PLACEMENT_3D('',#283,#238,#239);
#194=AXIS2_PLACEMENT_3D('',#284,#240,#241);
#195=AXIS2_PLACEMENT_3D('',#286,#242,#243);
#196=AXIS2_PLACEMENT_3D('',#287,#244,#245);
#197=AXIS2_PLACEMENT_3D('',#289,#246,#247);
#198=AXIS2_PLACEMENT_3D('',#290,#248,#249);
#199=AXIS2_PLACEMENT_3D('',#292,#250,#251);
#200=AXIS2_PLACEMENT_3D('',#293,#252,#253);
#201=AXIS2_PLACEMENT_3D('',#295,#254,#255);
#202=DIRECTION('',(0.,0.,1.));
#203=DIRECTION('',(1.,0.,0.));
#204=DIRECTION('',(1.,0.,0.));
#205=DIRECTION('',(0.,0.,-1.));
#206=DIRECTION('',(-1.,0.,0.));
#207=DIRECTION('',(0.,0.,1.));
#208=DIRECTION('',(-1.,0.,0.));
#209=DIRECTION('',(0.,0.,1.));
#210=DIRECTION('',(-1.,0.,0.));
#211=DIRECTION('',(0.,0.,1.));
#212=DIRECTION('',(-1.,0.,0.));
#213=DIRECTION('',(0.,0.,1.));
#214=DIRECTION('',(1.,0.,0.));
#215=DIRECTION('',(0.,0.,-1.));
#216=DIRECTION('',(-1.,0.,0.));
#217=DIRECTION('',(0.,0.,1.));
#218=DIRECTION('',(-1.,0.,0.));
#219=DIRECTION('',(0.,0.,1.));
#220=DIRECTION('',(-1.,0.,0.));
#221=DIRECTION('',(0.,0.,1.));
#222=DIRECTION('',(-1.,0.,0.));
#223=DIRECTION('',(0.,0.,1.));
#224=DIRECTION('',(-1.,0.,0.));
#225=DIRECTION('',(0.,0.,1.));
#226=DIRECTION('',(-1.,0.,0.));
#227=DIRECTION('',(0.,0.,1.));
#228=DIRECTION('',(-1.,0.,0.));
#229=DIRECTION('',(0.,0.,1.));
#230=DIRECTION('',(1.,0.,0.));
#231=DIRECTION('',(0.,0.,-1.));
#232=DIRECTION('',(-1.,0.,0.));
#233=DIRECTION('',(0.,0.,1.));
#234=DIRECTION('',(-1.,0.,0.));
#235=DIRECTION('',(0.,0.,1.));
#236=DIRECTION('',(-1.,0.,0.));
#237=DIRECTION('',(0.,0.,1.));
#238=DIRECTION('',(-1.,0.,0.));
#239=DIRECTION('',(0.,0.,1.));
#240=DIRECTION('',(-1.,0.,0.));
#241=DIRECTION('',(0.,0.,1.));
#242=DIRECTION('',(-1.,0.,0.));
#243=DIRECTION('',(0.,0.,1.));
#244=DIRECTION('',(-1.,0.,0.));
#245=DIRECTION('',(0.,0.,1.));
#246=DIRECTION('',(-1.,0.,0.));
#247=DIRECTION('',(0.,0.,1.));
#248=DIRECTION('',(-1.,0.,0.));
#249=DIRECTION('',(0.,0.,1.));
#250=DIRECTION('',(-1.,0.,0.));
#251=DIRECTION('',(0.,0.,1.));
#252=DIRECTION('',(-1.,0.,0.));
#253=DIRECTION('',(0.,0.,1.));
#254=DIRECTION('',(1.,0.,0.));
#255=DIRECTION('',(0.,0.,-1.));
#256=CARTESIAN_POINT('',(0.,0.,0.));
#257=CARTESIAN_POINT('',(-4.00000000000001,0.,16.4855095289373));
#258=CARTESIAN_POINT('',(-4.,0.,0.));
#259=CARTESIAN_POINT('',(-4.,0.,13.5));
#260=CARTESIAN_POINT('',(-4.,0.,0.));
#261=CARTESIAN_POINT('',(-4.,0.,16.4855095289373));
#262=CARTESIAN_POINT('',(-60.,0.,0.));
#263=CARTESIAN_POINT('',(-3.10936082940741,0.,0.));
#264=CARTESIAN_POINT('',(-3.10936082940741,0.,13.5));
#265=CARTESIAN_POINT('',(-3.10936082940741,0.,0.));
#266=CARTESIAN_POINT('',(-3.,0.,0.));
#267=CARTESIAN_POINT('',(-3.,0.,14.75));
#268=CARTESIAN_POINT('',(-60.,0.,0.));
#269=CARTESIAN_POINT('',(-1.5,0.,0.));
#270=CARTESIAN_POINT('',(-1.5,0.,14.75));
#271=CARTESIAN_POINT('',(-1.5,0.,0.));
#272=CARTESIAN_POINT('',(-1.39063917059259,0.,0.));
#273=CARTESIAN_POINT('',(-1.39063917059259,0.,13.5));
#274=CARTESIAN_POINT('',(-60.,0.,0.));
#275=CARTESIAN_POINT('',(0.,0.,0.));
#276=CARTESIAN_POINT('',(0.,0.,13.5));
#277=CARTESIAN_POINT('',(-2.57146904398653E-15,0.,13.5));
#278=CARTESIAN_POINT('',(0.,0.,0.));
#279=CARTESIAN_POINT('',(0.,0.,12.));
#280=CARTESIAN_POINT('',(-60.,0.,0.));
#281=CARTESIAN_POINT('',(1.,0.,0.));
#282=CARTESIAN_POINT('',(1.,0.,12.));
#283=CARTESIAN_POINT('',(0.999999999999999,0.,12.));
#284=CARTESIAN_POINT('',(1.,0.,0.));
#285=CARTESIAN_POINT('',(1.,0.,15.25));
#286=CARTESIAN_POINT('',(-60.,0.,0.));
#287=CARTESIAN_POINT('',(-1.00000000000001,0.,0.));
#288=CARTESIAN_POINT('',(-1.00000000000001,0.,15.25));
#289=CARTESIAN_POINT('',(-1.00000000000001,0.,16.4855095289373));
#290=CARTESIAN_POINT('',(-1.00000000000001,0.,0.));
#291=CARTESIAN_POINT('',(-1.00000000000001,0.,16.4855095289373));
#292=CARTESIAN_POINT('',(-1.00000000000001,0.,0.));
#293=CARTESIAN_POINT('',(-2.5,0.,0.));
#294=CARTESIAN_POINT('',(-2.5,0.,16.75));
#295=CARTESIAN_POINT('',(-2.5,0.,0.));
#296=MECHANICAL_DESIGN_GEOMETRIC_PRESENTATION_REPRESENTATION('',(#164),
#297);
#297=(
GEOMETRIC_REPRESENTATION_CONTEXT(3)
GLOBAL_UNCERTAINTY_ASSIGNED_CONTEXT((#298))
GLOBAL_UNIT_ASSIGNED_CONTEXT((#301,#300,#299))
REPRESENTATION_CONTEXT('0020194','TOP_LEVEL_ASSEMBLY_PART')
);
#298=UNCERTAINTY_MEASURE_WITH_UNIT(LENGTH_MEASURE(0.005),#301,
'DISTANCE_ACCURACY_VALUE','Maximum Tolerance applied to model');
#299=(
NAMED_UNIT(*)
SI_UNIT($,.STERADIAN.)
SOLID_ANGLE_UNIT()
);
#300=(
NAMED_UNIT(*)
PLANE_ANGLE_UNIT()
SI_UNIT($,.RADIAN.)
);
#301=(
LENGTH_UNIT()
NAMED_UNIT(*)
SI_UNIT(.MILLI.,.METRE.)
);
#302=PRODUCT_DEFINITION_SHAPE('','',#303);
#303=PRODUCT_DEFINITION('','',#305,#304);
#304=PRODUCT_DEFINITION_CONTEXT('',#311,'design');
#305=PRODUCT_DEFINITION_FORMATION_WITH_SPECIFIED_SOURCE('','',#307,
 .NOT_KNOWN.);
#306=PRODUCT_RELATED_PRODUCT_CATEGORY('','',(#307));
#307=PRODUCT('0020194','0020194','0020194',(#309));
#308=PRODUCT_CATEGORY('','');
#309=PRODUCT_CONTEXT('',#311,'mechanical');
#310=APPLICATION_PROTOCOL_DEFINITION('international standard',
'automotive_design',2010,#311);
#311=APPLICATION_CONTEXT(
'core data for automotive mechanical design processes');
ENDSEC;
END-ISO-10303-21;
