ISO-10303-21;
HEADER;
/* Generated by software containing ST-Developer
 * from STEP Tools, Inc. (www.steptools.com) 
 */
/* OPTION: strings as raw bytes, not using required /X/ escapes */

FILE_DESCRIPTION(
/* description */ ('Unknown'),
/* implementation_level */ '2;1');

FILE_NAME(
/* name */ '755050000',
/* time_stamp */ '2022-03-15T14:55:22+01:00',
/* author */ ('Unknown'),
/* organization */ ('Unknown'),
/* preprocessor_version */ 'ST-DEVELOPER v16.7',
/* originating_system */ 'DEX',
/* authorisation */ $);

FILE_SCHEMA (('AUTOMOTIVE_DESIGN {1 0 10303 214 3 1 1}'));
ENDSEC;

DATA;
#10=PROPERTY_DEFINITION_REPRESENTATION(#14,#12);
#11=PROPERTY_DEFINITION_REPRESENTATION(#15,#13);
#12=REPRESENTATION('',(#16),#592);
#13=REPRESENTATION('',(#17),#592);
#14=PROPERTY_DEFINITION('pmi validation property','',#597);
#15=PROPERTY_DEFINITION('pmi validation property','',#597);
#16=VALUE_REPRESENTATION_ITEM('number of annotations',COUNT_MEASURE(0.));
#17=VALUE_REPRESENTATION_ITEM('number of views',COUNT_MEASURE(0.));
#18=SHAPE_REPRESENTATION_RELATIONSHIP('','',#400,#19);
#19=ADVANCED_BREP_SHAPE_REPRESENTATION('',(#398),#592);
#20=TOROIDAL_SURFACE('',#412,13.75,1.25);
#21=TOROIDAL_SURFACE('',#416,18.1195010678292,2.30000000000002);
#22=TOROIDAL_SURFACE('',#431,20.3,0.6);
#23=PLANE('',#408);
#24=PLANE('',#414);
#25=PLANE('',#420);
#26=PLANE('',#438);
#27=CYLINDRICAL_SURFACE('',#404,10.376);
#28=CYLINDRICAL_SURFACE('',#410,12.5);
#29=CYLINDRICAL_SURFACE('',#423,35.);
#30=CYLINDRICAL_SURFACE('',#429,19.7);
#31=CYLINDRICAL_SURFACE('',#436,12.5);
#32=CYLINDRICAL_SURFACE('',#442,20.);
#33=VERTEX_LOOP('',#96);
#34=VERTEX_LOOP('',#113);
#35=ORIENTED_EDGE('',*,*,#75,.F.);
#36=ORIENTED_EDGE('',*,*,#76,.T.);
#37=ORIENTED_EDGE('',*,*,#75,.T.);
#38=ORIENTED_EDGE('',*,*,#76,.F.);
#39=ORIENTED_EDGE('',*,*,#77,.T.);
#40=ORIENTED_EDGE('',*,*,#78,.T.);
#41=ORIENTED_EDGE('',*,*,#77,.F.);
#42=ORIENTED_EDGE('',*,*,#79,.T.);
#43=ORIENTED_EDGE('',*,*,#78,.F.);
#44=ORIENTED_EDGE('',*,*,#80,.T.);
#45=ORIENTED_EDGE('',*,*,#79,.F.);
#46=ORIENTED_EDGE('',*,*,#81,.T.);
#47=ORIENTED_EDGE('',*,*,#80,.F.);
#48=ORIENTED_EDGE('',*,*,#82,.T.);
#49=ORIENTED_EDGE('',*,*,#81,.F.);
#50=ORIENTED_EDGE('',*,*,#83,.F.);
#51=ORIENTED_EDGE('',*,*,#82,.F.);
#52=ORIENTED_EDGE('',*,*,#84,.T.);
#53=ORIENTED_EDGE('',*,*,#85,.T.);
#54=ORIENTED_EDGE('',*,*,#86,.T.);
#55=ORIENTED_EDGE('',*,*,#83,.T.);
#56=ORIENTED_EDGE('',*,*,#84,.F.);
#57=ORIENTED_EDGE('',*,*,#86,.F.);
#58=ORIENTED_EDGE('',*,*,#87,.F.);
#59=ORIENTED_EDGE('',*,*,#88,.T.);
#60=ORIENTED_EDGE('',*,*,#89,.F.);
#61=ORIENTED_EDGE('',*,*,#87,.T.);
#62=ORIENTED_EDGE('',*,*,#90,.F.);
#63=ORIENTED_EDGE('',*,*,#89,.T.);
#64=ORIENTED_EDGE('',*,*,#85,.F.);
#65=ORIENTED_EDGE('',*,*,#90,.T.);
#66=ORIENTED_EDGE('',*,*,#91,.F.);
#67=ORIENTED_EDGE('',*,*,#91,.T.);
#68=ORIENTED_EDGE('',*,*,#92,.F.);
#69=ORIENTED_EDGE('',*,*,#93,.T.);
#70=ORIENTED_EDGE('',*,*,#92,.T.);
#71=ORIENTED_EDGE('',*,*,#93,.F.);
#72=ORIENTED_EDGE('',*,*,#94,.F.);
#73=ORIENTED_EDGE('',*,*,#88,.F.);
#74=ORIENTED_EDGE('',*,*,#94,.T.);
#75=EDGE_CURVE('',#95,#95,#117,.T.);
#76=EDGE_CURVE('',#97,#97,#118,.T.);
#77=EDGE_CURVE('',#98,#98,#119,.T.);
#78=EDGE_CURVE('',#99,#99,#120,.T.);
#79=EDGE_CURVE('',#100,#100,#121,.T.);
#80=EDGE_CURVE('',#101,#101,#122,.T.);
#81=EDGE_CURVE('',#102,#102,#123,.T.);
#82=EDGE_CURVE('',#103,#103,#124,.T.);
#83=EDGE_CURVE('',#104,#104,#125,.T.);
#84=EDGE_CURVE('',#105,#105,#126,.F.);
#85=EDGE_CURVE('',#106,#106,#127,.T.);
#86=EDGE_CURVE('',#107,#107,#128,.T.);
#87=EDGE_CURVE('',#108,#108,#129,.T.);
#88=EDGE_CURVE('',#109,#109,#130,.T.);
#89=EDGE_CURVE('',#110,#110,#131,.T.);
#90=EDGE_CURVE('',#111,#111,#132,.T.);
#91=EDGE_CURVE('',#112,#112,#133,.T.);
#92=EDGE_CURVE('',#114,#114,#134,.T.);
#93=EDGE_CURVE('',#115,#115,#135,.T.);
#94=EDGE_CURVE('',#116,#116,#136,.F.);
#95=VERTEX_POINT('',#530);
#96=VERTEX_POINT('',#531);
#97=VERTEX_POINT('',#534);
#98=VERTEX_POINT('',#537);
#99=VERTEX_POINT('',#540);
#100=VERTEX_POINT('',#543);
#101=VERTEX_POINT('',#546);
#102=VERTEX_POINT('',#549);
#103=VERTEX_POINT('',#552);
#104=VERTEX_POINT('',#555);
#105=VERTEX_POINT('',#558);
#106=VERTEX_POINT('',#560);
#107=VERTEX_POINT('',#563);
#108=VERTEX_POINT('',#567);
#109=VERTEX_POINT('',#569);
#110=VERTEX_POINT('',#572);
#111=VERTEX_POINT('',#575);
#112=VERTEX_POINT('',#579);
#113=VERTEX_POINT('',#580);
#114=VERTEX_POINT('',#583);
#115=VERTEX_POINT('',#586);
#116=VERTEX_POINT('',#589);
#117=CIRCLE('',#403,10.376);
#118=CIRCLE('',#405,10.376);
#119=CIRCLE('',#407,12.35);
#120=CIRCLE('',#409,12.5);
#121=CIRCLE('',#411,12.5);
#122=CIRCLE('',#413,13.75);
#123=CIRCLE('',#415,18.1195010678292);
#124=CIRCLE('',#417,20.3954271847776);
#125=CIRCLE('',#419,35.);
#126=CIRCLE('',#421,34.);
#127=CIRCLE('',#422,23.565059785566);
#128=CIRCLE('',#424,35.);
#129=CIRCLE('',#427,19.7);
#130=CIRCLE('',#428,19.9999999999999);
#131=CIRCLE('',#430,19.7);
#132=CIRCLE('',#432,20.383503860576);
#133=CIRCLE('',#435,12.5);
#134=CIRCLE('',#437,12.5);
#135=CIRCLE('',#439,19.);
#136=CIRCLE('',#441,20.);
#137=EDGE_LOOP('',(#35));
#138=EDGE_LOOP('',(#36));
#139=EDGE_LOOP('',(#37));
#140=EDGE_LOOP('',(#38));
#141=EDGE_LOOP('',(#39));
#142=EDGE_LOOP('',(#40));
#143=EDGE_LOOP('',(#41));
#144=EDGE_LOOP('',(#42));
#145=EDGE_LOOP('',(#43));
#146=EDGE_LOOP('',(#44));
#147=EDGE_LOOP('',(#45));
#148=EDGE_LOOP('',(#46));
#149=EDGE_LOOP('',(#47));
#150=EDGE_LOOP('',(#48));
#151=EDGE_LOOP('',(#49));
#152=EDGE_LOOP('',(#50));
#153=EDGE_LOOP('',(#51));
#154=EDGE_LOOP('',(#52));
#155=EDGE_LOOP('',(#53));
#156=EDGE_LOOP('',(#54));
#157=EDGE_LOOP('',(#55));
#158=EDGE_LOOP('',(#56));
#159=EDGE_LOOP('',(#57));
#160=EDGE_LOOP('',(#58));
#161=EDGE_LOOP('',(#59));
#162=EDGE_LOOP('',(#60));
#163=EDGE_LOOP('',(#61));
#164=EDGE_LOOP('',(#62));
#165=EDGE_LOOP('',(#63));
#166=EDGE_LOOP('',(#64));
#167=EDGE_LOOP('',(#65));
#168=EDGE_LOOP('',(#66));
#169=EDGE_LOOP('',(#67));
#170=EDGE_LOOP('',(#68));
#171=EDGE_LOOP('',(#69));
#172=EDGE_LOOP('',(#70));
#173=EDGE_LOOP('',(#71));
#174=EDGE_LOOP('',(#72));
#175=EDGE_LOOP('',(#73));
#176=EDGE_LOOP('',(#74));
#177=FACE_BOUND('',#137,.T.);
#178=FACE_BOUND('',#33,.T.);
#179=FACE_BOUND('',#138,.T.);
#180=FACE_BOUND('',#139,.T.);
#181=FACE_BOUND('',#140,.T.);
#182=FACE_BOUND('',#141,.T.);
#183=FACE_BOUND('',#142,.T.);
#184=FACE_BOUND('',#143,.T.);
#185=FACE_BOUND('',#144,.T.);
#186=FACE_BOUND('',#145,.T.);
#187=FACE_BOUND('',#146,.T.);
#188=FACE_BOUND('',#147,.T.);
#189=FACE_BOUND('',#148,.T.);
#190=FACE_BOUND('',#149,.T.);
#191=FACE_BOUND('',#150,.T.);
#192=FACE_BOUND('',#151,.T.);
#193=FACE_BOUND('',#152,.T.);
#194=FACE_BOUND('',#153,.T.);
#195=FACE_BOUND('',#154,.T.);
#196=FACE_BOUND('',#155,.T.);
#197=FACE_BOUND('',#156,.T.);
#198=FACE_BOUND('',#157,.T.);
#199=FACE_BOUND('',#158,.T.);
#200=FACE_BOUND('',#159,.T.);
#201=FACE_BOUND('',#160,.T.);
#202=FACE_BOUND('',#161,.T.);
#203=FACE_BOUND('',#162,.T.);
#204=FACE_BOUND('',#163,.T.);
#205=FACE_BOUND('',#164,.T.);
#206=FACE_BOUND('',#165,.T.);
#207=FACE_BOUND('',#166,.T.);
#208=FACE_BOUND('',#167,.T.);
#209=FACE_BOUND('',#168,.T.);
#210=FACE_BOUND('',#34,.T.);
#211=FACE_BOUND('',#169,.T.);
#212=FACE_BOUND('',#170,.T.);
#213=FACE_BOUND('',#171,.T.);
#214=FACE_BOUND('',#172,.T.);
#215=FACE_BOUND('',#173,.T.);
#216=FACE_BOUND('',#174,.T.);
#217=FACE_BOUND('',#175,.T.);
#218=FACE_BOUND('',#176,.T.);
#219=CONICAL_SURFACE('',#402,10.376,1.02974425867665);
#220=CONICAL_SURFACE('',#406,12.35,0.785398163397449);
#221=CONICAL_SURFACE('',#418,20.3954271847776,0.144811713367224);
#222=CONICAL_SURFACE('',#425,35.,0.785398163397448);
#223=CONICAL_SURFACE('',#426,19.9999999999999,0.26179938779915);
#224=CONICAL_SURFACE('',#433,20.383503860576,1.43116998663535);
#225=CONICAL_SURFACE('',#434,12.5,1.02974425867665);
#226=CONICAL_SURFACE('',#440,20.,0.785398163397448);
#227=STYLED_ITEM('',(#248),#376);
#228=STYLED_ITEM('',(#249),#377);
#229=STYLED_ITEM('',(#250),#378);
#230=STYLED_ITEM('',(#251),#379);
#231=STYLED_ITEM('',(#252),#380);
#232=STYLED_ITEM('',(#253),#381);
#233=STYLED_ITEM('',(#254),#382);
#234=STYLED_ITEM('',(#255),#383);
#235=STYLED_ITEM('',(#256),#384);
#236=STYLED_ITEM('',(#257),#385);
#237=STYLED_ITEM('',(#258),#386);
#238=STYLED_ITEM('',(#259),#387);
#239=STYLED_ITEM('',(#260),#388);
#240=STYLED_ITEM('',(#261),#389);
#241=STYLED_ITEM('',(#262),#390);
#242=STYLED_ITEM('',(#263),#391);
#243=STYLED_ITEM('',(#264),#392);
#244=STYLED_ITEM('',(#265),#393);
#245=STYLED_ITEM('',(#266),#394);
#246=STYLED_ITEM('',(#267),#395);
#247=STYLED_ITEM('',(#268),#396);
#248=PRESENTATION_STYLE_ASSIGNMENT((#269));
#249=PRESENTATION_STYLE_ASSIGNMENT((#270));
#250=PRESENTATION_STYLE_ASSIGNMENT((#271));
#251=PRESENTATION_STYLE_ASSIGNMENT((#272));
#252=PRESENTATION_STYLE_ASSIGNMENT((#273));
#253=PRESENTATION_STYLE_ASSIGNMENT((#274));
#254=PRESENTATION_STYLE_ASSIGNMENT((#275));
#255=PRESENTATION_STYLE_ASSIGNMENT((#276));
#256=PRESENTATION_STYLE_ASSIGNMENT((#277));
#257=PRESENTATION_STYLE_ASSIGNMENT((#278));
#258=PRESENTATION_STYLE_ASSIGNMENT((#279));
#259=PRESENTATION_STYLE_ASSIGNMENT((#280));
#260=PRESENTATION_STYLE_ASSIGNMENT((#281));
#261=PRESENTATION_STYLE_ASSIGNMENT((#282));
#262=PRESENTATION_STYLE_ASSIGNMENT((#283));
#263=PRESENTATION_STYLE_ASSIGNMENT((#284));
#264=PRESENTATION_STYLE_ASSIGNMENT((#285));
#265=PRESENTATION_STYLE_ASSIGNMENT((#286));
#266=PRESENTATION_STYLE_ASSIGNMENT((#287));
#267=PRESENTATION_STYLE_ASSIGNMENT((#288));
#268=PRESENTATION_STYLE_ASSIGNMENT((#289));
#269=SURFACE_STYLE_USAGE(.BOTH.,#290);
#270=SURFACE_STYLE_USAGE(.BOTH.,#291);
#271=SURFACE_STYLE_USAGE(.BOTH.,#292);
#272=SURFACE_STYLE_USAGE(.BOTH.,#293);
#273=SURFACE_STYLE_USAGE(.BOTH.,#294);
#274=SURFACE_STYLE_USAGE(.BOTH.,#295);
#275=SURFACE_STYLE_USAGE(.BOTH.,#296);
#276=SURFACE_STYLE_USAGE(.BOTH.,#297);
#277=SURFACE_STYLE_USAGE(.BOTH.,#298);
#278=SURFACE_STYLE_USAGE(.BOTH.,#299);
#279=SURFACE_STYLE_USAGE(.BOTH.,#300);
#280=SURFACE_STYLE_USAGE(.BOTH.,#301);
#281=SURFACE_STYLE_USAGE(.BOTH.,#302);
#282=SURFACE_STYLE_USAGE(.BOTH.,#303);
#283=SURFACE_STYLE_USAGE(.BOTH.,#304);
#284=SURFACE_STYLE_USAGE(.BOTH.,#305);
#285=SURFACE_STYLE_USAGE(.BOTH.,#306);
#286=SURFACE_STYLE_USAGE(.BOTH.,#307);
#287=SURFACE_STYLE_USAGE(.BOTH.,#308);
#288=SURFACE_STYLE_USAGE(.BOTH.,#309);
#289=SURFACE_STYLE_USAGE(.BOTH.,#310);
#290=SURFACE_SIDE_STYLE('',(#311));
#291=SURFACE_SIDE_STYLE('',(#312));
#292=SURFACE_SIDE_STYLE('',(#313));
#293=SURFACE_SIDE_STYLE('',(#314));
#294=SURFACE_SIDE_STYLE('',(#315));
#295=SURFACE_SIDE_STYLE('',(#316));
#296=SURFACE_SIDE_STYLE('',(#317));
#297=SURFACE_SIDE_STYLE('',(#318));
#298=SURFACE_SIDE_STYLE('',(#319));
#299=SURFACE_SIDE_STYLE('',(#320));
#300=SURFACE_SIDE_STYLE('',(#321));
#301=SURFACE_SIDE_STYLE('',(#322));
#302=SURFACE_SIDE_STYLE('',(#323));
#303=SURFACE_SIDE_STYLE('',(#324));
#304=SURFACE_SIDE_STYLE('',(#325));
#305=SURFACE_SIDE_STYLE('',(#326));
#306=SURFACE_SIDE_STYLE('',(#327));
#307=SURFACE_SIDE_STYLE('',(#328));
#308=SURFACE_SIDE_STYLE('',(#329));
#309=SURFACE_SIDE_STYLE('',(#330));
#310=SURFACE_SIDE_STYLE('',(#331));
#311=SURFACE_STYLE_FILL_AREA(#332);
#312=SURFACE_STYLE_FILL_AREA(#333);
#313=SURFACE_STYLE_FILL_AREA(#334);
#314=SURFACE_STYLE_FILL_AREA(#335);
#315=SURFACE_STYLE_FILL_AREA(#336);
#316=SURFACE_STYLE_FILL_AREA(#337);
#317=SURFACE_STYLE_FILL_AREA(#338);
#318=SURFACE_STYLE_FILL_AREA(#339);
#319=SURFACE_STYLE_FILL_AREA(#340);
#320=SURFACE_STYLE_FILL_AREA(#341);
#321=SURFACE_STYLE_FILL_AREA(#342);
#322=SURFACE_STYLE_FILL_AREA(#343);
#323=SURFACE_STYLE_FILL_AREA(#344);
#324=SURFACE_STYLE_FILL_AREA(#345);
#325=SURFACE_STYLE_FILL_AREA(#346);
#326=SURFACE_STYLE_FILL_AREA(#347);
#327=SURFACE_STYLE_FILL_AREA(#348);
#328=SURFACE_STYLE_FILL_AREA(#349);
#329=SURFACE_STYLE_FILL_AREA(#350);
#330=SURFACE_STYLE_FILL_AREA(#351);
#331=SURFACE_STYLE_FILL_AREA(#352);
#332=FILL_AREA_STYLE('',(#353));
#333=FILL_AREA_STYLE('',(#354));
#334=FILL_AREA_STYLE('',(#355));
#335=FILL_AREA_STYLE('',(#356));
#336=FILL_AREA_STYLE('',(#357));
#337=FILL_AREA_STYLE('',(#358));
#338=FILL_AREA_STYLE('',(#359));
#339=FILL_AREA_STYLE('',(#360));
#340=FILL_AREA_STYLE('',(#361));
#341=FILL_AREA_STYLE('',(#362));
#342=FILL_AREA_STYLE('',(#363));
#343=FILL_AREA_STYLE('',(#364));
#344=FILL_AREA_STYLE('',(#365));
#345=FILL_AREA_STYLE('',(#366));
#346=FILL_AREA_STYLE('',(#367));
#347=FILL_AREA_STYLE('',(#368));
#348=FILL_AREA_STYLE('',(#369));
#349=FILL_AREA_STYLE('',(#370));
#350=FILL_AREA_STYLE('',(#371));
#351=FILL_AREA_STYLE('',(#372));
#352=FILL_AREA_STYLE('',(#373));
#353=FILL_AREA_STYLE_COLOUR('',#374);
#354=FILL_AREA_STYLE_COLOUR('',#375);
#355=FILL_AREA_STYLE_COLOUR('',#374);
#356=FILL_AREA_STYLE_COLOUR('',#374);
#357=FILL_AREA_STYLE_COLOUR('',#374);
#358=FILL_AREA_STYLE_COLOUR('',#374);
#359=FILL_AREA_STYLE_COLOUR('',#374);
#360=FILL_AREA_STYLE_COLOUR('',#374);
#361=FILL_AREA_STYLE_COLOUR('',#374);
#362=FILL_AREA_STYLE_COLOUR('',#374);
#363=FILL_AREA_STYLE_COLOUR('',#374);
#364=FILL_AREA_STYLE_COLOUR('',#374);
#365=FILL_AREA_STYLE_COLOUR('',#374);
#366=FILL_AREA_STYLE_COLOUR('',#374);
#367=FILL_AREA_STYLE_COLOUR('',#374);
#368=FILL_AREA_STYLE_COLOUR('',#374);
#369=FILL_AREA_STYLE_COLOUR('',#374);
#370=FILL_AREA_STYLE_COLOUR('',#374);
#371=FILL_AREA_STYLE_COLOUR('',#374);
#372=FILL_AREA_STYLE_COLOUR('',#374);
#373=FILL_AREA_STYLE_COLOUR('',#374);
#374=COLOUR_RGB('',0.645180702209473,0.678915679454803,0.699999988079071);
#375=COLOUR_RGB('',0.1875,0.75,0.581249892711639);
#376=ADVANCED_FACE('',(#177,#178),#219,.F.);
#377=ADVANCED_FACE('',(#179,#180),#27,.F.);
#378=ADVANCED_FACE('',(#181,#182),#220,.F.);
#379=ADVANCED_FACE('',(#183,#184),#23,.T.);
#380=ADVANCED_FACE('',(#185,#186),#28,.F.);
#381=ADVANCED_FACE('',(#187,#188),#20,.T.);
#382=ADVANCED_FACE('',(#189,#190),#24,.T.);
#383=ADVANCED_FACE('',(#191,#192),#21,.T.);
#384=ADVANCED_FACE('',(#193,#194),#221,.T.);
#385=ADVANCED_FACE('',(#195,#196),#25,.F.);
#386=ADVANCED_FACE('',(#197,#198),#29,.T.);
#387=ADVANCED_FACE('',(#199,#200),#222,.T.);
#388=ADVANCED_FACE('',(#201,#202),#223,.T.);
#389=ADVANCED_FACE('',(#203,#204),#30,.T.);
#390=ADVANCED_FACE('',(#205,#206),#22,.F.);
#391=ADVANCED_FACE('',(#207,#208),#224,.F.);
#392=ADVANCED_FACE('',(#209,#210),#225,.F.);
#393=ADVANCED_FACE('',(#211,#212),#31,.F.);
#394=ADVANCED_FACE('',(#213,#214),#26,.T.);
#395=ADVANCED_FACE('',(#215,#216),#226,.T.);
#396=ADVANCED_FACE('',(#217,#218),#32,.T.);
#397=CLOSED_SHELL('',(#376,#377,#378,#379,#380,#381,#382,#383,#384,#385,
#386,#387,#388,#389,#390,#391,#392,#393,#394,#395,#396));
#398=MANIFOLD_SOLID_BREP('',#397);
#399=SHAPE_DEFINITION_REPRESENTATION(#597,#400);
#400=SHAPE_REPRESENTATION('0025830',(#401),#592);
#401=AXIS2_PLACEMENT_3D('',#527,#443,#444);
#402=AXIS2_PLACEMENT_3D('',#528,#445,#446);
#403=AXIS2_PLACEMENT_3D('',#529,#447,#448);
#404=AXIS2_PLACEMENT_3D('',#532,#449,#450);
#405=AXIS2_PLACEMENT_3D('',#533,#451,#452);
#406=AXIS2_PLACEMENT_3D('',#535,#453,#454);
#407=AXIS2_PLACEMENT_3D('',#536,#455,#456);
#408=AXIS2_PLACEMENT_3D('',#538,#457,#458);
#409=AXIS2_PLACEMENT_3D('',#539,#459,#460);
#410=AXIS2_PLACEMENT_3D('',#541,#461,#462);
#411=AXIS2_PLACEMENT_3D('',#542,#463,#464);
#412=AXIS2_PLACEMENT_3D('',#544,#465,#466);
#413=AXIS2_PLACEMENT_3D('',#545,#467,#468);
#414=AXIS2_PLACEMENT_3D('',#547,#469,#470);
#415=AXIS2_PLACEMENT_3D('',#548,#471,#472);
#416=AXIS2_PLACEMENT_3D('',#550,#473,#474);
#417=AXIS2_PLACEMENT_3D('',#551,#475,#476);
#418=AXIS2_PLACEMENT_3D('',#553,#477,#478);
#419=AXIS2_PLACEMENT_3D('',#554,#479,#480);
#420=AXIS2_PLACEMENT_3D('',#556,#481,#482);
#421=AXIS2_PLACEMENT_3D('',#557,#483,#484);
#422=AXIS2_PLACEMENT_3D('',#559,#485,#486);
#423=AXIS2_PLACEMENT_3D('',#561,#487,#488);
#424=AXIS2_PLACEMENT_3D('',#562,#489,#490);
#425=AXIS2_PLACEMENT_3D('',#564,#491,#492);
#426=AXIS2_PLACEMENT_3D('',#565,#493,#494);
#427=AXIS2_PLACEMENT_3D('',#566,#495,#496);
#428=AXIS2_PLACEMENT_3D('',#568,#497,#498);
#429=AXIS2_PLACEMENT_3D('',#570,#499,#500);
#430=AXIS2_PLACEMENT_3D('',#571,#501,#502);
#431=AXIS2_PLACEMENT_3D('',#573,#503,#504);
#432=AXIS2_PLACEMENT_3D('',#574,#505,#506);
#433=AXIS2_PLACEMENT_3D('',#576,#507,#508);
#434=AXIS2_PLACEMENT_3D('',#577,#509,#510);
#435=AXIS2_PLACEMENT_3D('',#578,#511,#512);
#436=AXIS2_PLACEMENT_3D('',#581,#513,#514);
#437=AXIS2_PLACEMENT_3D('',#582,#515,#516);
#438=AXIS2_PLACEMENT_3D('',#584,#517,#518);
#439=AXIS2_PLACEMENT_3D('',#585,#519,#520);
#440=AXIS2_PLACEMENT_3D('',#587,#521,#522);
#441=AXIS2_PLACEMENT_3D('',#588,#523,#524);
#442=AXIS2_PLACEMENT_3D('',#590,#525,#526);
#443=DIRECTION('',(0.,0.,1.));
#444=DIRECTION('',(1.,0.,0.));
#445=DIRECTION('',(-1.,0.,-1.22464679914735E-16));
#446=DIRECTION('',(1.22464679914735E-16,0.,-1.));
#447=DIRECTION('',(1.,0.,1.22464679914735E-16));
#448=DIRECTION('',(1.22464679914735E-16,0.,-1.));
#449=DIRECTION('',(1.,0.,1.22464679914735E-16));
#450=DIRECTION('',(-1.22464679914735E-16,0.,1.));
#451=DIRECTION('',(-1.,0.,-6.49168868348909E-16));
#452=DIRECTION('',(-6.49168868348909E-16,0.,1.));
#453=DIRECTION('',(-1.,0.,-6.49168868348909E-16));
#454=DIRECTION('',(-6.49168868348909E-16,0.,1.));
#455=DIRECTION('',(-1.,0.,-6.49168868348909E-16));
#456=DIRECTION('',(-6.49168868348909E-16,0.,1.));
#457=DIRECTION('',(-1.,0.,0.));
#458=DIRECTION('',(0.,0.,1.));
#459=DIRECTION('',(-1.,0.,0.));
#460=DIRECTION('',(0.,0.,1.));
#461=DIRECTION('',(-1.,0.,0.));
#462=DIRECTION('',(0.,0.,1.));
#463=DIRECTION('',(-1.,0.,0.));
#464=DIRECTION('',(0.,0.,1.));
#465=DIRECTION('',(-1.,0.,0.));
#466=DIRECTION('',(0.,0.,1.));
#467=DIRECTION('',(-1.,0.,0.));
#468=DIRECTION('',(0.,0.,1.));
#469=DIRECTION('',(-1.,0.,0.));
#470=DIRECTION('',(0.,0.,1.));
#471=DIRECTION('',(-1.,0.,0.));
#472=DIRECTION('',(0.,0.,1.));
#473=DIRECTION('',(-1.,0.,0.));
#474=DIRECTION('',(0.,0.,1.));
#475=DIRECTION('',(-1.,0.,0.));
#476=DIRECTION('',(0.,0.,1.));
#477=DIRECTION('',(1.,0.,0.));
#478=DIRECTION('',(0.,0.,-1.));
#479=DIRECTION('',(1.,0.,0.));
#480=DIRECTION('',(0.,0.,-1.));
#481=DIRECTION('',(-1.,0.,0.));
#482=DIRECTION('',(0.,0.,1.));
#483=DIRECTION('',(-1.,0.,0.));
#484=DIRECTION('',(0.,0.,1.));
#485=DIRECTION('',(-1.,0.,0.));
#486=DIRECTION('',(0.,0.,1.));
#487=DIRECTION('',(-1.,0.,0.));
#488=DIRECTION('',(0.,0.,1.));
#489=DIRECTION('',(-1.,0.,0.));
#490=DIRECTION('',(0.,0.,1.));
#491=DIRECTION('',(-1.,0.,0.));
#492=DIRECTION('',(0.,0.,1.));
#493=DIRECTION('',(1.,0.,0.));
#494=DIRECTION('',(0.,0.,-1.));
#495=DIRECTION('',(-1.,0.,0.));
#496=DIRECTION('',(0.,0.,1.));
#497=DIRECTION('',(-1.,0.,0.));
#498=DIRECTION('',(0.,0.,1.));
#499=DIRECTION('',(-1.,0.,0.));
#500=DIRECTION('',(0.,0.,1.));
#501=DIRECTION('',(-1.,0.,0.));
#502=DIRECTION('',(0.,0.,1.));
#503=DIRECTION('',(-1.,0.,0.));
#504=DIRECTION('',(0.,0.,1.));
#505=DIRECTION('',(-1.,0.,0.));
#506=DIRECTION('',(0.,0.,1.));
#507=DIRECTION('',(1.,0.,0.));
#508=DIRECTION('',(0.,0.,-1.));
#509=DIRECTION('',(1.,0.,1.98143880999069E-16));
#510=DIRECTION('',(-1.98143880999069E-16,0.,1.));
#511=DIRECTION('',(-1.,0.,-1.98143880999069E-16));
#512=DIRECTION('',(-1.98143880999069E-16,0.,1.));
#513=DIRECTION('',(-1.,0.,-1.98143880999069E-16));
#514=DIRECTION('',(1.98143880999069E-16,0.,-1.));
#515=DIRECTION('',(-1.,0.,-1.98143880999069E-16));
#516=DIRECTION('',(1.98143880999069E-16,0.,-1.));
#517=DIRECTION('',(1.,0.,1.98143880999069E-16));
#518=DIRECTION('',(1.98143880999069E-16,0.,-1.));
#519=DIRECTION('',(1.,0.,1.98143880999069E-16));
#520=DIRECTION('',(1.98143880999069E-16,0.,-1.));
#521=DIRECTION('',(-1.,0.,-1.98143880999071E-16));
#522=DIRECTION('',(-1.98143880999071E-16,0.,1.));
#523=DIRECTION('',(1.,0.,1.98143880999071E-16));
#524=DIRECTION('',(1.98143880999071E-16,0.,-1.));
#525=DIRECTION('',(-1.,0.,-1.98143880999069E-16));
#526=DIRECTION('',(-1.98143880999069E-16,0.,1.));
#527=CARTESIAN_POINT('',(0.,0.,0.));
#528=CARTESIAN_POINT('',(-46.8,0.,5.30160163509634E-15));
#529=CARTESIAN_POINT('',(-46.8,0.,5.30160163509634E-15));
#530=CARTESIAN_POINT('',(-46.8,0.,-10.376));
#531=CARTESIAN_POINT('',(-40.56547021697,0.,6.06511132939399E-15));
#532=CARTESIAN_POINT('',(-101.8,0.,-1.4339557602141E-15));
#533=CARTESIAN_POINT('',(-88.126,0.,-5.00105270201147E-15));
#534=CARTESIAN_POINT('',(-88.126,0.,10.376));
#535=CARTESIAN_POINT('',(-90.1,0.,-6.28251204813221E-15));
#536=CARTESIAN_POINT('',(-90.1,0.,-6.28251204813221E-15));
#537=CARTESIAN_POINT('',(-90.1,0.,12.35));
#538=CARTESIAN_POINT('',(-90.1,0.,12.35));
#539=CARTESIAN_POINT('',(-90.1,0.,0.));
#540=CARTESIAN_POINT('',(-90.1,0.,12.5));
#541=CARTESIAN_POINT('',(-60.,0.,0.));
#542=CARTESIAN_POINT('',(-100.35,0.,0.));
#543=CARTESIAN_POINT('',(-100.35,0.,12.5));
#544=CARTESIAN_POINT('',(-100.35,0.,0.));
#545=CARTESIAN_POINT('',(-101.6,0.,0.));
#546=CARTESIAN_POINT('',(-101.6,0.,13.75));
#547=CARTESIAN_POINT('',(-101.6,0.,13.75));
#548=CARTESIAN_POINT('',(-101.6,0.,0.));
#549=CARTESIAN_POINT('',(-101.6,0.,18.1195010678292));
#550=CARTESIAN_POINT('',(-99.3,0.,0.));
#551=CARTESIAN_POINT('',(-99.631904067755,0.,0.));
#552=CARTESIAN_POINT('',(-99.631904067755,0.,20.3954271847776));
#553=CARTESIAN_POINT('',(-99.631904067755,0.,0.));
#554=CARTESIAN_POINT('',(0.514288541039035,0.,0.));
#555=CARTESIAN_POINT('',(0.514288541039035,0.,-35.));
#556=CARTESIAN_POINT('',(8.14999999999997,0.,19.9999999999999));
#557=CARTESIAN_POINT('',(8.14999999999997,0.,0.));
#558=CARTESIAN_POINT('',(8.14999999999997,0.,34.));
#559=CARTESIAN_POINT('',(8.14999999999997,0.,0.));
#560=CARTESIAN_POINT('',(8.14999999999997,0.,23.565059785566));
#561=CARTESIAN_POINT('',(-60.,0.,0.));
#562=CARTESIAN_POINT('',(7.14999999999998,0.,0.));
#563=CARTESIAN_POINT('',(7.14999999999998,0.,35.));
#564=CARTESIAN_POINT('',(7.14999999999998,0.,0.));
#565=CARTESIAN_POINT('',(10.65,0.,0.));
#566=CARTESIAN_POINT('',(9.53038475772956,0.,0.));
#567=CARTESIAN_POINT('',(9.53038475772956,0.,19.7));
#568=CARTESIAN_POINT('',(10.65,0.,0.));
#569=CARTESIAN_POINT('',(10.65,0.,19.9999999999999));
#570=CARTESIAN_POINT('',(0.,0.,0.));
#571=CARTESIAN_POINT('',(8.29702231589449,0.,0.));
#572=CARTESIAN_POINT('',(8.29702231589449,0.,19.7));
#573=CARTESIAN_POINT('',(8.29702231589449,0.,0.));
#574=CARTESIAN_POINT('',(7.70286147464954,0.,0.));
#575=CARTESIAN_POINT('',(7.70286147464954,0.,20.383503860576));
#576=CARTESIAN_POINT('',(7.70286147464954,0.,0.));
#577=CARTESIAN_POINT('',(120.15,0.,1.55921735035611E-14));
#578=CARTESIAN_POINT('',(120.15,0.,1.55921735035611E-14));
#579=CARTESIAN_POINT('',(120.15,0.,12.5));
#580=CARTESIAN_POINT('',(112.639242262155,0.,1.41039628161408E-14));
#581=CARTESIAN_POINT('',(320.15,0.,5.52209497033749E-14));
#582=CARTESIAN_POINT('',(320.15,0.,5.52209497033749E-14));
#583=CARTESIAN_POINT('',(320.15,0.,-12.4999999999999));
#584=CARTESIAN_POINT('',(320.15,0.,20.));
#585=CARTESIAN_POINT('',(320.15,0.,2.36119107383121E-14));
#586=CARTESIAN_POINT('',(320.15,0.,-18.9999999999999));
#587=CARTESIAN_POINT('',(319.15,0.,2.34137668573131E-14));
#588=CARTESIAN_POINT('',(319.15,0.,2.34137668573131E-14));
#589=CARTESIAN_POINT('',(319.15,0.,-19.9999999999999));
#590=CARTESIAN_POINT('',(320.15,0.,2.36119107383121E-14));
#591=MECHANICAL_DESIGN_GEOMETRIC_PRESENTATION_REPRESENTATION('',(#227,#228,
#229,#230,#231,#232,#233,#234,#235,#236,#237,#238,#239,#240,#241,#242,#243,
#244,#245,#246,#247),#592);
#592=(
GEOMETRIC_REPRESENTATION_CONTEXT(3)
GLOBAL_UNCERTAINTY_ASSIGNED_CONTEXT((#593))
GLOBAL_UNIT_ASSIGNED_CONTEXT((#596,#595,#594))
REPRESENTATION_CONTEXT('0025830','TOP_LEVEL_ASSEMBLY_PART')
);
#593=UNCERTAINTY_MEASURE_WITH_UNIT(LENGTH_MEASURE(0.005),#596,
'DISTANCE_ACCURACY_VALUE','Maximum Tolerance applied to model');
#594=(
NAMED_UNIT(*)
SI_UNIT($,.STERADIAN.)
SOLID_ANGLE_UNIT()
);
#595=(
NAMED_UNIT(*)
PLANE_ANGLE_UNIT()
SI_UNIT($,.RADIAN.)
);
#596=(
LENGTH_UNIT()
NAMED_UNIT(*)
SI_UNIT(.MILLI.,.METRE.)
);
#597=PRODUCT_DEFINITION_SHAPE('','',#598);
#598=PRODUCT_DEFINITION('','',#600,#599);
#599=PRODUCT_DEFINITION_CONTEXT('',#606,'design');
#600=PRODUCT_DEFINITION_FORMATION_WITH_SPECIFIED_SOURCE('','',#602,
 .NOT_KNOWN.);
#601=PRODUCT_RELATED_PRODUCT_CATEGORY('','',(#602));
#602=PRODUCT('0025830','0025830','0025830',(#604));
#603=PRODUCT_CATEGORY('','');
#604=PRODUCT_CONTEXT('',#606,'mechanical');
#605=APPLICATION_PROTOCOL_DEFINITION('international standard',
'automotive_design',2010,#606);
#606=APPLICATION_CONTEXT(
'core data for automotive mechanical design processes');
ENDSEC;
END-ISO-10303-21;
