ISO-10303-21;
HEADER;
/* Generated by software containing ST-Developer
 * from STEP Tools, Inc. (www.steptools.com) 
 */
/* OPTION: strings as raw bytes, not using required /X/ escapes */

FILE_DESCRIPTION(
/* description */ ('Unknown'),
/* implementation_level */ '2;1');

FILE_NAME(
/* name */ '765710000',
/* time_stamp */ '2022-08-30T11:09:39+02:00',
/* author */ ('Unknown'),
/* organization */ ('Unknown'),
/* preprocessor_version */ 'ST-DEVELOPER v16.7',
/* originating_system */ 'DEX',
/* authorisation */ $);

FILE_SCHEMA (('AUTOMOTIVE_DESIGN {1 0 10303 214 3 1 1}'));
ENDSEC;

DATA;
#10=PROPERTY_DEFINITION_REPRESENTATION(#14,#12);
#11=PROPERTY_DEFINITION_REPRESENTATION(#15,#13);
#12=REPRESENTATION('',(#16),#603);
#13=REPRESENTATION('',(#17),#603);
#14=PROPERTY_DEFINITION('pmi validation property','',#608);
#15=PROPERTY_DEFINITION('pmi validation property','',#608);
#16=VALUE_REPRESENTATION_ITEM('number of annotations',COUNT_MEASURE(0.));
#17=VALUE_REPRESENTATION_ITEM('number of views',COUNT_MEASURE(0.));
#18=SHAPE_REPRESENTATION_RELATIONSHIP('','',#328,#19);
#19=ADVANCED_BREP_SHAPE_REPRESENTATION('',(#326),#603);
#20=CYLINDRICAL_SURFACE('',#362,0.25);
#21=TOROIDAL_SURFACE('',#337,2.65857892809201,2.);
#22=TOROIDAL_SURFACE('',#338,5.82210374310886,1.);
#23=TOROIDAL_SURFACE('',#347,2.65857892809201,2.);
#24=TOROIDAL_SURFACE('',#348,5.82210374310886,1.);
#25=TOROIDAL_SURFACE('',#355,5.83243552652472,2.);
#26=TOROIDAL_SURFACE('',#357,6.99650323493907,1.);
#27=TOROIDAL_SURFACE('',#368,5.87963130695671,0.5);
#28=TOROIDAL_SURFACE('',#369,4.50434439470252,0.5);
#29=LINE('',#482,#35);
#30=LINE('',#539,#36);
#31=LINE('',#584,#37);
#32=LINE('',#585,#38);
#33=LINE('',#587,#39);
#34=LINE('',#588,#40);
#35=VECTOR('',#386,1000.);
#36=VECTOR('',#407,1000.);
#37=VECTOR('',#432,1000.);
#38=VECTOR('',#433,1000.);
#39=VECTOR('',#436,1000.);
#40=VECTOR('',#437,1000.);
#41=PLANE('',#335);
#42=PLANE('',#345);
#43=PLANE('',#353);
#44=PLANE('',#358);
#45=PLANE('',#359);
#46=PLANE('',#360);
#47=PLANE('',#361);
#48=PLANE('',#366);
#49=CIRCLE('',#332,4.6585533098217);
#50=CIRCLE('',#334,4.82211655224402);
#51=CIRCLE('',#336,2.65857892809201);
#52=CIRCLE('',#339,5.82210374310886);
#53=CIRCLE('',#341,4.6585533098217);
#54=CIRCLE('',#343,4.82211655224402);
#55=CIRCLE('',#346,2.65857892809201);
#56=CIRCLE('',#349,5.82210374310886);
#57=CIRCLE('',#351,7.99649714259686);
#58=CIRCLE('',#352,7.8324233418403);
#59=CIRCLE('',#354,6.99650323493907);
#60=CIRCLE('',#356,5.89536323376745);
#61=CIRCLE('',#364,5.0043253562346);
#62=CIRCLE('',#365,5.37965034542463);
#63=CIRCLE('',#367,4.50434439470252);
#64=ELLIPSE('',#331,9.32230895733484,4.66097535571102);
#65=ELLIPSE('',#333,9.32230895733484,4.66097535571102);
#66=ELLIPSE('',#342,9.32230895733484,4.66097535571102);
#67=ELLIPSE('',#344,9.32230895733484,4.66097535571102);
#68=ORIENTED_EDGE('',*,*,#150,.F.);
#69=ORIENTED_EDGE('',*,*,#151,.T.);
#70=ORIENTED_EDGE('',*,*,#152,.T.);
#71=ORIENTED_EDGE('',*,*,#153,.T.);
#72=ORIENTED_EDGE('',*,*,#154,.T.);
#73=ORIENTED_EDGE('',*,*,#155,.T.);
#74=ORIENTED_EDGE('',*,*,#156,.T.);
#75=ORIENTED_EDGE('',*,*,#157,.T.);
#76=ORIENTED_EDGE('',*,*,#152,.F.);
#77=ORIENTED_EDGE('',*,*,#158,.T.);
#78=ORIENTED_EDGE('',*,*,#156,.F.);
#79=ORIENTED_EDGE('',*,*,#159,.T.);
#80=ORIENTED_EDGE('',*,*,#160,.F.);
#81=ORIENTED_EDGE('',*,*,#161,.T.);
#82=ORIENTED_EDGE('',*,*,#162,.T.);
#83=ORIENTED_EDGE('',*,*,#155,.F.);
#84=ORIENTED_EDGE('',*,*,#163,.F.);
#85=ORIENTED_EDGE('',*,*,#164,.T.);
#86=ORIENTED_EDGE('',*,*,#165,.T.);
#87=ORIENTED_EDGE('',*,*,#166,.T.);
#88=ORIENTED_EDGE('',*,*,#167,.F.);
#89=ORIENTED_EDGE('',*,*,#168,.T.);
#90=ORIENTED_EDGE('',*,*,#169,.T.);
#91=ORIENTED_EDGE('',*,*,#170,.T.);
#92=ORIENTED_EDGE('',*,*,#171,.T.);
#93=ORIENTED_EDGE('',*,*,#172,.T.);
#94=ORIENTED_EDGE('',*,*,#171,.F.);
#95=ORIENTED_EDGE('',*,*,#173,.T.);
#96=ORIENTED_EDGE('',*,*,#165,.F.);
#97=ORIENTED_EDGE('',*,*,#174,.T.);
#98=ORIENTED_EDGE('',*,*,#168,.F.);
#99=ORIENTED_EDGE('',*,*,#175,.T.);
#100=ORIENTED_EDGE('',*,*,#176,.T.);
#101=ORIENTED_EDGE('',*,*,#177,.F.);
#102=ORIENTED_EDGE('',*,*,#178,.T.);
#103=ORIENTED_EDGE('',*,*,#179,.F.);
#104=ORIENTED_EDGE('',*,*,#180,.T.);
#105=ORIENTED_EDGE('',*,*,#181,.T.);
#106=ORIENTED_EDGE('',*,*,#177,.T.);
#107=ORIENTED_EDGE('',*,*,#160,.T.);
#108=ORIENTED_EDGE('',*,*,#182,.T.);
#109=ORIENTED_EDGE('',*,*,#183,.T.);
#110=ORIENTED_EDGE('',*,*,#181,.F.);
#111=ORIENTED_EDGE('',*,*,#182,.F.);
#112=ORIENTED_EDGE('',*,*,#180,.F.);
#113=ORIENTED_EDGE('',*,*,#162,.F.);
#114=ORIENTED_EDGE('',*,*,#184,.T.);
#115=ORIENTED_EDGE('',*,*,#163,.T.);
#116=ORIENTED_EDGE('',*,*,#154,.F.);
#117=ORIENTED_EDGE('',*,*,#185,.T.);
#118=ORIENTED_EDGE('',*,*,#150,.T.);
#119=ORIENTED_EDGE('',*,*,#179,.T.);
#120=ORIENTED_EDGE('',*,*,#186,.T.);
#121=ORIENTED_EDGE('',*,*,#175,.F.);
#122=ORIENTED_EDGE('',*,*,#167,.T.);
#123=ORIENTED_EDGE('',*,*,#187,.T.);
#124=ORIENTED_EDGE('',*,*,#169,.F.);
#125=ORIENTED_EDGE('',*,*,#170,.F.);
#126=ORIENTED_EDGE('',*,*,#187,.F.);
#127=ORIENTED_EDGE('',*,*,#166,.F.);
#128=ORIENTED_EDGE('',*,*,#173,.F.);
#129=ORIENTED_EDGE('',*,*,#172,.F.);
#130=ORIENTED_EDGE('',*,*,#174,.F.);
#131=ORIENTED_EDGE('',*,*,#159,.F.);
#132=ORIENTED_EDGE('',*,*,#157,.F.);
#133=ORIENTED_EDGE('',*,*,#158,.F.);
#134=ORIENTED_EDGE('',*,*,#151,.F.);
#135=ORIENTED_EDGE('',*,*,#185,.F.);
#136=ORIENTED_EDGE('',*,*,#153,.F.);
#137=ORIENTED_EDGE('',*,*,#164,.F.);
#138=ORIENTED_EDGE('',*,*,#184,.F.);
#139=ORIENTED_EDGE('',*,*,#161,.F.);
#140=ORIENTED_EDGE('',*,*,#176,.F.);
#141=ORIENTED_EDGE('',*,*,#186,.F.);
#142=ORIENTED_EDGE('',*,*,#178,.F.);
#143=ORIENTED_EDGE('',*,*,#188,.T.);
#144=ORIENTED_EDGE('',*,*,#189,.T.);
#145=ORIENTED_EDGE('',*,*,#190,.T.);
#146=ORIENTED_EDGE('',*,*,#183,.F.);
#147=ORIENTED_EDGE('',*,*,#189,.F.);
#148=ORIENTED_EDGE('',*,*,#188,.F.);
#149=ORIENTED_EDGE('',*,*,#190,.F.);
#150=EDGE_CURVE('',#191,#192,#220,.T.);
#151=EDGE_CURVE('',#191,#193,#64,.T.);
#152=EDGE_CURVE('',#193,#194,#49,.F.);
#153=EDGE_CURVE('',#194,#195,#65,.T.);
#154=EDGE_CURVE('',#195,#196,#221,.T.);
#155=EDGE_CURVE('',#196,#192,#50,.F.);
#156=EDGE_CURVE('',#197,#198,#51,.T.);
#157=EDGE_CURVE('',#198,#197,#29,.T.);
#158=EDGE_CURVE('',#193,#198,#222,.T.);
#159=EDGE_CURVE('',#197,#194,#223,.T.);
#160=EDGE_CURVE('',#199,#200,#52,.F.);
#161=EDGE_CURVE('',#199,#201,#224,.F.);
#162=EDGE_CURVE('',#201,#192,#225,.T.);
#163=EDGE_CURVE('',#202,#196,#226,.T.);
#164=EDGE_CURVE('',#202,#200,#227,.T.);
#165=EDGE_CURVE('',#203,#204,#53,.F.);
#166=EDGE_CURVE('',#204,#205,#66,.T.);
#167=EDGE_CURVE('',#206,#205,#228,.T.);
#168=EDGE_CURVE('',#206,#207,#54,.F.);
#169=EDGE_CURVE('',#207,#208,#229,.T.);
#170=EDGE_CURVE('',#208,#203,#67,.T.);
#171=EDGE_CURVE('',#209,#210,#55,.T.);
#172=EDGE_CURVE('',#210,#209,#30,.T.);
#173=EDGE_CURVE('',#209,#204,#230,.T.);
#174=EDGE_CURVE('',#203,#210,#231,.T.);
#175=EDGE_CURVE('',#206,#211,#232,.T.);
#176=EDGE_CURVE('',#211,#199,#233,.T.);
#177=EDGE_CURVE('',#200,#199,#56,.F.);
#178=EDGE_CURVE('',#200,#212,#234,.F.);
#179=EDGE_CURVE('',#207,#212,#235,.T.);
#180=EDGE_CURVE('',#213,#213,#57,.T.);
#181=EDGE_CURVE('',#214,#214,#58,.F.);
#182=EDGE_CURVE('',#215,#215,#59,.T.);
#183=EDGE_CURVE('',#216,#216,#60,.T.);
#184=EDGE_CURVE('',#201,#202,#31,.F.);
#185=EDGE_CURVE('',#195,#191,#32,.T.);
#186=EDGE_CURVE('',#212,#211,#33,.T.);
#187=EDGE_CURVE('',#205,#208,#34,.T.);
#188=EDGE_CURVE('',#217,#217,#61,.F.);
#189=EDGE_CURVE('',#218,#218,#62,.T.);
#190=EDGE_CURVE('',#219,#219,#63,.F.);
#191=VERTEX_POINT('',#464);
#192=VERTEX_POINT('',#465);
#193=VERTEX_POINT('',#467);
#194=VERTEX_POINT('',#469);
#195=VERTEX_POINT('',#471);
#196=VERTEX_POINT('',#476);
#197=VERTEX_POINT('',#480);
#198=VERTEX_POINT('',#481);
#199=VERTEX_POINT('',#496);
#200=VERTEX_POINT('',#497);
#201=VERTEX_POINT('',#502);
#202=VERTEX_POINT('',#511);
#203=VERTEX_POINT('',#518);
#204=VERTEX_POINT('',#519);
#205=VERTEX_POINT('',#521);
#206=VERTEX_POINT('',#526);
#207=VERTEX_POINT('',#528);
#208=VERTEX_POINT('',#533);
#209=VERTEX_POINT('',#537);
#210=VERTEX_POINT('',#538);
#211=VERTEX_POINT('',#556);
#212=VERTEX_POINT('',#566);
#213=VERTEX_POINT('',#573);
#214=VERTEX_POINT('',#575);
#215=VERTEX_POINT('',#578);
#216=VERTEX_POINT('',#581);
#217=VERTEX_POINT('',#594);
#218=VERTEX_POINT('',#596);
#219=VERTEX_POINT('',#599);
#220=B_SPLINE_CURVE_WITH_KNOTS('',3,(#460,#461,#462,#463),.UNSPECIFIED.,
 .F.,.F.,(4,4),(0.0175965902230457,0.0499020666159549),.UNSPECIFIED.);
#221=B_SPLINE_CURVE_WITH_KNOTS('',3,(#472,#473,#474,#475),.UNSPECIFIED.,
 .F.,.F.,(4,4),(0.0175965902230457,0.0499020666159548),.UNSPECIFIED.);
#222=B_SPLINE_CURVE_WITH_KNOTS('',3,(#484,#485,#486,#487,#488),
 .UNSPECIFIED.,.F.,.F.,(4,1,4),(0.,0.00182439544839446,0.00364879089678892),
 .UNSPECIFIED.);
#223=B_SPLINE_CURVE_WITH_KNOTS('',3,(#489,#490,#491,#492,#493),
 .UNSPECIFIED.,.F.,.F.,(4,1,4),(0.,0.00183175160929648,0.00366350321859296),
 .UNSPECIFIED.);
#224=B_SPLINE_CURVE_WITH_KNOTS('',3,(#498,#499,#500,#501),.UNSPECIFIED.,
 .F.,.F.,(4,4),(6.36755360367997E-18,0.00077483436189492),.UNSPECIFIED.);
#225=B_SPLINE_CURVE_WITH_KNOTS('',3,(#503,#504,#505,#506),.UNSPECIFIED.,
 .F.,.F.,(4,4),(0.00584355454012847,0.00668144007622175),.UNSPECIFIED.);
#226=B_SPLINE_CURVE_WITH_KNOTS('',3,(#507,#508,#509,#510),.UNSPECIFIED.,
 .F.,.F.,(4,4),(0.00010319792743948,0.000942999177110838),.UNSPECIFIED.);
#227=B_SPLINE_CURVE_WITH_KNOTS('',3,(#512,#513,#514,#515),.UNSPECIFIED.,
 .F.,.F.,(4,4),(7.501002406486E-18,0.000774834361894979),.UNSPECIFIED.);
#228=B_SPLINE_CURVE_WITH_KNOTS('',3,(#522,#523,#524,#525),.UNSPECIFIED.,
 .F.,.F.,(4,4),(0.0458505543517296,0.0781560307446465),.UNSPECIFIED.);
#229=B_SPLINE_CURVE_WITH_KNOTS('',3,(#529,#530,#531,#532),.UNSPECIFIED.,
 .F.,.F.,(4,4),(0.0458505543517296,0.0781560307446383),.UNSPECIFIED.);
#230=B_SPLINE_CURVE_WITH_KNOTS('',3,(#541,#542,#543,#544,#545),
 .UNSPECIFIED.,.F.,.F.,(4,1,4),(0.,0.00183175160929648,0.00366350321859296),
 .UNSPECIFIED.);
#231=B_SPLINE_CURVE_WITH_KNOTS('',3,(#546,#547,#548,#549,#550),
 .UNSPECIFIED.,.F.,.F.,(4,1,4),(0.,0.00182439544839446,0.00364879089678892),
 .UNSPECIFIED.);
#232=B_SPLINE_CURVE_WITH_KNOTS('',3,(#552,#553,#554,#555),.UNSPECIFIED.,
 .F.,.F.,(4,4),(0.00582967728992566,0.00666758420723183),.UNSPECIFIED.);
#233=B_SPLINE_CURVE_WITH_KNOTS('',3,(#557,#558,#559,#560),.UNSPECIFIED.,
 .F.,.F.,(4,4),(1.0842021724855E-19,0.000774834361894992),.UNSPECIFIED.);
#234=B_SPLINE_CURVE_WITH_KNOTS('',3,(#562,#563,#564,#565),.UNSPECIFIED.,
 .F.,.F.,(4,4),(4.26406728248975E-15,0.000774834361887206),
 .UNSPECIFIED.);
#235=B_SPLINE_CURVE_WITH_KNOTS('',3,(#567,#568,#569,#570),.UNSPECIFIED.,
 .F.,.F.,(4,4),(0.00531395608909133,0.00615223594768451),.UNSPECIFIED.);
#236=EDGE_LOOP('',(#68,#69,#70,#71,#72,#73));
#237=EDGE_LOOP('',(#74,#75));
#238=EDGE_LOOP('',(#76,#77,#78,#79));
#239=EDGE_LOOP('',(#80,#81,#82,#83,#84,#85));
#240=EDGE_LOOP('',(#86,#87,#88,#89,#90,#91));
#241=EDGE_LOOP('',(#92,#93));
#242=EDGE_LOOP('',(#94,#95,#96,#97));
#243=EDGE_LOOP('',(#98,#99,#100,#101,#102,#103));
#244=EDGE_LOOP('',(#104));
#245=EDGE_LOOP('',(#105));
#246=EDGE_LOOP('',(#106,#107));
#247=EDGE_LOOP('',(#108));
#248=EDGE_LOOP('',(#109));
#249=EDGE_LOOP('',(#110));
#250=EDGE_LOOP('',(#111));
#251=EDGE_LOOP('',(#112));
#252=EDGE_LOOP('',(#113,#114,#115,#116,#117,#118));
#253=EDGE_LOOP('',(#119,#120,#121,#122,#123,#124));
#254=EDGE_LOOP('',(#125,#126,#127,#128,#129,#130));
#255=EDGE_LOOP('',(#131,#132,#133,#134,#135,#136));
#256=EDGE_LOOP('',(#137,#138,#139,#140,#141,#142));
#257=EDGE_LOOP('',(#143));
#258=EDGE_LOOP('',(#144));
#259=EDGE_LOOP('',(#145));
#260=EDGE_LOOP('',(#146));
#261=EDGE_LOOP('',(#147));
#262=EDGE_LOOP('',(#148));
#263=EDGE_LOOP('',(#149));
#264=FACE_BOUND('',#236,.T.);
#265=FACE_BOUND('',#237,.T.);
#266=FACE_BOUND('',#238,.T.);
#267=FACE_BOUND('',#239,.T.);
#268=FACE_BOUND('',#240,.T.);
#269=FACE_BOUND('',#241,.T.);
#270=FACE_BOUND('',#242,.T.);
#271=FACE_BOUND('',#243,.T.);
#272=FACE_BOUND('',#244,.T.);
#273=FACE_BOUND('',#245,.T.);
#274=FACE_BOUND('',#246,.T.);
#275=FACE_BOUND('',#247,.T.);
#276=FACE_BOUND('',#248,.T.);
#277=FACE_BOUND('',#249,.T.);
#278=FACE_BOUND('',#250,.T.);
#279=FACE_BOUND('',#251,.T.);
#280=FACE_BOUND('',#252,.T.);
#281=FACE_BOUND('',#253,.T.);
#282=FACE_BOUND('',#254,.T.);
#283=FACE_BOUND('',#255,.T.);
#284=FACE_BOUND('',#256,.T.);
#285=FACE_BOUND('',#257,.T.);
#286=FACE_BOUND('',#258,.T.);
#287=FACE_BOUND('',#259,.T.);
#288=FACE_BOUND('',#260,.T.);
#289=FACE_BOUND('',#261,.T.);
#290=FACE_BOUND('',#262,.T.);
#291=FACE_BOUND('',#263,.T.);
#292=CONICAL_SURFACE('',#330,4.82715243186286,0.00506145483078345);
#293=CONICAL_SURFACE('',#340,4.82715243186286,0.00506145483078345);
#294=CONICAL_SURFACE('',#350,7.82546636592018,0.00349065850398865);
#295=CONICAL_SURFACE('',#363,5.38398218279338,0.0087266462599713);
#296=ADVANCED_FACE('',(#264),#292,.T.);
#297=ADVANCED_FACE('',(#265),#41,.T.);
#298=ADVANCED_FACE('',(#266),#21,.T.);
#299=ADVANCED_FACE('',(#267),#22,.F.);
#300=ADVANCED_FACE('',(#268),#293,.T.);
#301=ADVANCED_FACE('',(#269),#42,.T.);
#302=ADVANCED_FACE('',(#270),#23,.T.);
#303=ADVANCED_FACE('',(#271),#24,.F.);
#304=ADVANCED_FACE('',(#272,#273),#294,.T.);
#305=ADVANCED_FACE('',(#274,#275),#43,.T.);
#306=ADVANCED_FACE('',(#276,#277),#25,.T.);
#307=ADVANCED_FACE('',(#278,#279),#26,.T.);
#308=ADVANCED_FACE('',(#280),#44,.T.);
#309=ADVANCED_FACE('',(#281),#45,.T.);
#310=ADVANCED_FACE('',(#282),#46,.F.);
#311=ADVANCED_FACE('',(#283),#47,.F.);
#312=ADVANCED_FACE('',(#284),#20,.F.);
#313=ADVANCED_FACE('',(#285,#286),#295,.F.);
#314=ADVANCED_FACE('',(#287),#48,.F.);
#315=ADVANCED_FACE('',(#288,#289),#27,.T.);
#316=ADVANCED_FACE('',(#290,#291),#28,.F.);
#317=CLOSED_SHELL('',(#296,#297,#298,#299,#300,#301,#302,#303,#304,#305,
#306,#307,#308,#309,#310,#311,#312,#313,#314,#315,#316));
#318=STYLED_ITEM('',(#319),#326);
#319=PRESENTATION_STYLE_ASSIGNMENT((#320));
#320=SURFACE_STYLE_USAGE(.BOTH.,#321);
#321=SURFACE_SIDE_STYLE('',(#322));
#322=SURFACE_STYLE_FILL_AREA(#323);
#323=FILL_AREA_STYLE('',(#324));
#324=FILL_AREA_STYLE_COLOUR('',#325);
#325=COLOUR_RGB('',0.,0.376470625400543,0.564705908298492);
#326=MANIFOLD_SOLID_BREP('',#317);
#327=SHAPE_DEFINITION_REPRESENTATION(#608,#328);
#328=SHAPE_REPRESENTATION('0002047',(#329),#603);
#329=AXIS2_PLACEMENT_3D('',#458,#370,#371);
#330=AXIS2_PLACEMENT_3D('',#459,#372,#373);
#331=AXIS2_PLACEMENT_3D('',#466,#374,#375);
#332=AXIS2_PLACEMENT_3D('',#468,#376,#377);
#333=AXIS2_PLACEMENT_3D('',#470,#378,#379);
#334=AXIS2_PLACEMENT_3D('',#477,#380,#381);
#335=AXIS2_PLACEMENT_3D('',#478,#382,#383);
#336=AXIS2_PLACEMENT_3D('',#479,#384,#385);
#337=AXIS2_PLACEMENT_3D('',#483,#387,#388);
#338=AXIS2_PLACEMENT_3D('',#494,#389,#390);
#339=AXIS2_PLACEMENT_3D('',#495,#391,#392);
#340=AXIS2_PLACEMENT_3D('',#516,#393,#394);
#341=AXIS2_PLACEMENT_3D('',#517,#395,#396);
#342=AXIS2_PLACEMENT_3D('',#520,#397,#398);
#343=AXIS2_PLACEMENT_3D('',#527,#399,#400);
#344=AXIS2_PLACEMENT_3D('',#534,#401,#402);
#345=AXIS2_PLACEMENT_3D('',#535,#403,#404);
#346=AXIS2_PLACEMENT_3D('',#536,#405,#406);
#347=AXIS2_PLACEMENT_3D('',#540,#408,#409);
#348=AXIS2_PLACEMENT_3D('',#551,#410,#411);
#349=AXIS2_PLACEMENT_3D('',#561,#412,#413);
#350=AXIS2_PLACEMENT_3D('',#571,#414,#415);
#351=AXIS2_PLACEMENT_3D('',#572,#416,#417);
#352=AXIS2_PLACEMENT_3D('',#574,#418,#419);
#353=AXIS2_PLACEMENT_3D('',#576,#420,#421);
#354=AXIS2_PLACEMENT_3D('',#577,#422,#423);
#355=AXIS2_PLACEMENT_3D('',#579,#424,#425);
#356=AXIS2_PLACEMENT_3D('',#580,#426,#427);
#357=AXIS2_PLACEMENT_3D('',#582,#428,#429);
#358=AXIS2_PLACEMENT_3D('',#583,#430,#431);
#359=AXIS2_PLACEMENT_3D('',#586,#434,#435);
#360=AXIS2_PLACEMENT_3D('',#589,#438,#439);
#361=AXIS2_PLACEMENT_3D('',#590,#440,#441);
#362=AXIS2_PLACEMENT_3D('',#591,#442,#443);
#363=AXIS2_PLACEMENT_3D('',#592,#444,#445);
#364=AXIS2_PLACEMENT_3D('',#593,#446,#447);
#365=AXIS2_PLACEMENT_3D('',#595,#448,#449);
#366=AXIS2_PLACEMENT_3D('',#597,#450,#451);
#367=AXIS2_PLACEMENT_3D('',#598,#452,#453);
#368=AXIS2_PLACEMENT_3D('',#600,#454,#455);
#369=AXIS2_PLACEMENT_3D('',#601,#456,#457);
#370=DIRECTION('',(0.,0.,1.));
#371=DIRECTION('',(1.,0.,0.));
#372=DIRECTION('',(-1.,0.,0.));
#373=DIRECTION('',(0.,0.,1.));
#374=DIRECTION('',(-0.5,0.,-0.866025403784439));
#375=DIRECTION('',(-0.866025403784439,0.,0.5));
#376=DIRECTION('',(1.,0.,0.));
#377=DIRECTION('',(0.,0.,-1.));
#378=DIRECTION('',(-0.5,0.,-0.866025403784439));
#379=DIRECTION('',(-0.866025403784439,0.,0.5));
#380=DIRECTION('',(-1.,0.,0.));
#381=DIRECTION('',(0.,0.,1.));
#382=DIRECTION('',(1.,0.,0.));
#383=DIRECTION('',(0.,0.,-1.));
#384=DIRECTION('',(1.,0.,0.));
#385=DIRECTION('',(0.,0.,-1.));
#386=DIRECTION('',(0.,-1.,0.));
#387=DIRECTION('',(1.,0.,0.));
#388=DIRECTION('',(0.,0.,-1.));
#389=DIRECTION('',(1.,0.,0.));
#390=DIRECTION('',(0.,0.,-1.));
#391=DIRECTION('',(1.,0.,0.));
#392=DIRECTION('',(0.,0.,-1.));
#393=DIRECTION('',(-1.,0.,0.));
#394=DIRECTION('',(0.,0.,1.));
#395=DIRECTION('',(1.,0.,0.));
#396=DIRECTION('',(0.,0.,-1.));
#397=DIRECTION('',(-0.5,0.,0.866025403784439));
#398=DIRECTION('',(-0.866025403784439,0.,-0.5));
#399=DIRECTION('',(-1.,0.,0.));
#400=DIRECTION('',(0.,0.,1.));
#401=DIRECTION('',(-0.5,0.,0.866025403784439));
#402=DIRECTION('',(-0.866025403784439,0.,-0.5));
#403=DIRECTION('',(1.,0.,0.));
#404=DIRECTION('',(0.,0.,-1.));
#405=DIRECTION('',(1.,0.,0.));
#406=DIRECTION('',(0.,0.,-1.));
#407=DIRECTION('',(0.,1.,0.));
#408=DIRECTION('',(1.,0.,0.));
#409=DIRECTION('',(0.,0.,-1.));
#410=DIRECTION('',(1.,0.,0.));
#411=DIRECTION('',(0.,0.,-1.));
#412=DIRECTION('',(1.,0.,0.));
#413=DIRECTION('',(0.,0.,-1.));
#414=DIRECTION('',(1.,0.,0.));
#415=DIRECTION('',(0.,0.,-1.));
#416=DIRECTION('',(-1.,0.,0.));
#417=DIRECTION('',(0.,0.,1.));
#418=DIRECTION('',(-1.,0.,0.));
#419=DIRECTION('',(0.,0.,1.));
#420=DIRECTION('',(1.,0.,0.));
#421=DIRECTION('',(0.,0.,-1.));
#422=DIRECTION('',(1.,0.,0.));
#423=DIRECTION('',(0.,0.,-1.));
#424=DIRECTION('',(-1.,0.,0.));
#425=DIRECTION('',(0.,0.,1.));
#426=DIRECTION('',(1.,0.,0.));
#427=DIRECTION('',(0.,0.,-1.));
#428=DIRECTION('',(1.,0.,0.));
#429=DIRECTION('',(0.,0.,-1.));
#430=DIRECTION('',(-1.84283655379972E-17,0.,1.));
#431=DIRECTION('',(1.,0.,1.84283655379972E-17));
#432=DIRECTION('',(0.,1.,0.));
#433=DIRECTION('',(0.,1.,0.));
#434=DIRECTION('',(-1.84283655379972E-17,0.,-1.));
#435=DIRECTION('',(-1.,0.,1.84283655379972E-17));
#436=DIRECTION('',(0.,1.,0.));
#437=DIRECTION('',(0.,-1.,0.));
#438=DIRECTION('',(-0.5,0.,0.866025403784439));
#439=DIRECTION('',(0.866025403784439,0.,0.5));
#440=DIRECTION('',(-0.5,0.,-0.866025403784439));
#441=DIRECTION('',(-0.866025403784439,0.,0.5));
#442=DIRECTION('',(0.,-1.,0.));
#443=DIRECTION('',(0.,0.,-1.));
#444=DIRECTION('',(-1.,0.,0.));
#445=DIRECTION('',(0.,0.,1.));
#446=DIRECTION('',(-1.,0.,0.));
#447=DIRECTION('',(0.,0.,1.));
#448=DIRECTION('',(-1.,0.,0.));
#449=DIRECTION('',(0.,0.,1.));
#450=DIRECTION('',(1.,0.,0.));
#451=DIRECTION('',(0.,0.,-1.));
#452=DIRECTION('',(1.,0.,0.));
#453=DIRECTION('',(0.,0.,-1.));
#454=DIRECTION('',(1.,0.,0.));
#455=DIRECTION('',(0.,0.,-1.));
#456=DIRECTION('',(1.,0.,0.));
#457=DIRECTION('',(0.,0.,-1.));
#458=CARTESIAN_POINT('',(0.,0.,0.));
#459=CARTESIAN_POINT('',(0.,0.,0.));
#460=CARTESIAN_POINT('',(33.3,4.65189169289711,-0.25));
#461=CARTESIAN_POINT('',(22.5316462024722,4.70647434599393,-0.25));
#462=CARTESIAN_POINT('',(11.7632923909382,4.76105423580773,-0.25));
#463=CARTESIAN_POINT('',(0.994938566780069,4.81563163493905,-0.250000000000001));
#464=CARTESIAN_POINT('',(33.3,4.65189169289711,-0.25));
#465=CARTESIAN_POINT('',(0.994938566780072,4.81563163493778,-0.250000000000001));
#466=CARTESIAN_POINT('',(32.7962100251491,0.,0.0408632775951955));
#467=CARTESIAN_POINT('',(33.3101228664396,4.65152260696901,-0.255844439663899));
#468=CARTESIAN_POINT('',(33.3101228664396,0.,0.));
#469=CARTESIAN_POINT('',(33.3101228664396,-4.65152260696901,-0.255844439663904));
#470=CARTESIAN_POINT('',(32.7962100251491,0.,0.0408632775951955));
#471=CARTESIAN_POINT('',(33.3,-4.65189169289711,-0.25));
#472=CARTESIAN_POINT('',(33.3,-4.65189169289711,-0.25));
#473=CARTESIAN_POINT('',(22.5316462024722,-4.70647434599393,-0.25));
#474=CARTESIAN_POINT('',(11.7632923909383,-4.76105423580773,-0.25));
#475=CARTESIAN_POINT('',(0.99493856678018,-4.81563163493905,-0.250000000000001));
#476=CARTESIAN_POINT('',(0.994938566780188,-4.81563163493905,-0.250000000000001));
#477=CARTESIAN_POINT('',(0.994938566780188,0.,0.));
#478=CARTESIAN_POINT('',(35.3,0.,4.64848155058403));
#479=CARTESIAN_POINT('',(35.3,0.,0.));
#480=CARTESIAN_POINT('',(35.3,-2.25717928272698,-1.40470053837925));
#481=CARTESIAN_POINT('',(35.3,2.25717928272698,-1.40470053837925));
#482=CARTESIAN_POINT('',(35.3,0.,-1.40470053837925));
#483=CARTESIAN_POINT('',(33.3,0.,0.));
#484=CARTESIAN_POINT('',(33.3101228664396,4.65152260696901,-0.255844439663899));
#485=CARTESIAN_POINT('',(33.8441500470717,4.63185719442853,-0.564165176156399));
#486=CARTESIAN_POINT('',(34.8742741361826,4.08694347788394,-1.15890759630331));
#487=CARTESIAN_POINT('',(35.3,2.873941930097,-1.40470053837925));
#488=CARTESIAN_POINT('',(35.3,2.25717928272698,-1.40470053837925));
#489=CARTESIAN_POINT('',(35.3,-2.25717928272699,-1.40470053837925));
#490=CARTESIAN_POINT('',(35.3,-2.87377783514489,-1.40470053837925));
#491=CARTESIAN_POINT('',(34.8753793425414,-4.08578827233203,-1.15954568749202));
#492=CARTESIAN_POINT('',(33.8439825614933,-4.63186336204156,-0.564068478312634));
#493=CARTESIAN_POINT('',(33.3101228664396,-4.65152260696901,-0.255844439663901));
#494=CARTESIAN_POINT('',(1.,0.,0.));
#495=CARTESIAN_POINT('',(2.16840434497101E-16,0.,0.));
#496=CARTESIAN_POINT('',(1.7368086540925E-16,5.82210374310886,0.));
#497=CARTESIAN_POINT('',(2.16840434497101E-16,-5.82210374310886,0.));
#498=CARTESIAN_POINT('',(0.25,5.15460693843681,-0.250000000000001));
#499=CARTESIAN_POINT('',(0.0768310542238124,5.35119287184592,-0.250000000000001));
#500=CARTESIAN_POINT('',(1.7368086540925E-16,5.59108586063271,-0.115493516470423));
#501=CARTESIAN_POINT('',(1.7368086540925E-16,5.82210374310886,0.));
#502=CARTESIAN_POINT('',(0.249999999999963,5.15460693843677,-0.250000000000001));
#503=CARTESIAN_POINT('',(0.249999999999963,5.15460693843677,-0.250000000000001));
#504=CARTESIAN_POINT('',(0.434715678818194,4.94491285054464,-0.250000000000001));
#505=CARTESIAN_POINT('',(0.714816662565933,4.81705138072581,-0.250000000000001));
#506=CARTESIAN_POINT('',(0.994938566779981,4.81563163493903,-0.250000000000001));
#507=CARTESIAN_POINT('',(0.249999999999972,-5.15460693843673,-0.250000000000001));
#508=CARTESIAN_POINT('',(0.435425112628537,-4.94410748265852,-0.250000000000001));
#509=CARTESIAN_POINT('',(0.713501830308281,-4.81705804470858,-0.250000000000001));
#510=CARTESIAN_POINT('',(0.994938566780187,-4.81563163493904,-0.250000000000001));
#511=CARTESIAN_POINT('',(0.249999999999987,-5.15460693843674,-0.250000000000001));
#512=CARTESIAN_POINT('',(0.25,-5.15460693843674,-0.250000000000001));
#513=CARTESIAN_POINT('',(0.0768310542237867,-5.35119287184587,-0.250000000000001));
#514=CARTESIAN_POINT('',(1.7368086540925E-16,-5.59108586063264,-0.115493516470317));
#515=CARTESIAN_POINT('',(1.7368086540925E-16,-5.82210374310886,0.));
#516=CARTESIAN_POINT('',(0.,0.,0.));
#517=CARTESIAN_POINT('',(33.3101228664396,0.,0.));
#518=CARTESIAN_POINT('',(33.3101228664396,-4.65152260696901,0.255844439663899));
#519=CARTESIAN_POINT('',(33.3101228664396,4.65152260696901,0.255844439663904));
#520=CARTESIAN_POINT('',(32.7962100251491,0.,-0.0408632775951955));
#521=CARTESIAN_POINT('',(33.3000000000083,4.65189169289707,0.25));
#522=CARTESIAN_POINT('',(0.994938566780176,4.81563163493905,0.250000000000001));
#523=CARTESIAN_POINT('',(11.7632923909409,4.76105423580772,0.25));
#524=CARTESIAN_POINT('',(22.531646202478,4.7064743459939,0.25));
#525=CARTESIAN_POINT('',(33.3000000000082,4.65189169289707,0.25));
#526=CARTESIAN_POINT('',(0.994938566780188,4.81563163493905,0.250000000000001));
#527=CARTESIAN_POINT('',(0.994938566780188,0.,0.));
#528=CARTESIAN_POINT('',(0.994938566780186,-4.81563163493902,0.250000000000001));
#529=CARTESIAN_POINT('',(0.994938566780176,-4.81563163493905,0.250000000000001));
#530=CARTESIAN_POINT('',(11.7632923909381,-4.76105423580773,0.25));
#531=CARTESIAN_POINT('',(22.5316462024725,-4.70647434599393,0.25));
#532=CARTESIAN_POINT('',(33.3,-4.65189169289711,0.25));
#533=CARTESIAN_POINT('',(33.3,-4.65189169289711,0.25));
#534=CARTESIAN_POINT('',(32.7962100251491,0.,-0.0408632775951955));
#535=CARTESIAN_POINT('',(35.3,0.,4.64848155058403));
#536=CARTESIAN_POINT('',(35.3,0.,0.));
#537=CARTESIAN_POINT('',(35.3,2.25717928272698,1.40470053837925));
#538=CARTESIAN_POINT('',(35.3,-2.25717928272698,1.40470053837925));
#539=CARTESIAN_POINT('',(35.3,0.,1.40470053837925));
#540=CARTESIAN_POINT('',(33.3,0.,0.));
#541=CARTESIAN_POINT('',(35.3,2.25717928272698,1.40470053837925));
#542=CARTESIAN_POINT('',(35.3,2.87377783514488,1.40470053837925));
#543=CARTESIAN_POINT('',(34.8753793425413,4.08578827233203,1.15954568749202));
#544=CARTESIAN_POINT('',(33.8439825614933,4.63186336204155,0.564068478312634));
#545=CARTESIAN_POINT('',(33.3101228664396,4.65152260696901,0.255844439663901));
#546=CARTESIAN_POINT('',(33.3101228664396,-4.65152260696901,0.255844439663899));
#547=CARTESIAN_POINT('',(33.8441500470717,-4.63185719442853,0.564165176156399));
#548=CARTESIAN_POINT('',(34.8742741361826,-4.08694347788394,1.15890759630331));
#549=CARTESIAN_POINT('',(35.3,-2.873941930097,1.40470053837925));
#550=CARTESIAN_POINT('',(35.3,-2.25717928272698,1.40470053837925));
#551=CARTESIAN_POINT('',(1.,0.,0.));
#552=CARTESIAN_POINT('',(0.994938566780187,4.81563163493903,0.250000000000001));
#553=CARTESIAN_POINT('',(0.715281824742924,4.81704902313774,0.250000000000001));
#554=CARTESIAN_POINT('',(0.435397643745836,4.94413866605532,0.250000000000001));
#555=CARTESIAN_POINT('',(0.249999999999989,5.15460693843672,0.250000000000001));
#556=CARTESIAN_POINT('',(0.249999999999989,5.15460693843672,0.250000000000001));
#557=CARTESIAN_POINT('',(0.25,5.15460693843673,0.250000000000001));
#558=CARTESIAN_POINT('',(0.0768310542237791,5.35119287184585,0.250000000000001));
#559=CARTESIAN_POINT('',(2.00785919721388E-16,5.59108586063258,0.115493516470212));
#560=CARTESIAN_POINT('',(2.00785919721388E-16,5.82210374310886,6.45914212106803E-16));
#561=CARTESIAN_POINT('',(2.16840434497101E-16,0.,0.));
#562=CARTESIAN_POINT('',(0.25,-5.1546069384451,0.250000000000001));
#563=CARTESIAN_POINT('',(0.0768310542281489,-5.35119287185175,0.250000000000001));
#564=CARTESIAN_POINT('',(2.00785919721388E-16,-5.5910858606363,0.115493516468676));
#565=CARTESIAN_POINT('',(2.00785919721388E-16,-5.82210374310886,6.45914212106803E-16));
#566=CARTESIAN_POINT('',(0.249999999992629,-5.1546069384451,0.250000000000001));
#567=CARTESIAN_POINT('',(0.994938566780184,-4.81563163493904,0.250000000000001));
#568=CARTESIAN_POINT('',(0.713947933323777,-4.8170557837184,0.250000000000001));
#569=CARTESIAN_POINT('',(0.43633186938303,-4.94307810858124,0.250000000000001));
#570=CARTESIAN_POINT('',(0.249999999992629,-5.1546069384451,0.250000000000001));
#571=CARTESIAN_POINT('',(-50.,0.,0.));
#572=CARTESIAN_POINT('',(-1.00349065141536,0.,0.));
#573=CARTESIAN_POINT('',(-1.00349065141536,0.,7.99649714259686));
#574=CARTESIAN_POINT('',(-48.0069813028305,0.,0.));
#575=CARTESIAN_POINT('',(-48.0069813028305,0.,7.8324233418403));
#576=CARTESIAN_POINT('',(1.7368086540925E-16,0.,7.99999999999999));
#577=CARTESIAN_POINT('',(2.16840434497101E-16,0.,0.));
#578=CARTESIAN_POINT('',(2.16840434497101E-16,0.,-6.99650323493907));
#579=CARTESIAN_POINT('',(-48.,0.,0.));
#580=CARTESIAN_POINT('',(-49.999009780784,0.,0.));
#581=CARTESIAN_POINT('',(-49.999009780784,0.,-5.89536323376745));
#582=CARTESIAN_POINT('',(-1.,0.,0.));
#583=CARTESIAN_POINT('',(7.34788079488413E-17,-88.2476160154623,-0.250000000000001));
#584=CARTESIAN_POINT('',(0.25,-5.81673379101556,-0.250000000000001));
#585=CARTESIAN_POINT('',(33.3,-88.2476160154623,-0.25));
#586=CARTESIAN_POINT('',(35.3,-88.2476160154623,0.25));
#587=CARTESIAN_POINT('',(0.25,5.81673379101384,0.250000000000001));
#588=CARTESIAN_POINT('',(33.3,-88.2476160154623,0.25));
#589=CARTESIAN_POINT('',(35.3,0.,1.40470053837925));
#590=CARTESIAN_POINT('',(33.3,-88.2476160154623,-0.25));
#591=CARTESIAN_POINT('',(0.25,0.,0.));
#592=CARTESIAN_POINT('',(-50.,0.,0.));
#593=CARTESIAN_POINT('',(-6.49563673225081,0.,0.));
#594=CARTESIAN_POINT('',(-6.49563673225081,0.,5.0043253562346));
#595=CARTESIAN_POINT('',(-49.5036206033355,0.,0.));
#596=CARTESIAN_POINT('',(-49.5036206033355,0.,5.37965034542463));
#597=CARTESIAN_POINT('',(-5.99999999999999,0.,5.00000000000001));
#598=CARTESIAN_POINT('',(-5.99999999999999,0.,0.));
#599=CARTESIAN_POINT('',(-5.99999999999999,0.,-4.50434439470252));
#600=CARTESIAN_POINT('',(-49.4992573355863,0.,0.));
#601=CARTESIAN_POINT('',(-6.49999999999999,0.,0.));
#602=MECHANICAL_DESIGN_GEOMETRIC_PRESENTATION_REPRESENTATION('',(#318),
#603);
#603=(
GEOMETRIC_REPRESENTATION_CONTEXT(3)
GLOBAL_UNCERTAINTY_ASSIGNED_CONTEXT((#604))
GLOBAL_UNIT_ASSIGNED_CONTEXT((#607,#606,#605))
REPRESENTATION_CONTEXT('0002047','TOP_LEVEL_ASSEMBLY_PART')
);
#604=UNCERTAINTY_MEASURE_WITH_UNIT(LENGTH_MEASURE(0.005),#607,
'DISTANCE_ACCURACY_VALUE','Maximum Tolerance applied to model');
#605=(
NAMED_UNIT(*)
SI_UNIT($,.STERADIAN.)
SOLID_ANGLE_UNIT()
);
#606=(
NAMED_UNIT(*)
PLANE_ANGLE_UNIT()
SI_UNIT($,.RADIAN.)
);
#607=(
LENGTH_UNIT()
NAMED_UNIT(*)
SI_UNIT(.MILLI.,.METRE.)
);
#608=PRODUCT_DEFINITION_SHAPE('','',#609);
#609=PRODUCT_DEFINITION('','',#611,#610);
#610=PRODUCT_DEFINITION_CONTEXT('',#617,'design');
#611=PRODUCT_DEFINITION_FORMATION_WITH_SPECIFIED_SOURCE('','',#613,
 .NOT_KNOWN.);
#612=PRODUCT_RELATED_PRODUCT_CATEGORY('','',(#613));
#613=PRODUCT('0002047','0002047','0002047',(#615));
#614=PRODUCT_CATEGORY('','');
#615=PRODUCT_CONTEXT('',#617,'mechanical');
#616=APPLICATION_PROTOCOL_DEFINITION('international standard',
'automotive_design',2010,#617);
#617=APPLICATION_CONTEXT(
'core data for automotive mechanical design processes');
ENDSEC;
END-ISO-10303-21;
