ISO-10303-21;
HEADER;
/* Generated by software containing ST-Developer
 * from STEP Tools, Inc. (www.steptools.com) 
 */
/* OPTION: strings as raw bytes, not using required /X/ escapes */

FILE_DESCRIPTION(
/* description */ ('Unknown'),
/* implementation_level */ '2;1');

FILE_NAME(
/* name */ '783115300',
/* time_stamp */ '2023-09-26T13:10:18+02:00',
/* author */ ('Unknown'),
/* organization */ ('Unknown'),
/* preprocessor_version */ 'ST-DEVELOPER v16.7',
/* originating_system */ 'DEX',
/* authorisation */ $);

FILE_SCHEMA (('AUTOMOTIVE_DESIGN {1 0 10303 214 3 1 1}'));
ENDSEC;

DATA;
#10=PROPERTY_DEFINITION_REPRESENTATION(#14,#12);
#11=PROPERTY_DEFINITION_REPRESENTATION(#15,#13);
#12=REPRESENTATION('',(#16),#237);
#13=REPRESENTATION('',(#17),#237);
#14=PROPERTY_DEFINITION('pmi validation property','',#242);
#15=PROPERTY_DEFINITION('pmi validation property','',#242);
#16=VALUE_REPRESENTATION_ITEM('number of annotations',COUNT_MEASURE(0.));
#17=VALUE_REPRESENTATION_ITEM('number of views',COUNT_MEASURE(0.));
#18=SHAPE_REPRESENTATION_RELATIONSHIP('','',#141,#19);
#19=ADVANCED_BREP_SHAPE_REPRESENTATION('',(#139),#237);
#20=CONICAL_SURFACE('',#150,12.075,0.338023982086745);
#21=PLANE('',#149);
#22=PLANE('',#154);
#23=PLANE('',#158);
#24=PLANE('',#162);
#25=ORIENTED_EDGE('',*,*,#45,.T.);
#26=ORIENTED_EDGE('',*,*,#46,.T.);
#27=ORIENTED_EDGE('',*,*,#47,.F.);
#28=ORIENTED_EDGE('',*,*,#48,.T.);
#29=ORIENTED_EDGE('',*,*,#45,.F.);
#30=ORIENTED_EDGE('',*,*,#47,.T.);
#31=ORIENTED_EDGE('',*,*,#49,.F.);
#32=ORIENTED_EDGE('',*,*,#48,.F.);
#33=ORIENTED_EDGE('',*,*,#50,.F.);
#34=ORIENTED_EDGE('',*,*,#49,.T.);
#35=ORIENTED_EDGE('',*,*,#51,.F.);
#36=ORIENTED_EDGE('',*,*,#50,.T.);
#37=ORIENTED_EDGE('',*,*,#52,.F.);
#38=ORIENTED_EDGE('',*,*,#51,.T.);
#39=ORIENTED_EDGE('',*,*,#53,.F.);
#40=ORIENTED_EDGE('',*,*,#52,.T.);
#41=ORIENTED_EDGE('',*,*,#54,.F.);
#42=ORIENTED_EDGE('',*,*,#53,.T.);
#43=ORIENTED_EDGE('',*,*,#46,.F.);
#44=ORIENTED_EDGE('',*,*,#54,.T.);
#45=EDGE_CURVE('',#55,#55,#65,.T.);
#46=EDGE_CURVE('',#56,#56,#66,.T.);
#47=EDGE_CURVE('',#57,#57,#67,.T.);
#48=EDGE_CURVE('',#58,#58,#68,.T.);
#49=EDGE_CURVE('',#59,#59,#69,.T.);
#50=EDGE_CURVE('',#60,#60,#70,.T.);
#51=EDGE_CURVE('',#61,#61,#71,.T.);
#52=EDGE_CURVE('',#62,#62,#72,.T.);
#53=EDGE_CURVE('',#63,#63,#73,.T.);
#54=EDGE_CURVE('',#64,#64,#74,.T.);
#55=VERTEX_POINT('',#208);
#56=VERTEX_POINT('',#210);
#57=VERTEX_POINT('',#213);
#58=VERTEX_POINT('',#215);
#59=VERTEX_POINT('',#219);
#60=VERTEX_POINT('',#222);
#61=VERTEX_POINT('',#225);
#62=VERTEX_POINT('',#228);
#63=VERTEX_POINT('',#231);
#64=VERTEX_POINT('',#234);
#65=CIRCLE('',#144,7.9);
#66=CIRCLE('',#145,7.9);
#67=CIRCLE('',#147,12.075);
#68=CIRCLE('',#148,12.075);
#69=CIRCLE('',#151,9.175);
#70=CIRCLE('',#153,9.175);
#71=CIRCLE('',#155,5.65);
#72=CIRCLE('',#157,5.65);
#73=CIRCLE('',#159,3.85);
#74=CIRCLE('',#161,3.85);
#75=EDGE_LOOP('',(#25));
#76=EDGE_LOOP('',(#26));
#77=EDGE_LOOP('',(#27));
#78=EDGE_LOOP('',(#28));
#79=EDGE_LOOP('',(#29));
#80=EDGE_LOOP('',(#30));
#81=EDGE_LOOP('',(#31));
#82=EDGE_LOOP('',(#32));
#83=EDGE_LOOP('',(#33));
#84=EDGE_LOOP('',(#34));
#85=EDGE_LOOP('',(#35));
#86=EDGE_LOOP('',(#36));
#87=EDGE_LOOP('',(#37));
#88=EDGE_LOOP('',(#38));
#89=EDGE_LOOP('',(#39));
#90=EDGE_LOOP('',(#40));
#91=EDGE_LOOP('',(#41));
#92=EDGE_LOOP('',(#42));
#93=EDGE_LOOP('',(#43));
#94=EDGE_LOOP('',(#44));
#95=FACE_BOUND('',#75,.T.);
#96=FACE_BOUND('',#76,.T.);
#97=FACE_BOUND('',#77,.T.);
#98=FACE_BOUND('',#78,.T.);
#99=FACE_BOUND('',#79,.T.);
#100=FACE_BOUND('',#80,.T.);
#101=FACE_BOUND('',#81,.T.);
#102=FACE_BOUND('',#82,.T.);
#103=FACE_BOUND('',#83,.T.);
#104=FACE_BOUND('',#84,.T.);
#105=FACE_BOUND('',#85,.T.);
#106=FACE_BOUND('',#86,.T.);
#107=FACE_BOUND('',#87,.T.);
#108=FACE_BOUND('',#88,.T.);
#109=FACE_BOUND('',#89,.T.);
#110=FACE_BOUND('',#90,.T.);
#111=FACE_BOUND('',#91,.T.);
#112=FACE_BOUND('',#92,.T.);
#113=FACE_BOUND('',#93,.T.);
#114=FACE_BOUND('',#94,.T.);
#115=CYLINDRICAL_SURFACE('',#143,7.9);
#116=CYLINDRICAL_SURFACE('',#146,12.075);
#117=CYLINDRICAL_SURFACE('',#152,9.175);
#118=CYLINDRICAL_SURFACE('',#156,5.65);
#119=CYLINDRICAL_SURFACE('',#160,3.85);
#120=ADVANCED_FACE('',(#95,#96),#115,.F.);
#121=ADVANCED_FACE('',(#97,#98),#116,.T.);
#122=ADVANCED_FACE('',(#99,#100),#21,.T.);
#123=ADVANCED_FACE('',(#101,#102),#20,.T.);
#124=ADVANCED_FACE('',(#103,#104),#117,.T.);
#125=ADVANCED_FACE('',(#105,#106),#22,.F.);
#126=ADVANCED_FACE('',(#107,#108),#118,.T.);
#127=ADVANCED_FACE('',(#109,#110),#23,.F.);
#128=ADVANCED_FACE('',(#111,#112),#119,.F.);
#129=ADVANCED_FACE('',(#113,#114),#24,.F.);
#130=CLOSED_SHELL('',(#120,#121,#122,#123,#124,#125,#126,#127,#128,#129));
#131=STYLED_ITEM('',(#132),#139);
#132=PRESENTATION_STYLE_ASSIGNMENT((#133));
#133=SURFACE_STYLE_USAGE(.BOTH.,#134);
#134=SURFACE_SIDE_STYLE('',(#135));
#135=SURFACE_STYLE_FILL_AREA(#136);
#136=FILL_AREA_STYLE('',(#137));
#137=FILL_AREA_STYLE_COLOUR('',#138);
#138=COLOUR_RGB('',0.211764708161354,0.435451000928879,0.69803923368454);
#139=MANIFOLD_SOLID_BREP('',#130);
#140=SHAPE_DEFINITION_REPRESENTATION(#242,#141);
#141=SHAPE_REPRESENTATION('0029422',(#142),#237);
#142=AXIS2_PLACEMENT_3D('',#205,#163,#164);
#143=AXIS2_PLACEMENT_3D('',#206,#165,#166);
#144=AXIS2_PLACEMENT_3D('',#207,#167,#168);
#145=AXIS2_PLACEMENT_3D('',#209,#169,#170);
#146=AXIS2_PLACEMENT_3D('',#211,#171,#172);
#147=AXIS2_PLACEMENT_3D('',#212,#173,#174);
#148=AXIS2_PLACEMENT_3D('',#214,#175,#176);
#149=AXIS2_PLACEMENT_3D('',#216,#177,#178);
#150=AXIS2_PLACEMENT_3D('',#217,#179,#180);
#151=AXIS2_PLACEMENT_3D('',#218,#181,#182);
#152=AXIS2_PLACEMENT_3D('',#220,#183,#184);
#153=AXIS2_PLACEMENT_3D('',#221,#185,#186);
#154=AXIS2_PLACEMENT_3D('',#223,#187,#188);
#155=AXIS2_PLACEMENT_3D('',#224,#189,#190);
#156=AXIS2_PLACEMENT_3D('',#226,#191,#192);
#157=AXIS2_PLACEMENT_3D('',#227,#193,#194);
#158=AXIS2_PLACEMENT_3D('',#229,#195,#196);
#159=AXIS2_PLACEMENT_3D('',#230,#197,#198);
#160=AXIS2_PLACEMENT_3D('',#232,#199,#200);
#161=AXIS2_PLACEMENT_3D('',#233,#201,#202);
#162=AXIS2_PLACEMENT_3D('',#235,#203,#204);
#163=DIRECTION('',(0.,0.,1.));
#164=DIRECTION('',(1.,0.,0.));
#165=DIRECTION('',(-1.,0.,0.));
#166=DIRECTION('',(0.,0.,1.));
#167=DIRECTION('',(1.,-6.12303176911189E-17,0.));
#168=DIRECTION('',(6.12303176911189E-17,1.,0.));
#169=DIRECTION('',(-1.,0.,0.));
#170=DIRECTION('',(0.,0.,1.));
#171=DIRECTION('',(-1.,0.,0.));
#172=DIRECTION('',(0.,0.,1.));
#173=DIRECTION('',(1.,-6.12303176911189E-17,0.));
#174=DIRECTION('',(6.12303176911189E-17,1.,0.));
#175=DIRECTION('',(1.,-6.12303176911189E-17,0.));
#176=DIRECTION('',(6.12303176911189E-17,1.,0.));
#177=DIRECTION('',(1.,-6.12303176911189E-17,0.));
#178=DIRECTION('',(6.12303176911189E-17,1.,0.));
#179=DIRECTION('',(1.,0.,0.));
#180=DIRECTION('',(0.,0.,-1.));
#181=DIRECTION('',(-1.,0.,0.));
#182=DIRECTION('',(0.,0.,1.));
#183=DIRECTION('',(-1.,0.,0.));
#184=DIRECTION('',(0.,0.,1.));
#185=DIRECTION('',(-1.,0.,0.));
#186=DIRECTION('',(0.,0.,1.));
#187=DIRECTION('',(1.,0.,0.));
#188=DIRECTION('',(0.,0.,-1.));
#189=DIRECTION('',(-1.,0.,0.));
#190=DIRECTION('',(0.,0.,1.));
#191=DIRECTION('',(-1.,0.,0.));
#192=DIRECTION('',(0.,0.,1.));
#193=DIRECTION('',(-1.,0.,0.));
#194=DIRECTION('',(0.,0.,1.));
#195=DIRECTION('',(1.,0.,0.));
#196=DIRECTION('',(0.,0.,-1.));
#197=DIRECTION('',(-1.,0.,0.));
#198=DIRECTION('',(0.,0.,1.));
#199=DIRECTION('',(-1.,0.,0.));
#200=DIRECTION('',(0.,0.,1.));
#201=DIRECTION('',(-1.,0.,0.));
#202=DIRECTION('',(0.,0.,1.));
#203=DIRECTION('',(-1.,0.,0.));
#204=DIRECTION('',(0.,0.,1.));
#205=CARTESIAN_POINT('',(0.,0.,0.));
#206=CARTESIAN_POINT('',(42.,0.,-1.73472347597681E-15));
#207=CARTESIAN_POINT('',(42.,0.,-1.73472347597681E-15));
#208=CARTESIAN_POINT('',(42.,7.9,-1.73472347597681E-15));
#209=CARTESIAN_POINT('',(1.49999999999999,0.,0.));
#210=CARTESIAN_POINT('',(1.49999999999999,0.,7.9));
#211=CARTESIAN_POINT('',(42.,0.,3.67381906146713E-15));
#212=CARTESIAN_POINT('',(42.,0.,3.67381906146713E-15));
#213=CARTESIAN_POINT('',(42.,12.075,3.67381906146713E-15));
#214=CARTESIAN_POINT('',(0.,0.,3.67381906146713E-15));
#215=CARTESIAN_POINT('',(7.3935608612026E-16,12.075,3.67381906146713E-15));
#216=CARTESIAN_POINT('',(42.,0.,3.67381906146713E-15));
#217=CARTESIAN_POINT('',(0.,0.,0.));
#218=CARTESIAN_POINT('',(-8.25,0.,0.));
#219=CARTESIAN_POINT('',(-8.25,0.,9.175));
#220=CARTESIAN_POINT('',(-8.,0.,0.));
#221=CARTESIAN_POINT('',(-11.5,0.,0.));
#222=CARTESIAN_POINT('',(-11.5,0.,9.175));
#223=CARTESIAN_POINT('',(-11.5,0.,9.175));
#224=CARTESIAN_POINT('',(-11.5,0.,0.));
#225=CARTESIAN_POINT('',(-11.5,0.,5.65));
#226=CARTESIAN_POINT('',(-8.,0.,0.));
#227=CARTESIAN_POINT('',(-19.85,0.,0.));
#228=CARTESIAN_POINT('',(-19.85,0.,5.65));
#229=CARTESIAN_POINT('',(-19.85,0.,5.65));
#230=CARTESIAN_POINT('',(-19.85,0.,0.));
#231=CARTESIAN_POINT('',(-19.85,0.,3.85));
#232=CARTESIAN_POINT('',(-8.,0.,0.));
#233=CARTESIAN_POINT('',(1.49999999999999,0.,0.));
#234=CARTESIAN_POINT('',(1.49999999999999,0.,3.85));
#235=CARTESIAN_POINT('',(1.49999999999999,0.,7.9));
#236=MECHANICAL_DESIGN_GEOMETRIC_PRESENTATION_REPRESENTATION('',(#131),
#237);
#237=(
GEOMETRIC_REPRESENTATION_CONTEXT(3)
GLOBAL_UNCERTAINTY_ASSIGNED_CONTEXT((#238))
GLOBAL_UNIT_ASSIGNED_CONTEXT((#241,#240,#239))
REPRESENTATION_CONTEXT('0029422','TOP_LEVEL_ASSEMBLY_PART')
);
#238=UNCERTAINTY_MEASURE_WITH_UNIT(LENGTH_MEASURE(0.005),#241,
'DISTANCE_ACCURACY_VALUE','Maximum Tolerance applied to model');
#239=(
NAMED_UNIT(*)
SI_UNIT($,.STERADIAN.)
SOLID_ANGLE_UNIT()
);
#240=(
NAMED_UNIT(*)
PLANE_ANGLE_UNIT()
SI_UNIT($,.RADIAN.)
);
#241=(
LENGTH_UNIT()
NAMED_UNIT(*)
SI_UNIT(.MILLI.,.METRE.)
);
#242=PRODUCT_DEFINITION_SHAPE('','',#243);
#243=PRODUCT_DEFINITION('','',#245,#244);
#244=PRODUCT_DEFINITION_CONTEXT('',#251,'design');
#245=PRODUCT_DEFINITION_FORMATION_WITH_SPECIFIED_SOURCE('','',#247,
 .NOT_KNOWN.);
#246=PRODUCT_RELATED_PRODUCT_CATEGORY('','',(#247));
#247=PRODUCT('0029422','0029422','0029422',(#249));
#248=PRODUCT_CATEGORY('','');
#249=PRODUCT_CONTEXT('',#251,'mechanical');
#250=APPLICATION_PROTOCOL_DEFINITION('international standard',
'automotive_design',2010,#251);
#251=APPLICATION_CONTEXT(
'core data for automotive mechanical design processes');
ENDSEC;
END-ISO-10303-21;
