ISO-10303-21;
HEADER;
FILE_DESCRIPTION(
/* description */ (''),
/* implementation_level */ '2;1');
FILE_NAME(
/* name */ '261220850.stp',
/* time_stamp */ '2021-01-19T15:09:50',
/* author */ ('LRA'),
/* organization */ ('REGO-FIX'),
/* preprocessor_version */ ' Unknown',
/* originating_system */ 'SIEMENS PLM Software Solid Edge ST10',
/* authorization */ 'Unknown');
FILE_SCHEMA (('AUTOMOTIVE_DESIGN { 1 0 10303 214 2 1 1}'));
ENDSEC;
DATA;
#10=PROPERTY_DEFINITION_REPRESENTATION(#14,#12);
#11=PROPERTY_DEFINITION_REPRESENTATION(#15,#13);
#12=REPRESENTATION('',(#16),#716);
#13=REPRESENTATION('',(#17),#716);
#14=PROPERTY_DEFINITION('pmi validation property','',#721);
#15=PROPERTY_DEFINITION('pmi validation property','',#721);
#16=VALUE_REPRESENTATION_ITEM('number of annotations',COUNT_MEASURE(0.));
#17=VALUE_REPRESENTATION_ITEM('number of views',COUNT_MEASURE(0.));
#18=SHAPE_REPRESENTATION_RELATIONSHIP('','',#484,#19);
#19=ADVANCED_BREP_SHAPE_REPRESENTATION('',(#482),#716);
#20=TOROIDAL_SURFACE('',#515,4.44869745237835,0.5);
#21=TOROIDAL_SURFACE('',#524,3.55,0.8);
#22=TOROIDAL_SURFACE('',#531,5.8,0.8);
#23=CONICAL_SURFACE('',#504,5.,0.785398163397448);
#24=CONICAL_SURFACE('',#505,5.,0.785398163397448);
#25=CONICAL_SURFACE('',#513,2.6,0.139626340159547);
#26=CONICAL_SURFACE('',#516,2.6,1.02974425867665);
#27=CONICAL_SURFACE('',#523,5.15,0.785398163397446);
#28=CONICAL_SURFACE('',#528,2.75,1.0471975511966);
#29=PLANE('',#501);
#30=PLANE('',#507);
#31=PLANE('',#517);
#32=PLANE('',#518);
#33=PLANE('',#519);
#34=PLANE('',#520);
#35=PLANE('',#521);
#36=PLANE('',#522);
#37=LINE('',#646,#45);
#38=LINE('',#650,#46);
#39=LINE('',#653,#47);
#40=LINE('',#658,#48);
#41=LINE('',#694,#49);
#42=LINE('',#696,#50);
#43=LINE('',#699,#51);
#44=LINE('',#701,#52);
#45=VECTOR('',#546,1000.);
#46=VECTOR('',#549,1000.);
#47=VECTOR('',#552,1000.);
#48=VECTOR('',#555,1000.);
#49=VECTOR('',#602,1000.);
#50=VECTOR('',#605,1000.);
#51=VECTOR('',#610,1000.);
#52=VECTOR('',#613,1000.);
#53=ELLIPSE('',#491,8.48528137423856,5.99999999999999);
#54=ELLIPSE('',#492,8.48528137423856,5.99999999999999);
#55=ELLIPSE('',#494,8.48528137423854,5.99999999999999);
#56=ELLIPSE('',#495,8.48528137423855,5.99999999999999);
#57=ORIENTED_EDGE('',*,*,#117,.F.);
#58=ORIENTED_EDGE('',*,*,#118,.T.);
#59=ORIENTED_EDGE('',*,*,#119,.T.);
#60=ORIENTED_EDGE('',*,*,#120,.F.);
#61=ORIENTED_EDGE('',*,*,#121,.T.);
#62=ORIENTED_EDGE('',*,*,#122,.F.);
#63=ORIENTED_EDGE('',*,*,#123,.F.);
#64=ORIENTED_EDGE('',*,*,#124,.T.);
#65=ORIENTED_EDGE('',*,*,#125,.F.);
#66=ORIENTED_EDGE('',*,*,#126,.T.);
#67=ORIENTED_EDGE('',*,*,#127,.T.);
#68=ORIENTED_EDGE('',*,*,#128,.T.);
#69=ORIENTED_EDGE('',*,*,#129,.T.);
#70=ORIENTED_EDGE('',*,*,#130,.F.);
#71=ORIENTED_EDGE('',*,*,#131,.T.);
#72=ORIENTED_EDGE('',*,*,#130,.T.);
#73=ORIENTED_EDGE('',*,*,#132,.T.);
#74=ORIENTED_EDGE('',*,*,#133,.T.);
#75=ORIENTED_EDGE('',*,*,#133,.F.);
#76=ORIENTED_EDGE('',*,*,#131,.F.);
#77=ORIENTED_EDGE('',*,*,#134,.T.);
#78=ORIENTED_EDGE('',*,*,#124,.F.);
#79=ORIENTED_EDGE('',*,*,#135,.F.);
#80=ORIENTED_EDGE('',*,*,#136,.T.);
#81=ORIENTED_EDGE('',*,*,#137,.F.);
#82=ORIENTED_EDGE('',*,*,#138,.T.);
#83=ORIENTED_EDGE('',*,*,#139,.F.);
#84=ORIENTED_EDGE('',*,*,#137,.T.);
#85=ORIENTED_EDGE('',*,*,#132,.F.);
#86=ORIENTED_EDGE('',*,*,#139,.T.);
#87=ORIENTED_EDGE('',*,*,#117,.T.);
#88=ORIENTED_EDGE('',*,*,#138,.F.);
#89=ORIENTED_EDGE('',*,*,#120,.T.);
#90=ORIENTED_EDGE('',*,*,#140,.T.);
#91=ORIENTED_EDGE('',*,*,#123,.T.);
#92=ORIENTED_EDGE('',*,*,#141,.T.);
#93=ORIENTED_EDGE('',*,*,#121,.F.);
#94=ORIENTED_EDGE('',*,*,#140,.F.);
#95=ORIENTED_EDGE('',*,*,#122,.T.);
#96=ORIENTED_EDGE('',*,*,#141,.F.);
#97=ORIENTED_EDGE('',*,*,#126,.F.);
#98=ORIENTED_EDGE('',*,*,#142,.F.);
#99=ORIENTED_EDGE('',*,*,#142,.T.);
#100=ORIENTED_EDGE('',*,*,#125,.T.);
#101=ORIENTED_EDGE('',*,*,#143,.F.);
#102=ORIENTED_EDGE('',*,*,#127,.F.);
#103=ORIENTED_EDGE('',*,*,#143,.T.);
#104=ORIENTED_EDGE('',*,*,#128,.F.);
#105=ORIENTED_EDGE('',*,*,#119,.F.);
#106=ORIENTED_EDGE('',*,*,#136,.F.);
#107=ORIENTED_EDGE('',*,*,#144,.F.);
#108=ORIENTED_EDGE('',*,*,#135,.T.);
#109=ORIENTED_EDGE('',*,*,#145,.F.);
#110=ORIENTED_EDGE('',*,*,#144,.T.);
#111=ORIENTED_EDGE('',*,*,#146,.T.);
#112=ORIENTED_EDGE('',*,*,#145,.T.);
#113=ORIENTED_EDGE('',*,*,#118,.F.);
#114=ORIENTED_EDGE('',*,*,#146,.F.);
#115=ORIENTED_EDGE('',*,*,#129,.F.);
#116=ORIENTED_EDGE('',*,*,#134,.F.);
#117=EDGE_CURVE('',#147,#147,#173,.F.);
#118=EDGE_CURVE('',#148,#148,#174,.T.);
#119=EDGE_CURVE('',#149,#149,#175,.T.);
#120=EDGE_CURVE('',#150,#151,#53,.T.);
#121=EDGE_CURVE('',#150,#152,#37,.T.);
#122=EDGE_CURVE('',#153,#152,#54,.T.);
#123=EDGE_CURVE('',#151,#153,#38,.T.);
#124=EDGE_CURVE('',#154,#154,#176,.T.);
#125=EDGE_CURVE('',#155,#156,#39,.T.);
#126=EDGE_CURVE('',#155,#157,#55,.T.);
#127=EDGE_CURVE('',#157,#158,#40,.T.);
#128=EDGE_CURVE('',#158,#156,#56,.T.);
#129=EDGE_CURVE('',#159,#159,#177,.F.);
#130=EDGE_CURVE('',#160,#160,#178,.T.);
#131=EDGE_CURVE('',#161,#161,#179,.T.);
#132=EDGE_CURVE('',#162,#162,#180,.T.);
#133=EDGE_CURVE('',#163,#163,#181,.F.);
#134=EDGE_CURVE('',#164,#164,#182,.T.);
#135=EDGE_CURVE('',#165,#165,#183,.T.);
#136=EDGE_CURVE('',#166,#166,#184,.F.);
#137=EDGE_CURVE('',#167,#167,#185,.T.);
#138=EDGE_CURVE('',#168,#168,#186,.T.);
#139=EDGE_CURVE('',#169,#169,#187,.T.);
#140=EDGE_CURVE('',#151,#150,#41,.T.);
#141=EDGE_CURVE('',#153,#152,#42,.T.);
#142=EDGE_CURVE('',#157,#155,#43,.T.);
#143=EDGE_CURVE('',#158,#156,#44,.T.);
#144=EDGE_CURVE('',#170,#170,#188,.T.);
#145=EDGE_CURVE('',#171,#171,#189,.T.);
#146=EDGE_CURVE('',#172,#172,#190,.F.);
#147=VERTEX_POINT('',#637);
#148=VERTEX_POINT('',#639);
#149=VERTEX_POINT('',#642);
#150=VERTEX_POINT('',#644);
#151=VERTEX_POINT('',#645);
#152=VERTEX_POINT('',#647);
#153=VERTEX_POINT('',#649);
#154=VERTEX_POINT('',#652);
#155=VERTEX_POINT('',#654);
#156=VERTEX_POINT('',#655);
#157=VERTEX_POINT('',#657);
#158=VERTEX_POINT('',#659);
#159=VERTEX_POINT('',#663);
#160=VERTEX_POINT('',#665);
#161=VERTEX_POINT('',#668);
#162=VERTEX_POINT('',#671);
#163=VERTEX_POINT('',#673);
#164=VERTEX_POINT('',#677);
#165=VERTEX_POINT('',#680);
#166=VERTEX_POINT('',#682);
#167=VERTEX_POINT('',#685);
#168=VERTEX_POINT('',#687);
#169=VERTEX_POINT('',#690);
#170=VERTEX_POINT('',#706);
#171=VERTEX_POINT('',#709);
#172=VERTEX_POINT('',#712);
#173=CIRCLE('',#487,2.067);
#174=CIRCLE('',#488,2.067);
#175=CIRCLE('',#490,5.99999999999999);
#176=CIRCLE('',#493,6.);
#177=CIRCLE('',#497,5.);
#178=CIRCLE('',#498,5.);
#179=CIRCLE('',#500,5.);
#180=CIRCLE('',#502,4.14869745237835);
#181=CIRCLE('',#503,4.5);
#182=CIRCLE('',#506,5.23431457505076);
#183=CIRCLE('',#508,3.55);
#184=CIRCLE('',#509,5.15);
#185=CIRCLE('',#511,2.6);
#186=CIRCLE('',#512,2.6);
#187=CIRCLE('',#514,3.95356341800757);
#188=CIRCLE('',#525,2.75);
#189=CIRCLE('',#527,2.75);
#190=CIRCLE('',#529,2.067);
#191=EDGE_LOOP('',(#57));
#192=EDGE_LOOP('',(#58));
#193=EDGE_LOOP('',(#59));
#194=EDGE_LOOP('',(#60,#61,#62,#63));
#195=EDGE_LOOP('',(#64));
#196=EDGE_LOOP('',(#65,#66,#67,#68));
#197=EDGE_LOOP('',(#69));
#198=EDGE_LOOP('',(#70));
#199=EDGE_LOOP('',(#71));
#200=EDGE_LOOP('',(#72));
#201=EDGE_LOOP('',(#73));
#202=EDGE_LOOP('',(#74));
#203=EDGE_LOOP('',(#75));
#204=EDGE_LOOP('',(#76));
#205=EDGE_LOOP('',(#77));
#206=EDGE_LOOP('',(#78));
#207=EDGE_LOOP('',(#79));
#208=EDGE_LOOP('',(#80));
#209=EDGE_LOOP('',(#81));
#210=EDGE_LOOP('',(#82));
#211=EDGE_LOOP('',(#83));
#212=EDGE_LOOP('',(#84));
#213=EDGE_LOOP('',(#85));
#214=EDGE_LOOP('',(#86));
#215=EDGE_LOOP('',(#87));
#216=EDGE_LOOP('',(#88));
#217=EDGE_LOOP('',(#89,#90));
#218=EDGE_LOOP('',(#91,#92,#93,#94));
#219=EDGE_LOOP('',(#95,#96));
#220=EDGE_LOOP('',(#97,#98));
#221=EDGE_LOOP('',(#99,#100,#101,#102));
#222=EDGE_LOOP('',(#103,#104));
#223=EDGE_LOOP('',(#105));
#224=EDGE_LOOP('',(#106));
#225=EDGE_LOOP('',(#107));
#226=EDGE_LOOP('',(#108));
#227=EDGE_LOOP('',(#109));
#228=EDGE_LOOP('',(#110));
#229=EDGE_LOOP('',(#111));
#230=EDGE_LOOP('',(#112));
#231=EDGE_LOOP('',(#113));
#232=EDGE_LOOP('',(#114));
#233=EDGE_LOOP('',(#115));
#234=EDGE_LOOP('',(#116));
#235=FACE_BOUND('',#191,.T.);
#236=FACE_BOUND('',#192,.T.);
#237=FACE_BOUND('',#193,.T.);
#238=FACE_BOUND('',#194,.T.);
#239=FACE_BOUND('',#195,.T.);
#240=FACE_BOUND('',#196,.T.);
#241=FACE_BOUND('',#197,.T.);
#242=FACE_BOUND('',#198,.T.);
#243=FACE_BOUND('',#199,.T.);
#244=FACE_BOUND('',#200,.T.);
#245=FACE_BOUND('',#201,.T.);
#246=FACE_BOUND('',#202,.T.);
#247=FACE_BOUND('',#203,.T.);
#248=FACE_BOUND('',#204,.T.);
#249=FACE_BOUND('',#205,.T.);
#250=FACE_BOUND('',#206,.T.);
#251=FACE_BOUND('',#207,.T.);
#252=FACE_BOUND('',#208,.T.);
#253=FACE_BOUND('',#209,.T.);
#254=FACE_BOUND('',#210,.T.);
#255=FACE_BOUND('',#211,.T.);
#256=FACE_BOUND('',#212,.T.);
#257=FACE_BOUND('',#213,.T.);
#258=FACE_BOUND('',#214,.T.);
#259=FACE_BOUND('',#215,.T.);
#260=FACE_BOUND('',#216,.T.);
#261=FACE_BOUND('',#217,.T.);
#262=FACE_BOUND('',#218,.T.);
#263=FACE_BOUND('',#219,.T.);
#264=FACE_BOUND('',#220,.T.);
#265=FACE_BOUND('',#221,.T.);
#266=FACE_BOUND('',#222,.T.);
#267=FACE_BOUND('',#223,.T.);
#268=FACE_BOUND('',#224,.T.);
#269=FACE_BOUND('',#225,.T.);
#270=FACE_BOUND('',#226,.T.);
#271=FACE_BOUND('',#227,.T.);
#272=FACE_BOUND('',#228,.T.);
#273=FACE_BOUND('',#229,.T.);
#274=FACE_BOUND('',#230,.T.);
#275=FACE_BOUND('',#231,.T.);
#276=FACE_BOUND('',#232,.T.);
#277=FACE_BOUND('',#233,.T.);
#278=FACE_BOUND('',#234,.T.);
#279=CYLINDRICAL_SURFACE('',#486,2.067);
#280=CYLINDRICAL_SURFACE('',#489,5.99999999999999);
#281=CYLINDRICAL_SURFACE('',#496,5.);
#282=CYLINDRICAL_SURFACE('',#499,5.);
#283=CYLINDRICAL_SURFACE('',#510,2.6);
#284=CYLINDRICAL_SURFACE('',#526,2.75);
#285=CYLINDRICAL_SURFACE('',#530,2.067);
#286=STYLED_ITEM('',(#310),#457);
#287=STYLED_ITEM('',(#311),#458);
#288=STYLED_ITEM('',(#312),#459);
#289=STYLED_ITEM('',(#313),#460);
#290=STYLED_ITEM('',(#314),#461);
#291=STYLED_ITEM('',(#315),#462);
#292=STYLED_ITEM('',(#316),#463);
#293=STYLED_ITEM('',(#317),#464);
#294=STYLED_ITEM('',(#318),#465);
#295=STYLED_ITEM('',(#319),#466);
#296=STYLED_ITEM('',(#320),#467);
#297=STYLED_ITEM('',(#321),#468);
#298=STYLED_ITEM('',(#322),#469);
#299=STYLED_ITEM('',(#323),#470);
#300=STYLED_ITEM('',(#324),#471);
#301=STYLED_ITEM('',(#325),#472);
#302=STYLED_ITEM('',(#326),#473);
#303=STYLED_ITEM('',(#327),#474);
#304=STYLED_ITEM('',(#328),#475);
#305=STYLED_ITEM('',(#329),#476);
#306=STYLED_ITEM('',(#330),#477);
#307=STYLED_ITEM('',(#331),#478);
#308=STYLED_ITEM('',(#332),#479);
#309=STYLED_ITEM('',(#333),#480);
#310=PRESENTATION_STYLE_ASSIGNMENT((#334));
#311=PRESENTATION_STYLE_ASSIGNMENT((#335));
#312=PRESENTATION_STYLE_ASSIGNMENT((#336));
#313=PRESENTATION_STYLE_ASSIGNMENT((#337));
#314=PRESENTATION_STYLE_ASSIGNMENT((#338));
#315=PRESENTATION_STYLE_ASSIGNMENT((#339));
#316=PRESENTATION_STYLE_ASSIGNMENT((#340));
#317=PRESENTATION_STYLE_ASSIGNMENT((#341));
#318=PRESENTATION_STYLE_ASSIGNMENT((#342));
#319=PRESENTATION_STYLE_ASSIGNMENT((#343));
#320=PRESENTATION_STYLE_ASSIGNMENT((#344));
#321=PRESENTATION_STYLE_ASSIGNMENT((#345));
#322=PRESENTATION_STYLE_ASSIGNMENT((#346));
#323=PRESENTATION_STYLE_ASSIGNMENT((#347));
#324=PRESENTATION_STYLE_ASSIGNMENT((#348));
#325=PRESENTATION_STYLE_ASSIGNMENT((#349));
#326=PRESENTATION_STYLE_ASSIGNMENT((#350));
#327=PRESENTATION_STYLE_ASSIGNMENT((#351));
#328=PRESENTATION_STYLE_ASSIGNMENT((#352));
#329=PRESENTATION_STYLE_ASSIGNMENT((#353));
#330=PRESENTATION_STYLE_ASSIGNMENT((#354));
#331=PRESENTATION_STYLE_ASSIGNMENT((#355));
#332=PRESENTATION_STYLE_ASSIGNMENT((#356));
#333=PRESENTATION_STYLE_ASSIGNMENT((#357));
#334=SURFACE_STYLE_USAGE(.BOTH.,#358);
#335=SURFACE_STYLE_USAGE(.BOTH.,#359);
#336=SURFACE_STYLE_USAGE(.BOTH.,#360);
#337=SURFACE_STYLE_USAGE(.BOTH.,#361);
#338=SURFACE_STYLE_USAGE(.BOTH.,#362);
#339=SURFACE_STYLE_USAGE(.BOTH.,#363);
#340=SURFACE_STYLE_USAGE(.BOTH.,#364);
#341=SURFACE_STYLE_USAGE(.BOTH.,#365);
#342=SURFACE_STYLE_USAGE(.BOTH.,#366);
#343=SURFACE_STYLE_USAGE(.BOTH.,#367);
#344=SURFACE_STYLE_USAGE(.BOTH.,#368);
#345=SURFACE_STYLE_USAGE(.BOTH.,#369);
#346=SURFACE_STYLE_USAGE(.BOTH.,#370);
#347=SURFACE_STYLE_USAGE(.BOTH.,#371);
#348=SURFACE_STYLE_USAGE(.BOTH.,#372);
#349=SURFACE_STYLE_USAGE(.BOTH.,#373);
#350=SURFACE_STYLE_USAGE(.BOTH.,#374);
#351=SURFACE_STYLE_USAGE(.BOTH.,#375);
#352=SURFACE_STYLE_USAGE(.BOTH.,#376);
#353=SURFACE_STYLE_USAGE(.BOTH.,#377);
#354=SURFACE_STYLE_USAGE(.BOTH.,#378);
#355=SURFACE_STYLE_USAGE(.BOTH.,#379);
#356=SURFACE_STYLE_USAGE(.BOTH.,#380);
#357=SURFACE_STYLE_USAGE(.BOTH.,#381);
#358=SURFACE_SIDE_STYLE('',(#382));
#359=SURFACE_SIDE_STYLE('',(#383));
#360=SURFACE_SIDE_STYLE('',(#384));
#361=SURFACE_SIDE_STYLE('',(#385));
#362=SURFACE_SIDE_STYLE('',(#386));
#363=SURFACE_SIDE_STYLE('',(#387));
#364=SURFACE_SIDE_STYLE('',(#388));
#365=SURFACE_SIDE_STYLE('',(#389));
#366=SURFACE_SIDE_STYLE('',(#390));
#367=SURFACE_SIDE_STYLE('',(#391));
#368=SURFACE_SIDE_STYLE('',(#392));
#369=SURFACE_SIDE_STYLE('',(#393));
#370=SURFACE_SIDE_STYLE('',(#394));
#371=SURFACE_SIDE_STYLE('',(#395));
#372=SURFACE_SIDE_STYLE('',(#396));
#373=SURFACE_SIDE_STYLE('',(#397));
#374=SURFACE_SIDE_STYLE('',(#398));
#375=SURFACE_SIDE_STYLE('',(#399));
#376=SURFACE_SIDE_STYLE('',(#400));
#377=SURFACE_SIDE_STYLE('',(#401));
#378=SURFACE_SIDE_STYLE('',(#402));
#379=SURFACE_SIDE_STYLE('',(#403));
#380=SURFACE_SIDE_STYLE('',(#404));
#381=SURFACE_SIDE_STYLE('',(#405));
#382=SURFACE_STYLE_FILL_AREA(#406);
#383=SURFACE_STYLE_FILL_AREA(#407);
#384=SURFACE_STYLE_FILL_AREA(#408);
#385=SURFACE_STYLE_FILL_AREA(#409);
#386=SURFACE_STYLE_FILL_AREA(#410);
#387=SURFACE_STYLE_FILL_AREA(#411);
#388=SURFACE_STYLE_FILL_AREA(#412);
#389=SURFACE_STYLE_FILL_AREA(#413);
#390=SURFACE_STYLE_FILL_AREA(#414);
#391=SURFACE_STYLE_FILL_AREA(#415);
#392=SURFACE_STYLE_FILL_AREA(#416);
#393=SURFACE_STYLE_FILL_AREA(#417);
#394=SURFACE_STYLE_FILL_AREA(#418);
#395=SURFACE_STYLE_FILL_AREA(#419);
#396=SURFACE_STYLE_FILL_AREA(#420);
#397=SURFACE_STYLE_FILL_AREA(#421);
#398=SURFACE_STYLE_FILL_AREA(#422);
#399=SURFACE_STYLE_FILL_AREA(#423);
#400=SURFACE_STYLE_FILL_AREA(#424);
#401=SURFACE_STYLE_FILL_AREA(#425);
#402=SURFACE_STYLE_FILL_AREA(#426);
#403=SURFACE_STYLE_FILL_AREA(#427);
#404=SURFACE_STYLE_FILL_AREA(#428);
#405=SURFACE_STYLE_FILL_AREA(#429);
#406=FILL_AREA_STYLE('',(#430));
#407=FILL_AREA_STYLE('',(#431));
#408=FILL_AREA_STYLE('',(#432));
#409=FILL_AREA_STYLE('',(#433));
#410=FILL_AREA_STYLE('',(#434));
#411=FILL_AREA_STYLE('',(#435));
#412=FILL_AREA_STYLE('',(#436));
#413=FILL_AREA_STYLE('',(#437));
#414=FILL_AREA_STYLE('',(#438));
#415=FILL_AREA_STYLE('',(#439));
#416=FILL_AREA_STYLE('',(#440));
#417=FILL_AREA_STYLE('',(#441));
#418=FILL_AREA_STYLE('',(#442));
#419=FILL_AREA_STYLE('',(#443));
#420=FILL_AREA_STYLE('',(#444));
#421=FILL_AREA_STYLE('',(#445));
#422=FILL_AREA_STYLE('',(#446));
#423=FILL_AREA_STYLE('',(#447));
#424=FILL_AREA_STYLE('',(#448));
#425=FILL_AREA_STYLE('',(#449));
#426=FILL_AREA_STYLE('',(#450));
#427=FILL_AREA_STYLE('',(#451));
#428=FILL_AREA_STYLE('',(#452));
#429=FILL_AREA_STYLE('',(#453));
#430=FILL_AREA_STYLE_COLOUR('',#454);
#431=FILL_AREA_STYLE_COLOUR('',#454);
#432=FILL_AREA_STYLE_COLOUR('',#455);
#433=FILL_AREA_STYLE_COLOUR('',#456);
#434=FILL_AREA_STYLE_COLOUR('',#455);
#435=FILL_AREA_STYLE_COLOUR('',#455);
#436=FILL_AREA_STYLE_COLOUR('',#454);
#437=FILL_AREA_STYLE_COLOUR('',#454);
#438=FILL_AREA_STYLE_COLOUR('',#454);
#439=FILL_AREA_STYLE_COLOUR('',#455);
#440=FILL_AREA_STYLE_COLOUR('',#455);
#441=FILL_AREA_STYLE_COLOUR('',#454);
#442=FILL_AREA_STYLE_COLOUR('',#454);
#443=FILL_AREA_STYLE_COLOUR('',#454);
#444=FILL_AREA_STYLE_COLOUR('',#454);
#445=FILL_AREA_STYLE_COLOUR('',#454);
#446=FILL_AREA_STYLE_COLOUR('',#454);
#447=FILL_AREA_STYLE_COLOUR('',#454);
#448=FILL_AREA_STYLE_COLOUR('',#454);
#449=FILL_AREA_STYLE_COLOUR('',#455);
#450=FILL_AREA_STYLE_COLOUR('',#455);
#451=FILL_AREA_STYLE_COLOUR('',#455);
#452=FILL_AREA_STYLE_COLOUR('',#456);
#453=FILL_AREA_STYLE_COLOUR('',#454);
#454=COLOUR_RGB( ' ', 0.5, 0.5, 0.5 );
#455=COLOUR_RGB( ' ', 0.5, 0.5, 0.5 );
#456=COLOUR_RGB( ' ', 0.5, 0.5, 0.5 );
#457=ADVANCED_FACE('',(#235,#236),#279,.F.);
#458=ADVANCED_FACE('',(#237,#238,#239,#240),#280,.T.);
#459=ADVANCED_FACE('',(#241,#242),#281,.T.);
#460=ADVANCED_FACE('',(#243,#244),#282,.T.);
#461=ADVANCED_FACE('',(#245,#246),#29,.F.);
#462=ADVANCED_FACE('',(#247,#248),#23,.T.);
#463=ADVANCED_FACE('',(#249,#250),#24,.T.);
#464=ADVANCED_FACE('',(#251,#252),#30,.F.);
#465=ADVANCED_FACE('',(#253,#254),#283,.F.);
#466=ADVANCED_FACE('',(#255,#256),#25,.F.);
#467=ADVANCED_FACE('',(#257,#258),#20,.T.);
#468=ADVANCED_FACE('',(#259,#260),#26,.F.);
#469=ADVANCED_FACE('',(#261),#31,.T.);
#470=ADVANCED_FACE('',(#262),#32,.T.);
#471=ADVANCED_FACE('',(#263),#33,.T.);
#472=ADVANCED_FACE('',(#264),#34,.F.);
#473=ADVANCED_FACE('',(#265),#35,.F.);
#474=ADVANCED_FACE('',(#266),#36,.F.);
#475=ADVANCED_FACE('',(#267,#268),#27,.T.);
#476=ADVANCED_FACE('',(#269,#270),#21,.T.);
#477=ADVANCED_FACE('',(#271,#272),#284,.F.);
#478=ADVANCED_FACE('',(#273,#274),#28,.F.);
#479=ADVANCED_FACE('',(#275,#276),#285,.F.);
#480=ADVANCED_FACE('',(#277,#278),#22,.F.);
#481=CLOSED_SHELL('',(#457,#458,#459,#460,#461,#462,#463,#464,#465,#466,
#467,#468,#469,#470,#471,#472,#473,#474,#475,#476,#477,#478,#479,#480));
#482=MANIFOLD_SOLID_BREP('NOCUT',#481);
#483=SHAPE_DEFINITION_REPRESENTATION(#721,#484);
#484=SHAPE_REPRESENTATION('261220850',(#485),#716);
#485=AXIS2_PLACEMENT_3D('',#634,#532,#533);
#486=AXIS2_PLACEMENT_3D('',#635,#534,#535);
#487=AXIS2_PLACEMENT_3D('',#636,#536,#537);
#488=AXIS2_PLACEMENT_3D('',#638,#538,#539);
#489=AXIS2_PLACEMENT_3D('',#640,#540,#541);
#490=AXIS2_PLACEMENT_3D('',#641,#542,#543);
#491=AXIS2_PLACEMENT_3D('',#643,#544,#545);
#492=AXIS2_PLACEMENT_3D('',#648,#547,#548);
#493=AXIS2_PLACEMENT_3D('',#651,#550,#551);
#494=AXIS2_PLACEMENT_3D('',#656,#553,#554);
#495=AXIS2_PLACEMENT_3D('',#660,#556,#557);
#496=AXIS2_PLACEMENT_3D('',#661,#558,#559);
#497=AXIS2_PLACEMENT_3D('',#662,#560,#561);
#498=AXIS2_PLACEMENT_3D('',#664,#562,#563);
#499=AXIS2_PLACEMENT_3D('',#666,#564,#565);
#500=AXIS2_PLACEMENT_3D('',#667,#566,#567);
#501=AXIS2_PLACEMENT_3D('',#669,#568,#569);
#502=AXIS2_PLACEMENT_3D('',#670,#570,#571);
#503=AXIS2_PLACEMENT_3D('',#672,#572,#573);
#504=AXIS2_PLACEMENT_3D('',#674,#574,#575);
#505=AXIS2_PLACEMENT_3D('',#675,#576,#577);
#506=AXIS2_PLACEMENT_3D('',#676,#578,#579);
#507=AXIS2_PLACEMENT_3D('',#678,#580,#581);
#508=AXIS2_PLACEMENT_3D('',#679,#582,#583);
#509=AXIS2_PLACEMENT_3D('',#681,#584,#585);
#510=AXIS2_PLACEMENT_3D('',#683,#586,#587);
#511=AXIS2_PLACEMENT_3D('',#684,#588,#589);
#512=AXIS2_PLACEMENT_3D('',#686,#590,#591);
#513=AXIS2_PLACEMENT_3D('',#688,#592,#593);
#514=AXIS2_PLACEMENT_3D('',#689,#594,#595);
#515=AXIS2_PLACEMENT_3D('',#691,#596,#597);
#516=AXIS2_PLACEMENT_3D('',#692,#598,#599);
#517=AXIS2_PLACEMENT_3D('',#693,#600,#601);
#518=AXIS2_PLACEMENT_3D('',#695,#603,#604);
#519=AXIS2_PLACEMENT_3D('',#697,#606,#607);
#520=AXIS2_PLACEMENT_3D('',#698,#608,#609);
#521=AXIS2_PLACEMENT_3D('',#700,#611,#612);
#522=AXIS2_PLACEMENT_3D('',#702,#614,#615);
#523=AXIS2_PLACEMENT_3D('',#703,#616,#617);
#524=AXIS2_PLACEMENT_3D('',#704,#618,#619);
#525=AXIS2_PLACEMENT_3D('',#705,#620,#621);
#526=AXIS2_PLACEMENT_3D('',#707,#622,#623);
#527=AXIS2_PLACEMENT_3D('',#708,#624,#625);
#528=AXIS2_PLACEMENT_3D('',#710,#626,#627);
#529=AXIS2_PLACEMENT_3D('',#711,#628,#629);
#530=AXIS2_PLACEMENT_3D('',#713,#630,#631);
#531=AXIS2_PLACEMENT_3D('',#714,#632,#633);
#532=DIRECTION('',(0.,0.,1.));
#533=DIRECTION('',(1.,0.,0.));
#534=DIRECTION('',(0.,0.,1.));
#535=DIRECTION('',(1.,0.,0.));
#536=DIRECTION('',(0.,0.,-1.));
#537=DIRECTION('',(-1.,0.,0.));
#538=DIRECTION('',(0.,0.,1.));
#539=DIRECTION('',(1.,0.,0.));
#540=DIRECTION('',(0.,0.,1.));
#541=DIRECTION('',(1.,0.,0.));
#542=DIRECTION('',(0.,0.,-1.));
#543=DIRECTION('',(-1.,0.,0.));
#544=DIRECTION('',(-0.707106781186547,0.,0.707106781186548));
#545=DIRECTION('',(0.707106781186548,0.,0.707106781186547));
#546=DIRECTION('',(0.,0.,1.));
#547=DIRECTION('',(-0.707106781186547,0.,-0.707106781186547));
#548=DIRECTION('',(-0.707106781186548,0.,0.707106781186548));
#549=DIRECTION('',(0.,0.,1.));
#550=DIRECTION('',(0.,0.,1.));
#551=DIRECTION('',(1.,0.,0.));
#552=DIRECTION('',(0.,0.,1.));
#553=DIRECTION('',(-0.707106781186546,0.,-0.707106781186549));
#554=DIRECTION('',(-0.707106781186549,0.,0.707106781186546));
#555=DIRECTION('',(0.,0.,1.));
#556=DIRECTION('',(-0.707106781186547,0.,0.707106781186548));
#557=DIRECTION('',(0.707106781186548,0.,0.707106781186547));
#558=DIRECTION('',(0.,0.,1.));
#559=DIRECTION('',(1.,0.,0.));
#560=DIRECTION('',(0.,0.,1.));
#561=DIRECTION('',(1.,0.,0.));
#562=DIRECTION('',(0.,0.,-1.));
#563=DIRECTION('',(1.,0.,0.));
#564=DIRECTION('',(0.,0.,1.));
#565=DIRECTION('',(1.,0.,0.));
#566=DIRECTION('',(0.,0.,1.));
#567=DIRECTION('',(1.,0.,0.));
#568=DIRECTION('',(0.,0.,1.));
#569=DIRECTION('',(1.,0.,0.));
#570=DIRECTION('',(0.,0.,1.));
#571=DIRECTION('',(1.,0.,0.));
#572=DIRECTION('',(0.,0.,1.));
#573=DIRECTION('',(1.,0.,0.));
#574=DIRECTION('',(0.,0.,1.));
#575=DIRECTION('',(1.,0.,0.));
#576=DIRECTION('',(0.,0.,1.));
#577=DIRECTION('',(1.,0.,0.));
#578=DIRECTION('',(0.,0.,1.));
#579=DIRECTION('',(1.,0.,0.));
#580=DIRECTION('',(0.,0.,-1.));
#581=DIRECTION('',(-1.,0.,0.));
#582=DIRECTION('',(0.,0.,1.));
#583=DIRECTION('',(1.,0.,0.));
#584=DIRECTION('',(0.,0.,-1.));
#585=DIRECTION('',(-1.,0.,0.));
#586=DIRECTION('',(0.,0.,1.));
#587=DIRECTION('',(1.,0.,0.));
#588=DIRECTION('',(0.,0.,1.));
#589=DIRECTION('',(1.,0.,0.));
#590=DIRECTION('',(0.,0.,1.));
#591=DIRECTION('',(1.,0.,0.));
#592=DIRECTION('',(0.,0.,-1.));
#593=DIRECTION('',(-1.,0.,0.));
#594=DIRECTION('',(0.,0.,1.));
#595=DIRECTION('',(1.,0.,0.));
#596=DIRECTION('',(0.,0.,1.));
#597=DIRECTION('',(1.,0.,0.));
#598=DIRECTION('',(0.,0.,-1.));
#599=DIRECTION('',(1.,0.,0.));
#600=DIRECTION('',(-0.707106781186547,0.,0.707106781186548));
#601=DIRECTION('',(0.707106781186548,0.,0.707106781186547));
#602=DIRECTION('',(0.,1.,0.));
#603=DIRECTION('',(-1.,0.,-2.89120579329468E-16));
#604=DIRECTION('',(-2.89120579329468E-16,0.,1.));
#605=DIRECTION('',(0.,1.,0.));
#606=DIRECTION('',(-0.707106781186547,0.,-0.707106781186547));
#607=DIRECTION('',(-0.707106781186548,0.,0.707106781186548));
#608=DIRECTION('',(-0.707106781186546,0.,-0.707106781186549));
#609=DIRECTION('',(-0.707106781186549,0.,0.707106781186546));
#610=DIRECTION('',(0.,1.,0.));
#611=DIRECTION('',(-1.,0.,-2.89120579329468E-16));
#612=DIRECTION('',(-2.89120579329468E-16,0.,1.));
#613=DIRECTION('',(0.,1.,0.));
#614=DIRECTION('',(-0.707106781186547,0.,0.707106781186548));
#615=DIRECTION('',(0.707106781186548,0.,0.707106781186547));
#616=DIRECTION('',(0.,0.,-1.));
#617=DIRECTION('',(-1.,0.,0.));
#618=DIRECTION('',(0.,0.,1.));
#619=DIRECTION('',(1.,0.,0.));
#620=DIRECTION('',(0.,0.,1.));
#621=DIRECTION('',(1.,0.,0.));
#622=DIRECTION('',(0.,0.,1.));
#623=DIRECTION('',(1.,0.,0.));
#624=DIRECTION('',(0.,0.,1.));
#625=DIRECTION('',(1.,0.,0.));
#626=DIRECTION('',(0.,0.,1.));
#627=DIRECTION('',(1.,0.,0.));
#628=DIRECTION('',(0.,0.,1.));
#629=DIRECTION('',(1.,0.,0.));
#630=DIRECTION('',(0.,0.,1.));
#631=DIRECTION('',(1.,0.,0.));
#632=DIRECTION('',(0.,0.,1.));
#633=DIRECTION('',(1.,0.,0.));
#634=CARTESIAN_POINT('',(0.,0.,0.));
#635=CARTESIAN_POINT('',(3.6735818922419E-15,0.,4.53110673665799));
#636=CARTESIAN_POINT('',(0.,0.,56.2202587099417));
#637=CARTESIAN_POINT('',(-2.067,0.,56.2202587099417));
#638=CARTESIAN_POINT('',(3.6735818922419E-15,0.,84.1));
#639=CARTESIAN_POINT('',(2.067,0.,84.1));
#640=CARTESIAN_POINT('',(0.,0.,97.3));
#641=CARTESIAN_POINT('',(0.,0.,96.25));
#642=CARTESIAN_POINT('',(-5.99999999999999,0.,96.25));
#643=CARTESIAN_POINT('',(0.,0.,25.9));
#644=CARTESIAN_POINT('',(-5.00000000000002,3.31662479035536,20.9));
#645=CARTESIAN_POINT('',(-5.,-3.31662479035535,20.9));
#646=CARTESIAN_POINT('',(-5.00000000000002,3.31662479035536,97.3));
#647=CARTESIAN_POINT('',(-5.,3.3166247903554,26.9));
#648=CARTESIAN_POINT('',(0.,0.,21.9));
#649=CARTESIAN_POINT('',(-5.,-3.3166247903554,26.9));
#650=CARTESIAN_POINT('',(-5.00000000000002,-3.31662479035536,97.3));
#651=CARTESIAN_POINT('',(0.,0.,17.1));
#652=CARTESIAN_POINT('',(6.,0.,17.1));
#653=CARTESIAN_POINT('',(4.99999999999998,3.31662479035542,97.3));
#654=CARTESIAN_POINT('',(5.,3.31662479035542,20.9));
#655=CARTESIAN_POINT('',(5.,3.31662479035541,26.9));
#656=CARTESIAN_POINT('',(0.,0.,25.9));
#657=CARTESIAN_POINT('',(4.99999999999998,-3.31662479035542,20.9));
#658=CARTESIAN_POINT('',(4.99999999999998,-3.31662479035542,97.3));
#659=CARTESIAN_POINT('',(5.,-3.31662479035541,26.9));
#660=CARTESIAN_POINT('',(0.,0.,21.9));
#661=CARTESIAN_POINT('',(0.,0.,62.));
#662=CARTESIAN_POINT('',(0.,0.,15.7686291501015));
#663=CARTESIAN_POINT('',(5.,0.,15.7686291501015));
#664=CARTESIAN_POINT('',(0.,0.,14.1));
#665=CARTESIAN_POINT('',(5.,0.,14.1));
#666=CARTESIAN_POINT('',(0.,0.,62.));
#667=CARTESIAN_POINT('',(0.,0.,6.6));
#668=CARTESIAN_POINT('',(5.,0.,6.6));
#669=CARTESIAN_POINT('',(0.,0.,6.1));
#670=CARTESIAN_POINT('',(0.,0.,6.1));
#671=CARTESIAN_POINT('',(4.14869745237835,0.,6.1));
#672=CARTESIAN_POINT('',(0.,0.,6.1));
#673=CARTESIAN_POINT('',(4.5,0.,6.1));
#674=CARTESIAN_POINT('',(0.,0.,6.6));
#675=CARTESIAN_POINT('',(0.,0.,16.1));
#676=CARTESIAN_POINT('',(0.,0.,16.3343145750508));
#677=CARTESIAN_POINT('',(5.23431457505076,0.,16.3343145750508));
#678=CARTESIAN_POINT('',(5.99999999999999,0.,97.1));
#679=CARTESIAN_POINT('',(0.,0.,97.1));
#680=CARTESIAN_POINT('',(3.55,0.,97.1));
#681=CARTESIAN_POINT('',(0.,0.,97.1));
#682=CARTESIAN_POINT('',(-5.15,0.,97.1));
#683=CARTESIAN_POINT('',(0.,0.,46.1961524227066));
#684=CARTESIAN_POINT('',(0.,0.,16.0615176113379));
#685=CARTESIAN_POINT('',(2.6,0.,16.0615176113379));
#686=CARTESIAN_POINT('',(0.,0.,55.9));
#687=CARTESIAN_POINT('',(2.6,0.,55.9));
#688=CARTESIAN_POINT('',(0.,0.,16.0615176113379));
#689=CARTESIAN_POINT('',(0.,0.,6.43041344951997));
#690=CARTESIAN_POINT('',(3.95356341800757,0.,6.43041344951997));
#691=CARTESIAN_POINT('',(0.,0.,6.5));
#692=CARTESIAN_POINT('',(0.,0.,55.9));
#693=CARTESIAN_POINT('',(-6.,-92.568893263342,19.9));
#694=CARTESIAN_POINT('',(-5.,-92.568893263342,20.9));
#695=CARTESIAN_POINT('',(-5.,-92.568893263342,20.9));
#696=CARTESIAN_POINT('',(-5.,-92.568893263342,26.9));
#697=CARTESIAN_POINT('',(-5.,-92.568893263342,26.9));
#698=CARTESIAN_POINT('',(6.,-92.568893263342,19.9));
#699=CARTESIAN_POINT('',(5.,-92.568893263342,20.9));
#700=CARTESIAN_POINT('',(5.,-92.568893263342,20.9));
#701=CARTESIAN_POINT('',(5.,-92.568893263342,26.9));
#702=CARTESIAN_POINT('',(5.,-92.568893263342,26.9));
#703=CARTESIAN_POINT('',(0.,0.,97.1));
#704=CARTESIAN_POINT('',(0.,0.,96.3));
#705=CARTESIAN_POINT('',(0.,0.,96.3));
#706=CARTESIAN_POINT('',(2.75,0.,96.3));
#707=CARTESIAN_POINT('',(0.,0.,157.1));
#708=CARTESIAN_POINT('',(0.,0.,94.1));
#709=CARTESIAN_POINT('',(2.75,0.,94.1));
#710=CARTESIAN_POINT('',(0.,0.,94.1));
#711=CARTESIAN_POINT('',(0.,0.,93.7056697661435));
#712=CARTESIAN_POINT('',(2.067,0.,93.7056697661435));
#713=CARTESIAN_POINT('',(3.6735818922419E-15,0.,4.53110673665799));
#714=CARTESIAN_POINT('',(0.,0.,15.7686291501015));
#715=MECHANICAL_DESIGN_GEOMETRIC_PRESENTATION_REPRESENTATION('',(#286,#287,
#288,#289,#290,#291,#292,#293,#294,#295,#296,#297,#298,#299,#300,#301,#302,
#303,#304,#305,#306,#307,#308,#309),#716);
#716=(
GEOMETRIC_REPRESENTATION_CONTEXT(3)
GLOBAL_UNCERTAINTY_ASSIGNED_CONTEXT((#717))
GLOBAL_UNIT_ASSIGNED_CONTEXT((#720,#719,#718))
REPRESENTATION_CONTEXT('261220850','TOP_LEVEL_ASSEMBLY_PART')
);
#717=UNCERTAINTY_MEASURE_WITH_UNIT(LENGTH_MEASURE(0.005),#720,
'DISTANCE_ACCURACY_VALUE','Maximum Tolerance applied to model');
#718=(
NAMED_UNIT(*)
SI_UNIT($,.STERADIAN.)
SOLID_ANGLE_UNIT()
);
#719=(
NAMED_UNIT(*)
PLANE_ANGLE_UNIT()
SI_UNIT($,.RADIAN.)
);
#720=(
LENGTH_UNIT()
NAMED_UNIT(*)
SI_UNIT(.MILLI.,.METRE.)
);
#721=PRODUCT_DEFINITION_SHAPE('','',#722);
#722=PRODUCT_DEFINITION('','',#724,#723);
#723=DESIGN_CONTEXT('',#730,'design');
#724=PRODUCT_DEFINITION_FORMATION_WITH_SPECIFIED_SOURCE('','',#726,
 .NOT_KNOWN.);
#725=PRODUCT_RELATED_PRODUCT_CATEGORY('','',(#726));
#726=PRODUCT('NOCUT','NOCUT','NOCUT',(#728));
#727=PRODUCT_CATEGORY('','');
#728=MECHANICAL_CONTEXT('',#730,'mechanical');
#729=APPLICATION_PROTOCOL_DEFINITION('international standard',
'config_control_design',2010,#730);
#730=APPLICATION_CONTEXT(
'configuration controlled 3D designs of mechanical parts and assemblie
s');
#731=AXIS2_PLACEMENT_3D('PCS',#732,#733,#734);
#732=CARTESIAN_POINT('',(0.,0.,17.1));
#733=DIRECTION('',(0.,0.,1.));
#734=DIRECTION('',(1.,0.,0.));
#735=AXIS2_PLACEMENT_3D('MCS',#736,#737,#738);
#736=CARTESIAN_POINT('',(0.,0.,17.1));
#737=DIRECTION('',(0.,0.,1.));
#738=DIRECTION('',(1.,0.,0.));
#739=AXIS2_PLACEMENT_3D('CSW',#740,#741,#742);
#740=CARTESIAN_POINT('',(0.,0.,6.1));
#741=DIRECTION('',(0.,0.,1.));
#742=DIRECTION('',(1.,0.,0.));
#743=CONSTRUCTIVE_GEOMETRY_REPRESENTATION_RELATIONSHIP('coordinate systems',$,#19,#744);
#744=CONSTRUCTIVE_GEOMETRY_REPRESENTATION('coordinate systems',(#731, #735, #739),#716);
ENDSEC;
END-ISO-10303-21;

