ISO-10303-21;
HEADER;
FILE_DESCRIPTION(
/* description */ (''),
/* implementation_level */ '2;1');
FILE_NAME(
/* name */ '262021642.stp',
/* time_stamp */ '2021-01-19T15:29:02',
/* author */ ('LRA'),
/* organization */ ('REGO-FIX'),
/* preprocessor_version */ ' Unknown',
/* originating_system */ 'SIEMENS PLM Software Solid Edge ST10',
/* authorization */ 'Unknown');
FILE_SCHEMA (('AUTOMOTIVE_DESIGN { 1 0 10303 214 2 1 1}'));
ENDSEC;
DATA;
#10=PROPERTY_DEFINITION_REPRESENTATION(#14,#12);
#11=PROPERTY_DEFINITION_REPRESENTATION(#15,#13);
#12=REPRESENTATION('',(#16),#689);
#13=REPRESENTATION('',(#17),#689);
#14=PROPERTY_DEFINITION('pmi validation property','',#694);
#15=PROPERTY_DEFINITION('pmi validation property','',#694);
#16=VALUE_REPRESENTATION_ITEM('number of annotations',COUNT_MEASURE(0.));
#17=VALUE_REPRESENTATION_ITEM('number of views',COUNT_MEASURE(0.));
#18=SHAPE_REPRESENTATION_RELATIONSHIP('','',#466,#19);
#19=ADVANCED_BREP_SHAPE_REPRESENTATION('',(#464),#689);
#20=TOROIDAL_SURFACE('',#496,8.44869745237829,0.5);
#21=TOROIDAL_SURFACE('',#497,7.25,1.);
#22=TOROIDAL_SURFACE('',#511,10.3,0.8);
#23=CONICAL_SURFACE('',#486,9.5,0.785398163397443);
#24=CONICAL_SURFACE('',#487,9.99999999999999,0.785398163397444);
#25=CONICAL_SURFACE('',#494,5.25,0.139626340159547);
#26=CONICAL_SURFACE('',#501,6.25,1.0471975511966);
#27=CONICAL_SURFACE('',#509,5.4585,1.02974425867665);
#28=PLANE('',#483);
#29=PLANE('',#489);
#30=PLANE('',#503);
#31=PLANE('',#504);
#32=PLANE('',#505);
#33=PLANE('',#506);
#34=PLANE('',#507);
#35=PLANE('',#508);
#36=LINE('',#620,#44);
#37=LINE('',#624,#45);
#38=LINE('',#632,#46);
#39=LINE('',#636,#47);
#40=LINE('',#676,#48);
#41=LINE('',#678,#49);
#42=LINE('',#681,#50);
#43=LINE('',#683,#51);
#44=VECTOR('',#524,1000.);
#45=VECTOR('',#527,1000.);
#46=VECTOR('',#534,1000.);
#47=VECTOR('',#537,1000.);
#48=VECTOR('',#590,1000.);
#49=VECTOR('',#593,1000.);
#50=VECTOR('',#598,1000.);
#51=VECTOR('',#601,1000.);
#52=ELLIPSE('',#472,14.1421356237309,9.99999999999999);
#53=ELLIPSE('',#473,14.1421356237309,9.99999999999999);
#54=ELLIPSE('',#476,14.142135623731,9.99999999999999);
#55=ELLIPSE('',#477,14.142135623731,9.99999999999999);
#56=ORIENTED_EDGE('',*,*,#114,.T.);
#57=ORIENTED_EDGE('',*,*,#115,.T.);
#58=ORIENTED_EDGE('',*,*,#116,.F.);
#59=ORIENTED_EDGE('',*,*,#117,.T.);
#60=ORIENTED_EDGE('',*,*,#118,.F.);
#61=ORIENTED_EDGE('',*,*,#119,.F.);
#62=ORIENTED_EDGE('',*,*,#120,.F.);
#63=ORIENTED_EDGE('',*,*,#121,.T.);
#64=ORIENTED_EDGE('',*,*,#122,.F.);
#65=ORIENTED_EDGE('',*,*,#123,.T.);
#66=ORIENTED_EDGE('',*,*,#124,.F.);
#67=ORIENTED_EDGE('',*,*,#125,.F.);
#68=ORIENTED_EDGE('',*,*,#126,.T.);
#69=ORIENTED_EDGE('',*,*,#127,.F.);
#70=ORIENTED_EDGE('',*,*,#128,.T.);
#71=ORIENTED_EDGE('',*,*,#127,.T.);
#72=ORIENTED_EDGE('',*,*,#129,.T.);
#73=ORIENTED_EDGE('',*,*,#130,.T.);
#74=ORIENTED_EDGE('',*,*,#130,.F.);
#75=ORIENTED_EDGE('',*,*,#128,.F.);
#76=ORIENTED_EDGE('',*,*,#131,.F.);
#77=ORIENTED_EDGE('',*,*,#120,.T.);
#78=ORIENTED_EDGE('',*,*,#132,.F.);
#79=ORIENTED_EDGE('',*,*,#131,.T.);
#80=ORIENTED_EDGE('',*,*,#133,.T.);
#81=ORIENTED_EDGE('',*,*,#134,.F.);
#82=ORIENTED_EDGE('',*,*,#135,.F.);
#83=ORIENTED_EDGE('',*,*,#134,.T.);
#84=ORIENTED_EDGE('',*,*,#129,.F.);
#85=ORIENTED_EDGE('',*,*,#135,.T.);
#86=ORIENTED_EDGE('',*,*,#136,.F.);
#87=ORIENTED_EDGE('',*,*,#132,.T.);
#88=ORIENTED_EDGE('',*,*,#137,.F.);
#89=ORIENTED_EDGE('',*,*,#136,.T.);
#90=ORIENTED_EDGE('',*,*,#138,.T.);
#91=ORIENTED_EDGE('',*,*,#137,.T.);
#92=ORIENTED_EDGE('',*,*,#116,.T.);
#93=ORIENTED_EDGE('',*,*,#139,.T.);
#94=ORIENTED_EDGE('',*,*,#119,.T.);
#95=ORIENTED_EDGE('',*,*,#140,.T.);
#96=ORIENTED_EDGE('',*,*,#117,.F.);
#97=ORIENTED_EDGE('',*,*,#139,.F.);
#98=ORIENTED_EDGE('',*,*,#118,.T.);
#99=ORIENTED_EDGE('',*,*,#140,.F.);
#100=ORIENTED_EDGE('',*,*,#122,.T.);
#101=ORIENTED_EDGE('',*,*,#141,.T.);
#102=ORIENTED_EDGE('',*,*,#125,.T.);
#103=ORIENTED_EDGE('',*,*,#142,.T.);
#104=ORIENTED_EDGE('',*,*,#123,.F.);
#105=ORIENTED_EDGE('',*,*,#141,.F.);
#106=ORIENTED_EDGE('',*,*,#124,.T.);
#107=ORIENTED_EDGE('',*,*,#142,.F.);
#108=ORIENTED_EDGE('',*,*,#114,.F.);
#109=ORIENTED_EDGE('',*,*,#133,.F.);
#110=ORIENTED_EDGE('',*,*,#115,.F.);
#111=ORIENTED_EDGE('',*,*,#138,.F.);
#112=ORIENTED_EDGE('',*,*,#126,.F.);
#113=ORIENTED_EDGE('',*,*,#121,.F.);
#114=EDGE_CURVE('',#143,#143,#168,.T.);
#115=EDGE_CURVE('',#144,#144,#169,.T.);
#116=EDGE_CURVE('',#145,#146,#52,.T.);
#117=EDGE_CURVE('',#145,#147,#36,.F.);
#118=EDGE_CURVE('',#148,#147,#53,.T.);
#119=EDGE_CURVE('',#146,#148,#37,.F.);
#120=EDGE_CURVE('',#149,#149,#170,.T.);
#121=EDGE_CURVE('',#150,#150,#171,.T.);
#122=EDGE_CURVE('',#151,#152,#54,.T.);
#123=EDGE_CURVE('',#151,#153,#38,.T.);
#124=EDGE_CURVE('',#154,#153,#55,.T.);
#125=EDGE_CURVE('',#152,#154,#39,.T.);
#126=EDGE_CURVE('',#155,#155,#172,.F.);
#127=EDGE_CURVE('',#156,#156,#173,.T.);
#128=EDGE_CURVE('',#157,#157,#174,.T.);
#129=EDGE_CURVE('',#158,#158,#175,.T.);
#130=EDGE_CURVE('',#159,#159,#176,.F.);
#131=EDGE_CURVE('',#160,#160,#177,.T.);
#132=EDGE_CURVE('',#161,#161,#178,.T.);
#133=EDGE_CURVE('',#162,#162,#179,.T.);
#134=EDGE_CURVE('',#163,#163,#180,.T.);
#135=EDGE_CURVE('',#164,#164,#181,.T.);
#136=EDGE_CURVE('',#165,#165,#182,.T.);
#137=EDGE_CURVE('',#166,#166,#183,.T.);
#138=EDGE_CURVE('',#167,#167,#184,.F.);
#139=EDGE_CURVE('',#146,#145,#40,.T.);
#140=EDGE_CURVE('',#148,#147,#41,.T.);
#141=EDGE_CURVE('',#152,#151,#42,.T.);
#142=EDGE_CURVE('',#154,#153,#43,.T.);
#143=VERTEX_POINT('',#613);
#144=VERTEX_POINT('',#615);
#145=VERTEX_POINT('',#618);
#146=VERTEX_POINT('',#619);
#147=VERTEX_POINT('',#621);
#148=VERTEX_POINT('',#623);
#149=VERTEX_POINT('',#626);
#150=VERTEX_POINT('',#628);
#151=VERTEX_POINT('',#630);
#152=VERTEX_POINT('',#631);
#153=VERTEX_POINT('',#633);
#154=VERTEX_POINT('',#635);
#155=VERTEX_POINT('',#639);
#156=VERTEX_POINT('',#641);
#157=VERTEX_POINT('',#644);
#158=VERTEX_POINT('',#647);
#159=VERTEX_POINT('',#649);
#160=VERTEX_POINT('',#653);
#161=VERTEX_POINT('',#656);
#162=VERTEX_POINT('',#659);
#163=VERTEX_POINT('',#661);
#164=VERTEX_POINT('',#664);
#165=VERTEX_POINT('',#668);
#166=VERTEX_POINT('',#671);
#167=VERTEX_POINT('',#674);
#168=CIRCLE('',#469,5.4585);
#169=CIRCLE('',#470,5.4585);
#170=CIRCLE('',#474,9.99999999999999);
#171=CIRCLE('',#475,10.);
#172=CIRCLE('',#479,9.5);
#173=CIRCLE('',#480,9.5);
#174=CIRCLE('',#482,9.5);
#175=CIRCLE('',#484,8.14869745237829);
#176=CIRCLE('',#485,8.8);
#177=CIRCLE('',#488,9.15);
#178=CIRCLE('',#490,7.25);
#179=CIRCLE('',#492,5.25);
#180=CIRCLE('',#493,5.25);
#181=CIRCLE('',#495,7.95356341800757);
#182=CIRCLE('',#498,6.25);
#183=CIRCLE('',#500,6.25);
#184=CIRCLE('',#502,5.4585);
#185=EDGE_LOOP('',(#56));
#186=EDGE_LOOP('',(#57));
#187=EDGE_LOOP('',(#58,#59,#60,#61));
#188=EDGE_LOOP('',(#62));
#189=EDGE_LOOP('',(#63));
#190=EDGE_LOOP('',(#64,#65,#66,#67));
#191=EDGE_LOOP('',(#68));
#192=EDGE_LOOP('',(#69));
#193=EDGE_LOOP('',(#70));
#194=EDGE_LOOP('',(#71));
#195=EDGE_LOOP('',(#72));
#196=EDGE_LOOP('',(#73));
#197=EDGE_LOOP('',(#74));
#198=EDGE_LOOP('',(#75));
#199=EDGE_LOOP('',(#76));
#200=EDGE_LOOP('',(#77));
#201=EDGE_LOOP('',(#78));
#202=EDGE_LOOP('',(#79));
#203=EDGE_LOOP('',(#80));
#204=EDGE_LOOP('',(#81));
#205=EDGE_LOOP('',(#82));
#206=EDGE_LOOP('',(#83));
#207=EDGE_LOOP('',(#84));
#208=EDGE_LOOP('',(#85));
#209=EDGE_LOOP('',(#86));
#210=EDGE_LOOP('',(#87));
#211=EDGE_LOOP('',(#88));
#212=EDGE_LOOP('',(#89));
#213=EDGE_LOOP('',(#90));
#214=EDGE_LOOP('',(#91));
#215=EDGE_LOOP('',(#92,#93));
#216=EDGE_LOOP('',(#94,#95,#96,#97));
#217=EDGE_LOOP('',(#98,#99));
#218=EDGE_LOOP('',(#100,#101));
#219=EDGE_LOOP('',(#102,#103,#104,#105));
#220=EDGE_LOOP('',(#106,#107));
#221=EDGE_LOOP('',(#108));
#222=EDGE_LOOP('',(#109));
#223=EDGE_LOOP('',(#110));
#224=EDGE_LOOP('',(#111));
#225=EDGE_LOOP('',(#112));
#226=EDGE_LOOP('',(#113));
#227=FACE_BOUND('',#185,.T.);
#228=FACE_BOUND('',#186,.T.);
#229=FACE_BOUND('',#187,.T.);
#230=FACE_BOUND('',#188,.T.);
#231=FACE_BOUND('',#189,.T.);
#232=FACE_BOUND('',#190,.T.);
#233=FACE_BOUND('',#191,.T.);
#234=FACE_BOUND('',#192,.T.);
#235=FACE_BOUND('',#193,.T.);
#236=FACE_BOUND('',#194,.T.);
#237=FACE_BOUND('',#195,.T.);
#238=FACE_BOUND('',#196,.T.);
#239=FACE_BOUND('',#197,.T.);
#240=FACE_BOUND('',#198,.T.);
#241=FACE_BOUND('',#199,.T.);
#242=FACE_BOUND('',#200,.T.);
#243=FACE_BOUND('',#201,.T.);
#244=FACE_BOUND('',#202,.T.);
#245=FACE_BOUND('',#203,.T.);
#246=FACE_BOUND('',#204,.T.);
#247=FACE_BOUND('',#205,.T.);
#248=FACE_BOUND('',#206,.T.);
#249=FACE_BOUND('',#207,.T.);
#250=FACE_BOUND('',#208,.T.);
#251=FACE_BOUND('',#209,.T.);
#252=FACE_BOUND('',#210,.T.);
#253=FACE_BOUND('',#211,.T.);
#254=FACE_BOUND('',#212,.T.);
#255=FACE_BOUND('',#213,.T.);
#256=FACE_BOUND('',#214,.T.);
#257=FACE_BOUND('',#215,.T.);
#258=FACE_BOUND('',#216,.T.);
#259=FACE_BOUND('',#217,.T.);
#260=FACE_BOUND('',#218,.T.);
#261=FACE_BOUND('',#219,.T.);
#262=FACE_BOUND('',#220,.T.);
#263=FACE_BOUND('',#221,.T.);
#264=FACE_BOUND('',#222,.T.);
#265=FACE_BOUND('',#223,.T.);
#266=FACE_BOUND('',#224,.T.);
#267=FACE_BOUND('',#225,.T.);
#268=FACE_BOUND('',#226,.T.);
#269=CYLINDRICAL_SURFACE('',#468,5.4585);
#270=CYLINDRICAL_SURFACE('',#471,9.99999999999999);
#271=CYLINDRICAL_SURFACE('',#478,9.5);
#272=CYLINDRICAL_SURFACE('',#481,9.5);
#273=CYLINDRICAL_SURFACE('',#491,5.25);
#274=CYLINDRICAL_SURFACE('',#499,6.25);
#275=CYLINDRICAL_SURFACE('',#510,5.4585);
#276=STYLED_ITEM('',(#299),#440);
#277=STYLED_ITEM('',(#300),#441);
#278=STYLED_ITEM('',(#301),#442);
#279=STYLED_ITEM('',(#302),#443);
#280=STYLED_ITEM('',(#303),#444);
#281=STYLED_ITEM('',(#304),#445);
#282=STYLED_ITEM('',(#305),#446);
#283=STYLED_ITEM('',(#306),#447);
#284=STYLED_ITEM('',(#307),#448);
#285=STYLED_ITEM('',(#308),#449);
#286=STYLED_ITEM('',(#309),#450);
#287=STYLED_ITEM('',(#310),#451);
#288=STYLED_ITEM('',(#311),#452);
#289=STYLED_ITEM('',(#312),#453);
#290=STYLED_ITEM('',(#313),#454);
#291=STYLED_ITEM('',(#314),#455);
#292=STYLED_ITEM('',(#315),#456);
#293=STYLED_ITEM('',(#316),#457);
#294=STYLED_ITEM('',(#317),#458);
#295=STYLED_ITEM('',(#318),#459);
#296=STYLED_ITEM('',(#319),#460);
#297=STYLED_ITEM('',(#320),#461);
#298=STYLED_ITEM('',(#321),#462);
#299=PRESENTATION_STYLE_ASSIGNMENT((#322));
#300=PRESENTATION_STYLE_ASSIGNMENT((#323));
#301=PRESENTATION_STYLE_ASSIGNMENT((#324));
#302=PRESENTATION_STYLE_ASSIGNMENT((#325));
#303=PRESENTATION_STYLE_ASSIGNMENT((#326));
#304=PRESENTATION_STYLE_ASSIGNMENT((#327));
#305=PRESENTATION_STYLE_ASSIGNMENT((#328));
#306=PRESENTATION_STYLE_ASSIGNMENT((#329));
#307=PRESENTATION_STYLE_ASSIGNMENT((#330));
#308=PRESENTATION_STYLE_ASSIGNMENT((#331));
#309=PRESENTATION_STYLE_ASSIGNMENT((#332));
#310=PRESENTATION_STYLE_ASSIGNMENT((#333));
#311=PRESENTATION_STYLE_ASSIGNMENT((#334));
#312=PRESENTATION_STYLE_ASSIGNMENT((#335));
#313=PRESENTATION_STYLE_ASSIGNMENT((#336));
#314=PRESENTATION_STYLE_ASSIGNMENT((#337));
#315=PRESENTATION_STYLE_ASSIGNMENT((#338));
#316=PRESENTATION_STYLE_ASSIGNMENT((#339));
#317=PRESENTATION_STYLE_ASSIGNMENT((#340));
#318=PRESENTATION_STYLE_ASSIGNMENT((#341));
#319=PRESENTATION_STYLE_ASSIGNMENT((#342));
#320=PRESENTATION_STYLE_ASSIGNMENT((#343));
#321=PRESENTATION_STYLE_ASSIGNMENT((#344));
#322=SURFACE_STYLE_USAGE(.BOTH.,#345);
#323=SURFACE_STYLE_USAGE(.BOTH.,#346);
#324=SURFACE_STYLE_USAGE(.BOTH.,#347);
#325=SURFACE_STYLE_USAGE(.BOTH.,#348);
#326=SURFACE_STYLE_USAGE(.BOTH.,#349);
#327=SURFACE_STYLE_USAGE(.BOTH.,#350);
#328=SURFACE_STYLE_USAGE(.BOTH.,#351);
#329=SURFACE_STYLE_USAGE(.BOTH.,#352);
#330=SURFACE_STYLE_USAGE(.BOTH.,#353);
#331=SURFACE_STYLE_USAGE(.BOTH.,#354);
#332=SURFACE_STYLE_USAGE(.BOTH.,#355);
#333=SURFACE_STYLE_USAGE(.BOTH.,#356);
#334=SURFACE_STYLE_USAGE(.BOTH.,#357);
#335=SURFACE_STYLE_USAGE(.BOTH.,#358);
#336=SURFACE_STYLE_USAGE(.BOTH.,#359);
#337=SURFACE_STYLE_USAGE(.BOTH.,#360);
#338=SURFACE_STYLE_USAGE(.BOTH.,#361);
#339=SURFACE_STYLE_USAGE(.BOTH.,#362);
#340=SURFACE_STYLE_USAGE(.BOTH.,#363);
#341=SURFACE_STYLE_USAGE(.BOTH.,#364);
#342=SURFACE_STYLE_USAGE(.BOTH.,#365);
#343=SURFACE_STYLE_USAGE(.BOTH.,#366);
#344=SURFACE_STYLE_USAGE(.BOTH.,#367);
#345=SURFACE_SIDE_STYLE('',(#368));
#346=SURFACE_SIDE_STYLE('',(#369));
#347=SURFACE_SIDE_STYLE('',(#370));
#348=SURFACE_SIDE_STYLE('',(#371));
#349=SURFACE_SIDE_STYLE('',(#372));
#350=SURFACE_SIDE_STYLE('',(#373));
#351=SURFACE_SIDE_STYLE('',(#374));
#352=SURFACE_SIDE_STYLE('',(#375));
#353=SURFACE_SIDE_STYLE('',(#376));
#354=SURFACE_SIDE_STYLE('',(#377));
#355=SURFACE_SIDE_STYLE('',(#378));
#356=SURFACE_SIDE_STYLE('',(#379));
#357=SURFACE_SIDE_STYLE('',(#380));
#358=SURFACE_SIDE_STYLE('',(#381));
#359=SURFACE_SIDE_STYLE('',(#382));
#360=SURFACE_SIDE_STYLE('',(#383));
#361=SURFACE_SIDE_STYLE('',(#384));
#362=SURFACE_SIDE_STYLE('',(#385));
#363=SURFACE_SIDE_STYLE('',(#386));
#364=SURFACE_SIDE_STYLE('',(#387));
#365=SURFACE_SIDE_STYLE('',(#388));
#366=SURFACE_SIDE_STYLE('',(#389));
#367=SURFACE_SIDE_STYLE('',(#390));
#368=SURFACE_STYLE_FILL_AREA(#391);
#369=SURFACE_STYLE_FILL_AREA(#392);
#370=SURFACE_STYLE_FILL_AREA(#393);
#371=SURFACE_STYLE_FILL_AREA(#394);
#372=SURFACE_STYLE_FILL_AREA(#395);
#373=SURFACE_STYLE_FILL_AREA(#396);
#374=SURFACE_STYLE_FILL_AREA(#397);
#375=SURFACE_STYLE_FILL_AREA(#398);
#376=SURFACE_STYLE_FILL_AREA(#399);
#377=SURFACE_STYLE_FILL_AREA(#400);
#378=SURFACE_STYLE_FILL_AREA(#401);
#379=SURFACE_STYLE_FILL_AREA(#402);
#380=SURFACE_STYLE_FILL_AREA(#403);
#381=SURFACE_STYLE_FILL_AREA(#404);
#382=SURFACE_STYLE_FILL_AREA(#405);
#383=SURFACE_STYLE_FILL_AREA(#406);
#384=SURFACE_STYLE_FILL_AREA(#407);
#385=SURFACE_STYLE_FILL_AREA(#408);
#386=SURFACE_STYLE_FILL_AREA(#409);
#387=SURFACE_STYLE_FILL_AREA(#410);
#388=SURFACE_STYLE_FILL_AREA(#411);
#389=SURFACE_STYLE_FILL_AREA(#412);
#390=SURFACE_STYLE_FILL_AREA(#413);
#391=FILL_AREA_STYLE('',(#414));
#392=FILL_AREA_STYLE('',(#415));
#393=FILL_AREA_STYLE('',(#416));
#394=FILL_AREA_STYLE('',(#417));
#395=FILL_AREA_STYLE('',(#418));
#396=FILL_AREA_STYLE('',(#419));
#397=FILL_AREA_STYLE('',(#420));
#398=FILL_AREA_STYLE('',(#421));
#399=FILL_AREA_STYLE('',(#422));
#400=FILL_AREA_STYLE('',(#423));
#401=FILL_AREA_STYLE('',(#424));
#402=FILL_AREA_STYLE('',(#425));
#403=FILL_AREA_STYLE('',(#426));
#404=FILL_AREA_STYLE('',(#427));
#405=FILL_AREA_STYLE('',(#428));
#406=FILL_AREA_STYLE('',(#429));
#407=FILL_AREA_STYLE('',(#430));
#408=FILL_AREA_STYLE('',(#431));
#409=FILL_AREA_STYLE('',(#432));
#410=FILL_AREA_STYLE('',(#433));
#411=FILL_AREA_STYLE('',(#434));
#412=FILL_AREA_STYLE('',(#435));
#413=FILL_AREA_STYLE('',(#436));
#414=FILL_AREA_STYLE_COLOUR('',#437);
#415=FILL_AREA_STYLE_COLOUR('',#437);
#416=FILL_AREA_STYLE_COLOUR('',#438);
#417=FILL_AREA_STYLE_COLOUR('',#439);
#418=FILL_AREA_STYLE_COLOUR('',#438);
#419=FILL_AREA_STYLE_COLOUR('',#438);
#420=FILL_AREA_STYLE_COLOUR('',#437);
#421=FILL_AREA_STYLE_COLOUR('',#437);
#422=FILL_AREA_STYLE_COLOUR('',#438);
#423=FILL_AREA_STYLE_COLOUR('',#438);
#424=FILL_AREA_STYLE_COLOUR('',#438);
#425=FILL_AREA_STYLE_COLOUR('',#438);
#426=FILL_AREA_STYLE_COLOUR('',#438);
#427=FILL_AREA_STYLE_COLOUR('',#438);
#428=FILL_AREA_STYLE_COLOUR('',#437);
#429=FILL_AREA_STYLE_COLOUR('',#437);
#430=FILL_AREA_STYLE_COLOUR('',#437);
#431=FILL_AREA_STYLE_COLOUR('',#437);
#432=FILL_AREA_STYLE_COLOUR('',#437);
#433=FILL_AREA_STYLE_COLOUR('',#437);
#434=FILL_AREA_STYLE_COLOUR('',#437);
#435=FILL_AREA_STYLE_COLOUR('',#439);
#436=FILL_AREA_STYLE_COLOUR('',#437);
#437=COLOUR_RGB( ' ', 0.5, 0.5, 0.5 );
#438=COLOUR_RGB( ' ', 0.5, 0.5, 0.5 );
#439=COLOUR_RGB( ' ', 0.5, 0.5, 0.5 );
#440=ADVANCED_FACE('',(#227,#228),#269,.F.);
#441=ADVANCED_FACE('',(#229,#230,#231,#232),#270,.T.);
#442=ADVANCED_FACE('',(#233,#234),#271,.T.);
#443=ADVANCED_FACE('',(#235,#236),#272,.T.);
#444=ADVANCED_FACE('',(#237,#238),#28,.F.);
#445=ADVANCED_FACE('',(#239,#240),#23,.T.);
#446=ADVANCED_FACE('',(#241,#242),#24,.T.);
#447=ADVANCED_FACE('',(#243,#244),#29,.F.);
#448=ADVANCED_FACE('',(#245,#246),#273,.F.);
#449=ADVANCED_FACE('',(#247,#248),#25,.F.);
#450=ADVANCED_FACE('',(#249,#250),#20,.T.);
#451=ADVANCED_FACE('',(#251,#252),#21,.T.);
#452=ADVANCED_FACE('',(#253,#254),#274,.F.);
#453=ADVANCED_FACE('',(#255,#256),#26,.F.);
#454=ADVANCED_FACE('',(#257),#30,.T.);
#455=ADVANCED_FACE('',(#258),#31,.T.);
#456=ADVANCED_FACE('',(#259),#32,.T.);
#457=ADVANCED_FACE('',(#260),#33,.T.);
#458=ADVANCED_FACE('',(#261),#34,.T.);
#459=ADVANCED_FACE('',(#262),#35,.T.);
#460=ADVANCED_FACE('',(#263,#264),#27,.F.);
#461=ADVANCED_FACE('',(#265,#266),#275,.F.);
#462=ADVANCED_FACE('',(#267,#268),#22,.F.);
#463=CLOSED_SHELL('',(#440,#441,#442,#443,#444,#445,#446,#447,#448,#449,
#450,#451,#452,#453,#454,#455,#456,#457,#458,#459,#460,#461,#462));
#464=MANIFOLD_SOLID_BREP('NOCUT',#463);
#465=SHAPE_DEFINITION_REPRESENTATION(#694,#466);
#466=SHAPE_REPRESENTATION('262021642',(#467),#689);
#467=AXIS2_PLACEMENT_3D('',#610,#512,#513);
#468=AXIS2_PLACEMENT_3D('',#611,#514,#515);
#469=AXIS2_PLACEMENT_3D('',#612,#516,#517);
#470=AXIS2_PLACEMENT_3D('',#614,#518,#519);
#471=AXIS2_PLACEMENT_3D('',#616,#520,#521);
#472=AXIS2_PLACEMENT_3D('',#617,#522,#523);
#473=AXIS2_PLACEMENT_3D('',#622,#525,#526);
#474=AXIS2_PLACEMENT_3D('',#625,#528,#529);
#475=AXIS2_PLACEMENT_3D('',#627,#530,#531);
#476=AXIS2_PLACEMENT_3D('',#629,#532,#533);
#477=AXIS2_PLACEMENT_3D('',#634,#535,#536);
#478=AXIS2_PLACEMENT_3D('',#637,#538,#539);
#479=AXIS2_PLACEMENT_3D('',#638,#540,#541);
#480=AXIS2_PLACEMENT_3D('',#640,#542,#543);
#481=AXIS2_PLACEMENT_3D('',#642,#544,#545);
#482=AXIS2_PLACEMENT_3D('',#643,#546,#547);
#483=AXIS2_PLACEMENT_3D('',#645,#548,#549);
#484=AXIS2_PLACEMENT_3D('',#646,#550,#551);
#485=AXIS2_PLACEMENT_3D('',#648,#552,#553);
#486=AXIS2_PLACEMENT_3D('',#650,#554,#555);
#487=AXIS2_PLACEMENT_3D('',#651,#556,#557);
#488=AXIS2_PLACEMENT_3D('',#652,#558,#559);
#489=AXIS2_PLACEMENT_3D('',#654,#560,#561);
#490=AXIS2_PLACEMENT_3D('',#655,#562,#563);
#491=AXIS2_PLACEMENT_3D('',#657,#564,#565);
#492=AXIS2_PLACEMENT_3D('',#658,#566,#567);
#493=AXIS2_PLACEMENT_3D('',#660,#568,#569);
#494=AXIS2_PLACEMENT_3D('',#662,#570,#571);
#495=AXIS2_PLACEMENT_3D('',#663,#572,#573);
#496=AXIS2_PLACEMENT_3D('',#665,#574,#575);
#497=AXIS2_PLACEMENT_3D('',#666,#576,#577);
#498=AXIS2_PLACEMENT_3D('',#667,#578,#579);
#499=AXIS2_PLACEMENT_3D('',#669,#580,#581);
#500=AXIS2_PLACEMENT_3D('',#670,#582,#583);
#501=AXIS2_PLACEMENT_3D('',#672,#584,#585);
#502=AXIS2_PLACEMENT_3D('',#673,#586,#587);
#503=AXIS2_PLACEMENT_3D('',#675,#588,#589);
#504=AXIS2_PLACEMENT_3D('',#677,#591,#592);
#505=AXIS2_PLACEMENT_3D('',#679,#594,#595);
#506=AXIS2_PLACEMENT_3D('',#680,#596,#597);
#507=AXIS2_PLACEMENT_3D('',#682,#599,#600);
#508=AXIS2_PLACEMENT_3D('',#684,#602,#603);
#509=AXIS2_PLACEMENT_3D('',#685,#604,#605);
#510=AXIS2_PLACEMENT_3D('',#686,#606,#607);
#511=AXIS2_PLACEMENT_3D('',#687,#608,#609);
#512=DIRECTION('',(0.,0.,1.));
#513=DIRECTION('',(1.,0.,0.));
#514=DIRECTION('',(0.,0.,-1.));
#515=DIRECTION('',(1.,0.,0.));
#516=DIRECTION('',(0.,0.,-1.));
#517=DIRECTION('',(-1.,0.,0.));
#518=DIRECTION('',(0.,0.,1.));
#519=DIRECTION('',(1.,0.,0.));
#520=DIRECTION('',(0.,0.,1.));
#521=DIRECTION('',(1.,0.,0.));
#522=DIRECTION('',(0.707106781186547,0.,-0.707106781186548));
#523=DIRECTION('',(0.707106781186548,0.,0.707106781186547));
#524=DIRECTION('',(0.,0.,1.));
#525=DIRECTION('',(0.707106781186547,0.,0.707106781186548));
#526=DIRECTION('',(-0.707106781186548,0.,0.707106781186547));
#527=DIRECTION('',(0.,0.,1.));
#528=DIRECTION('',(0.,0.,1.));
#529=DIRECTION('',(1.,0.,0.));
#530=DIRECTION('',(0.,0.,1.));
#531=DIRECTION('',(1.,0.,0.));
#532=DIRECTION('',(-0.70710678118655,0.,0.707106781186545));
#533=DIRECTION('',(0.707106781186545,0.,0.70710678118655));
#534=DIRECTION('',(0.,0.,1.));
#535=DIRECTION('',(-0.707106781186548,0.,-0.707106781186547));
#536=DIRECTION('',(-0.707106781186547,0.,0.707106781186548));
#537=DIRECTION('',(0.,0.,1.));
#538=DIRECTION('',(0.,0.,1.));
#539=DIRECTION('',(1.,0.,0.));
#540=DIRECTION('',(0.,0.,1.));
#541=DIRECTION('',(1.,0.,0.));
#542=DIRECTION('',(0.,0.,-1.));
#543=DIRECTION('',(1.,0.,0.));
#544=DIRECTION('',(0.,0.,1.));
#545=DIRECTION('',(1.,0.,0.));
#546=DIRECTION('',(0.,0.,1.));
#547=DIRECTION('',(1.,0.,0.));
#548=DIRECTION('',(0.,0.,1.));
#549=DIRECTION('',(1.,0.,0.));
#550=DIRECTION('',(0.,0.,1.));
#551=DIRECTION('',(1.,0.,0.));
#552=DIRECTION('',(0.,0.,1.));
#553=DIRECTION('',(1.,0.,0.));
#554=DIRECTION('',(0.,0.,1.));
#555=DIRECTION('',(1.,0.,0.));
#556=DIRECTION('',(0.,0.,-1.));
#557=DIRECTION('',(-1.,0.,0.));
#558=DIRECTION('',(0.,0.,1.));
#559=DIRECTION('',(1.,0.,0.));
#560=DIRECTION('',(0.,0.,-1.));
#561=DIRECTION('',(-1.,0.,0.));
#562=DIRECTION('',(0.,0.,1.));
#563=DIRECTION('',(1.,0.,0.));
#564=DIRECTION('',(0.,0.,1.));
#565=DIRECTION('',(1.,0.,0.));
#566=DIRECTION('',(0.,0.,1.));
#567=DIRECTION('',(1.,0.,0.));
#568=DIRECTION('',(0.,0.,1.));
#569=DIRECTION('',(1.,0.,0.));
#570=DIRECTION('',(0.,0.,-1.));
#571=DIRECTION('',(-1.,0.,0.));
#572=DIRECTION('',(0.,0.,1.));
#573=DIRECTION('',(1.,0.,0.));
#574=DIRECTION('',(0.,0.,1.));
#575=DIRECTION('',(1.,0.,0.));
#576=DIRECTION('',(0.,0.,1.));
#577=DIRECTION('',(1.,0.,0.));
#578=DIRECTION('',(0.,0.,1.));
#579=DIRECTION('',(1.,0.,0.));
#580=DIRECTION('',(0.,0.,1.));
#581=DIRECTION('',(1.,0.,0.));
#582=DIRECTION('',(0.,0.,1.));
#583=DIRECTION('',(1.,0.,0.));
#584=DIRECTION('',(0.,0.,1.));
#585=DIRECTION('',(1.,0.,0.));
#586=DIRECTION('',(0.,0.,1.));
#587=DIRECTION('',(1.,0.,0.));
#588=DIRECTION('',(0.707106781186547,0.,-0.707106781186548));
#589=DIRECTION('',(-0.707106781186548,0.,-0.707106781186547));
#590=DIRECTION('',(0.,1.,0.));
#591=DIRECTION('',(1.,0.,0.));
#592=DIRECTION('',(0.,0.,-1.));
#593=DIRECTION('',(0.,1.,0.));
#594=DIRECTION('',(0.707106781186547,0.,0.707106781186548));
#595=DIRECTION('',(0.707106781186548,0.,-0.707106781186547));
#596=DIRECTION('',(-0.70710678118655,0.,0.707106781186545));
#597=DIRECTION('',(0.707106781186545,0.,0.70710678118655));
#598=DIRECTION('',(0.,1.,0.));
#599=DIRECTION('',(-1.,0.,0.));
#600=DIRECTION('',(0.,0.,1.));
#601=DIRECTION('',(0.,1.,0.));
#602=DIRECTION('',(-0.707106781186548,0.,-0.707106781186547));
#603=DIRECTION('',(-0.707106781186547,0.,0.707106781186548));
#604=DIRECTION('',(0.,0.,1.));
#605=DIRECTION('',(-1.,0.,0.));
#606=DIRECTION('',(0.,0.,-1.));
#607=DIRECTION('',(1.,0.,0.));
#608=DIRECTION('',(0.,0.,1.));
#609=DIRECTION('',(1.,0.,0.));
#610=CARTESIAN_POINT('',(0.,0.,0.));
#611=CARTESIAN_POINT('',(3.46944695195361E-15,0.,97.5));
#612=CARTESIAN_POINT('',(3.46944695195361E-15,0.,32.5));
#613=CARTESIAN_POINT('',(-5.4585,0.,32.5));
#614=CARTESIAN_POINT('',(3.46944695195361E-15,0.,36.5));
#615=CARTESIAN_POINT('',(5.4585,0.,36.5));
#616=CARTESIAN_POINT('',(0.,0.,71.5));
#617=CARTESIAN_POINT('',(0.,0.,81.));
#618=CARTESIAN_POINT('',(8.5,5.26782687642636,89.5));
#619=CARTESIAN_POINT('',(8.5,-5.26782687642637,89.5));
#620=CARTESIAN_POINT('',(8.5,5.26782687642636,71.5));
#621=CARTESIAN_POINT('',(8.5,5.26782687642637,33.5));
#622=CARTESIAN_POINT('',(0.,0.,42.));
#623=CARTESIAN_POINT('',(8.5,-5.26782687642637,33.5));
#624=CARTESIAN_POINT('',(8.5,-5.26782687642636,71.5));
#625=CARTESIAN_POINT('',(0.,0.,96.65));
#626=CARTESIAN_POINT('',(9.99999999999999,0.,96.65));
#627=CARTESIAN_POINT('',(0.,0.,27.5));
#628=CARTESIAN_POINT('',(10.,0.,27.5));
#629=CARTESIAN_POINT('',(0.,0.,42.));
#630=CARTESIAN_POINT('',(-8.5,5.26782687642636,33.5));
#631=CARTESIAN_POINT('',(-8.5,-5.26782687642637,33.5));
#632=CARTESIAN_POINT('',(-8.5,5.26782687642636,71.5));
#633=CARTESIAN_POINT('',(-8.5,5.26782687642637,39.5));
#634=CARTESIAN_POINT('',(0.,0.,31.));
#635=CARTESIAN_POINT('',(-8.5,-5.26782687642637,39.5));
#636=CARTESIAN_POINT('',(-8.5,-5.26782687642636,71.5));
#637=CARTESIAN_POINT('',(0.,0.,62.));
#638=CARTESIAN_POINT('',(0.,0.,26.7583801512904));
#639=CARTESIAN_POINT('',(9.5,0.,26.7583801512904));
#640=CARTESIAN_POINT('',(0.,0.,24.5));
#641=CARTESIAN_POINT('',(9.5,0.,24.5));
#642=CARTESIAN_POINT('',(0.,0.,62.));
#643=CARTESIAN_POINT('',(0.,0.,12.2));
#644=CARTESIAN_POINT('',(9.5,0.,12.2));
#645=CARTESIAN_POINT('',(0.,0.,11.5));
#646=CARTESIAN_POINT('',(0.,0.,11.5));
#647=CARTESIAN_POINT('',(8.14869745237829,0.,11.5));
#648=CARTESIAN_POINT('',(0.,0.,11.5));
#649=CARTESIAN_POINT('',(8.8,0.,11.5));
#650=CARTESIAN_POINT('',(0.,0.,12.2));
#651=CARTESIAN_POINT('',(0.,0.,96.65));
#652=CARTESIAN_POINT('',(0.,0.,97.5));
#653=CARTESIAN_POINT('',(9.15,0.,97.5));
#654=CARTESIAN_POINT('',(9.15,0.,97.5));
#655=CARTESIAN_POINT('',(0.,0.,97.5));
#656=CARTESIAN_POINT('',(7.25,0.,97.5));
#657=CARTESIAN_POINT('',(0.,0.,46.1961524227066));
#658=CARTESIAN_POINT('',(3.46944695195361E-15,0.,32.3747205609328));
#659=CARTESIAN_POINT('',(5.25,0.,32.3747205609328));
#660=CARTESIAN_POINT('',(0.,0.,31.0672667365566));
#661=CARTESIAN_POINT('',(5.25,0.,31.0672667365566));
#662=CARTESIAN_POINT('',(0.,0.,31.0672667365566));
#663=CARTESIAN_POINT('',(0.,0.,11.83041344952));
#664=CARTESIAN_POINT('',(7.95356341800757,0.,11.83041344952));
#665=CARTESIAN_POINT('',(0.,0.,11.9));
#666=CARTESIAN_POINT('',(0.,0.,96.5));
#667=CARTESIAN_POINT('',(0.,0.,96.5));
#668=CARTESIAN_POINT('',(6.25,0.,96.5));
#669=CARTESIAN_POINT('',(0.,0.,157.5));
#670=CARTESIAN_POINT('',(0.,0.,92.5));
#671=CARTESIAN_POINT('',(6.25,0.,92.5));
#672=CARTESIAN_POINT('',(0.,0.,92.5));
#673=CARTESIAN_POINT('',(0.,0.,92.0430272619364));
#674=CARTESIAN_POINT('',(5.4585,0.,92.0430272619364));
#675=CARTESIAN_POINT('',(8.5,-90.5317623820502,89.5));
#676=CARTESIAN_POINT('',(8.5,-90.5317623820502,89.5));
#677=CARTESIAN_POINT('',(8.5,-90.5317623820502,89.5));
#678=CARTESIAN_POINT('',(8.5,-90.5317623820502,33.5));
#679=CARTESIAN_POINT('',(8.5,-90.5317623820502,33.5));
#680=CARTESIAN_POINT('',(-10.,-90.5317623820502,32.));
#681=CARTESIAN_POINT('',(-8.5,-90.5317623820502,33.5));
#682=CARTESIAN_POINT('',(-8.5,-90.5317623820502,33.5));
#683=CARTESIAN_POINT('',(-8.5,-90.5317623820502,39.5));
#684=CARTESIAN_POINT('',(-8.5,-90.5317623820502,39.5));
#685=CARTESIAN_POINT('',(3.46944695195361E-15,0.,32.5));
#686=CARTESIAN_POINT('',(3.46944695195361E-15,0.,97.5));
#687=CARTESIAN_POINT('',(0.,0.,26.7583801512904));
#688=MECHANICAL_DESIGN_GEOMETRIC_PRESENTATION_REPRESENTATION('',(#276,#277,
#278,#279,#280,#281,#282,#283,#284,#285,#286,#287,#288,#289,#290,#291,#292,
#293,#294,#295,#296,#297,#298),#689);
#689=(
GEOMETRIC_REPRESENTATION_CONTEXT(3)
GLOBAL_UNCERTAINTY_ASSIGNED_CONTEXT((#690))
GLOBAL_UNIT_ASSIGNED_CONTEXT((#693,#692,#691))
REPRESENTATION_CONTEXT('262021642','TOP_LEVEL_ASSEMBLY_PART')
);
#690=UNCERTAINTY_MEASURE_WITH_UNIT(LENGTH_MEASURE(0.005),#693,
'DISTANCE_ACCURACY_VALUE','Maximum Tolerance applied to model');
#691=(
NAMED_UNIT(*)
SI_UNIT($,.STERADIAN.)
SOLID_ANGLE_UNIT()
);
#692=(
NAMED_UNIT(*)
PLANE_ANGLE_UNIT()
SI_UNIT($,.RADIAN.)
);
#693=(
LENGTH_UNIT()
NAMED_UNIT(*)
SI_UNIT(.MILLI.,.METRE.)
);
#694=PRODUCT_DEFINITION_SHAPE('','',#695);
#695=PRODUCT_DEFINITION('','',#697,#696);
#696=DESIGN_CONTEXT('',#703,'design');
#697=PRODUCT_DEFINITION_FORMATION_WITH_SPECIFIED_SOURCE('','',#699,
 .NOT_KNOWN.);
#698=PRODUCT_RELATED_PRODUCT_CATEGORY('','',(#699));
#699=PRODUCT('NOCUT','NOCUT','NOCUT',(#701));
#700=PRODUCT_CATEGORY('','');
#701=MECHANICAL_CONTEXT('',#703,'mechanical');
#702=APPLICATION_PROTOCOL_DEFINITION('international standard',
'config_control_design',2010,#703);
#703=APPLICATION_CONTEXT(
'configuration controlled 3D designs of mechanical parts and assemblie
s');
#704=AXIS2_PLACEMENT_3D('PCS',#705,#706,#707);
#705=CARTESIAN_POINT('',(0.,0.,27.5));
#706=DIRECTION('',(0.,0.,1.));
#707=DIRECTION('',(1.,0.,0.));
#708=AXIS2_PLACEMENT_3D('MCS',#709,#710,#711);
#709=CARTESIAN_POINT('',(0.,0.,27.5));
#710=DIRECTION('',(0.,0.,1.));
#711=DIRECTION('',(1.,0.,0.));
#712=AXIS2_PLACEMENT_3D('CSW',#713,#714,#715);
#713=CARTESIAN_POINT('',(0.,0.,11.5));
#714=DIRECTION('',(0.,0.,1.));
#715=DIRECTION('',(1.,0.,0.));
#716=CONSTRUCTIVE_GEOMETRY_REPRESENTATION_RELATIONSHIP('coordinate systems',$,#19,#717);
#717=CONSTRUCTIVE_GEOMETRY_REPRESENTATION('coordinate systems',(#704, #708, #712),#689);
ENDSEC;
END-ISO-10303-21;

