ISO-10303-21;
HEADER;
FILE_DESCRIPTION(
/* description */ (''),
/* implementation_level */ '2;1');
FILE_NAME(
/* name */ '262571540.stp',
/* time_stamp */ '2022-04-27T13:59:25',
/* author */ ('LRA'),
/* organization */ ('REGO-FIX'),
/* preprocessor_version */ ' Unknown',
/* originating_system */ 'SIEMENS PLM Software Solid Edge ST10',
/* authorization */ 'Unknown');
FILE_SCHEMA (('AUTOMOTIVE_DESIGN { 1 0 10303 214 2 1 1}'));
ENDSEC;
DATA;
#10=PROPERTY_DEFINITION_REPRESENTATION(#14,#12);
#11=PROPERTY_DEFINITION_REPRESENTATION(#15,#13);
#12=REPRESENTATION('',(#16),#733);
#13=REPRESENTATION('',(#17),#733);
#14=PROPERTY_DEFINITION('pmi validation property','',#738);
#15=PROPERTY_DEFINITION('pmi validation property','',#738);
#16=VALUE_REPRESENTATION_ITEM('number of annotations',COUNT_MEASURE(0.));
#17=VALUE_REPRESENTATION_ITEM('number of views',COUNT_MEASURE(0.));
#18=SHAPE_REPRESENTATION_RELATIONSHIP('','',#493,#19);
#19=ADVANCED_BREP_SHAPE_REPRESENTATION('',(#491),#733);
#20=TOROIDAL_SURFACE('',#525,10.15,0.4);
#21=TOROIDAL_SURFACE('',#526,10.15,0.4);
#22=TOROIDAL_SURFACE('',#529,11.2,0.8);
#23=TOROIDAL_SURFACE('',#538,8.195,0.8);
#24=TOROIDAL_SURFACE('',#539,7.25,1.);
#25=PLANE('',#505);
#26=PLANE('',#508);
#27=PLANE('',#516);
#28=PLANE('',#522);
#29=PLANE('',#533);
#30=CONICAL_SURFACE('',#501,12.,0.785398163397453);
#31=CONICAL_SURFACE('',#511,9.,1.0471975511966);
#32=CONICAL_SURFACE('',#527,11.55,0.78539816339745);
#33=CONICAL_SURFACE('',#528,12.,0.78539816339745);
#34=CONICAL_SURFACE('',#530,7.45,0.00500036830696404);
#35=CONICAL_SURFACE('',#537,7.5,1.0471975511966);
#36=CONICAL_SURFACE('',#543,6.25,1.0471975511966);
#37=CONICAL_SURFACE('',#545,11.65,0.785398163397438);
#38=ORIENTED_EDGE('',*,*,#90,.T.);
#39=ORIENTED_EDGE('',*,*,#91,.T.);
#40=ORIENTED_EDGE('',*,*,#92,.F.);
#41=ORIENTED_EDGE('',*,*,#93,.T.);
#42=ORIENTED_EDGE('',*,*,#94,.F.);
#43=ORIENTED_EDGE('',*,*,#92,.T.);
#44=ORIENTED_EDGE('',*,*,#95,.T.);
#45=ORIENTED_EDGE('',*,*,#94,.T.);
#46=ORIENTED_EDGE('',*,*,#96,.T.);
#47=ORIENTED_EDGE('',*,*,#97,.F.);
#48=ORIENTED_EDGE('',*,*,#98,.T.);
#49=ORIENTED_EDGE('',*,*,#99,.F.);
#50=ORIENTED_EDGE('',*,*,#100,.T.);
#51=ORIENTED_EDGE('',*,*,#99,.T.);
#52=ORIENTED_EDGE('',*,*,#101,.T.);
#53=ORIENTED_EDGE('',*,*,#102,.T.);
#54=ORIENTED_EDGE('',*,*,#103,.T.);
#55=ORIENTED_EDGE('',*,*,#104,.T.);
#56=ORIENTED_EDGE('',*,*,#105,.T.);
#57=ORIENTED_EDGE('',*,*,#106,.T.);
#58=ORIENTED_EDGE('',*,*,#107,.T.);
#59=ORIENTED_EDGE('',*,*,#108,.T.);
#60=ORIENTED_EDGE('',*,*,#106,.F.);
#61=ORIENTED_EDGE('',*,*,#108,.F.);
#62=ORIENTED_EDGE('',*,*,#104,.F.);
#63=ORIENTED_EDGE('',*,*,#105,.F.);
#64=ORIENTED_EDGE('',*,*,#102,.F.);
#65=ORIENTED_EDGE('',*,*,#103,.F.);
#66=ORIENTED_EDGE('',*,*,#107,.F.);
#67=ORIENTED_EDGE('',*,*,#93,.F.);
#68=ORIENTED_EDGE('',*,*,#100,.F.);
#69=ORIENTED_EDGE('',*,*,#101,.F.);
#70=ORIENTED_EDGE('',*,*,#109,.T.);
#71=ORIENTED_EDGE('',*,*,#110,.T.);
#72=ORIENTED_EDGE('',*,*,#111,.T.);
#73=ORIENTED_EDGE('',*,*,#109,.F.);
#74=ORIENTED_EDGE('',*,*,#112,.T.);
#75=ORIENTED_EDGE('',*,*,#111,.F.);
#76=ORIENTED_EDGE('',*,*,#90,.F.);
#77=ORIENTED_EDGE('',*,*,#112,.F.);
#78=ORIENTED_EDGE('',*,*,#110,.F.);
#79=ORIENTED_EDGE('',*,*,#98,.F.);
#80=ORIENTED_EDGE('',*,*,#113,.F.);
#81=ORIENTED_EDGE('',*,*,#97,.T.);
#82=ORIENTED_EDGE('',*,*,#114,.F.);
#83=ORIENTED_EDGE('',*,*,#113,.T.);
#84=ORIENTED_EDGE('',*,*,#115,.T.);
#85=ORIENTED_EDGE('',*,*,#114,.T.);
#86=ORIENTED_EDGE('',*,*,#95,.F.);
#87=ORIENTED_EDGE('',*,*,#96,.F.);
#88=ORIENTED_EDGE('',*,*,#91,.F.);
#89=ORIENTED_EDGE('',*,*,#115,.F.);
#90=EDGE_CURVE('',#116,#116,#142,.T.);
#91=EDGE_CURVE('',#117,#117,#143,.T.);
#92=EDGE_CURVE('',#118,#118,#144,.T.);
#93=EDGE_CURVE('',#119,#119,#145,.T.);
#94=EDGE_CURVE('',#120,#120,#146,.T.);
#95=EDGE_CURVE('',#121,#121,#147,.T.);
#96=EDGE_CURVE('',#122,#122,#148,.F.);
#97=EDGE_CURVE('',#123,#123,#149,.T.);
#98=EDGE_CURVE('',#124,#124,#150,.T.);
#99=EDGE_CURVE('',#125,#125,#151,.T.);
#100=EDGE_CURVE('',#126,#126,#152,.T.);
#101=EDGE_CURVE('',#127,#127,#153,.F.);
#102=EDGE_CURVE('',#128,#128,#154,.T.);
#103=EDGE_CURVE('',#129,#129,#155,.F.);
#104=EDGE_CURVE('',#130,#130,#156,.T.);
#105=EDGE_CURVE('',#131,#131,#157,.F.);
#106=EDGE_CURVE('',#132,#132,#158,.F.);
#107=EDGE_CURVE('',#133,#133,#159,.F.);
#108=EDGE_CURVE('',#134,#134,#160,.T.);
#109=EDGE_CURVE('',#135,#135,#161,.T.);
#110=EDGE_CURVE('',#136,#136,#162,.F.);
#111=EDGE_CURVE('',#137,#137,#163,.T.);
#112=EDGE_CURVE('',#138,#138,#164,.T.);
#113=EDGE_CURVE('',#139,#139,#165,.T.);
#114=EDGE_CURVE('',#140,#140,#166,.T.);
#115=EDGE_CURVE('',#141,#141,#167,.F.);
#116=VERTEX_POINT('',#656);
#117=VERTEX_POINT('',#658);
#118=VERTEX_POINT('',#661);
#119=VERTEX_POINT('',#663);
#120=VERTEX_POINT('',#666);
#121=VERTEX_POINT('',#669);
#122=VERTEX_POINT('',#672);
#123=VERTEX_POINT('',#674);
#124=VERTEX_POINT('',#677);
#125=VERTEX_POINT('',#679);
#126=VERTEX_POINT('',#682);
#127=VERTEX_POINT('',#685);
#128=VERTEX_POINT('',#687);
#129=VERTEX_POINT('',#690);
#130=VERTEX_POINT('',#692);
#131=VERTEX_POINT('',#695);
#132=VERTEX_POINT('',#697);
#133=VERTEX_POINT('',#700);
#134=VERTEX_POINT('',#702);
#135=VERTEX_POINT('',#710);
#136=VERTEX_POINT('',#712);
#137=VERTEX_POINT('',#715);
#138=VERTEX_POINT('',#718);
#139=VERTEX_POINT('',#723);
#140=VERTEX_POINT('',#726);
#141=VERTEX_POINT('',#729);
#142=CIRCLE('',#496,5.4585);
#143=CIRCLE('',#497,5.4585);
#144=CIRCLE('',#499,12.);
#145=CIRCLE('',#500,12.);
#146=CIRCLE('',#502,12.5);
#147=CIRCLE('',#504,12.5);
#148=CIRCLE('',#506,11.65);
#149=CIRCLE('',#507,7.25);
#150=CIRCLE('',#509,8.01723611165369);
#151=CIRCLE('',#510,9.);
#152=CIRCLE('',#512,11.6);
#153=CIRCLE('',#514,12.);
#154=CIRCLE('',#515,12.);
#155=CIRCLE('',#517,11.55);
#156=CIRCLE('',#518,10.15);
#157=CIRCLE('',#520,9.75);
#158=CIRCLE('',#521,9.75);
#159=CIRCLE('',#523,11.55);
#160=CIRCLE('',#524,10.15);
#161=CIRCLE('',#531,7.26998524060279);
#162=CIRCLE('',#532,7.44752529317901);
#163=CIRCLE('',#534,7.5);
#164=CIRCLE('',#536,7.5);
#165=CIRCLE('',#540,6.25);
#166=CIRCLE('',#542,6.25);
#167=CIRCLE('',#544,5.4585);
#168=EDGE_LOOP('',(#38));
#169=EDGE_LOOP('',(#39));
#170=EDGE_LOOP('',(#40));
#171=EDGE_LOOP('',(#41));
#172=EDGE_LOOP('',(#42));
#173=EDGE_LOOP('',(#43));
#174=EDGE_LOOP('',(#44));
#175=EDGE_LOOP('',(#45));
#176=EDGE_LOOP('',(#46));
#177=EDGE_LOOP('',(#47));
#178=EDGE_LOOP('',(#48));
#179=EDGE_LOOP('',(#49));
#180=EDGE_LOOP('',(#50));
#181=EDGE_LOOP('',(#51));
#182=EDGE_LOOP('',(#52));
#183=EDGE_LOOP('',(#53));
#184=EDGE_LOOP('',(#54));
#185=EDGE_LOOP('',(#55));
#186=EDGE_LOOP('',(#56));
#187=EDGE_LOOP('',(#57));
#188=EDGE_LOOP('',(#58));
#189=EDGE_LOOP('',(#59));
#190=EDGE_LOOP('',(#60));
#191=EDGE_LOOP('',(#61));
#192=EDGE_LOOP('',(#62));
#193=EDGE_LOOP('',(#63));
#194=EDGE_LOOP('',(#64));
#195=EDGE_LOOP('',(#65));
#196=EDGE_LOOP('',(#66));
#197=EDGE_LOOP('',(#67));
#198=EDGE_LOOP('',(#68));
#199=EDGE_LOOP('',(#69));
#200=EDGE_LOOP('',(#70));
#201=EDGE_LOOP('',(#71));
#202=EDGE_LOOP('',(#72));
#203=EDGE_LOOP('',(#73));
#204=EDGE_LOOP('',(#74));
#205=EDGE_LOOP('',(#75));
#206=EDGE_LOOP('',(#76));
#207=EDGE_LOOP('',(#77));
#208=EDGE_LOOP('',(#78));
#209=EDGE_LOOP('',(#79));
#210=EDGE_LOOP('',(#80));
#211=EDGE_LOOP('',(#81));
#212=EDGE_LOOP('',(#82));
#213=EDGE_LOOP('',(#83));
#214=EDGE_LOOP('',(#84));
#215=EDGE_LOOP('',(#85));
#216=EDGE_LOOP('',(#86));
#217=EDGE_LOOP('',(#87));
#218=EDGE_LOOP('',(#88));
#219=EDGE_LOOP('',(#89));
#220=FACE_BOUND('',#168,.T.);
#221=FACE_BOUND('',#169,.T.);
#222=FACE_BOUND('',#170,.T.);
#223=FACE_BOUND('',#171,.T.);
#224=FACE_BOUND('',#172,.T.);
#225=FACE_BOUND('',#173,.T.);
#226=FACE_BOUND('',#174,.T.);
#227=FACE_BOUND('',#175,.T.);
#228=FACE_BOUND('',#176,.T.);
#229=FACE_BOUND('',#177,.T.);
#230=FACE_BOUND('',#178,.T.);
#231=FACE_BOUND('',#179,.T.);
#232=FACE_BOUND('',#180,.T.);
#233=FACE_BOUND('',#181,.T.);
#234=FACE_BOUND('',#182,.T.);
#235=FACE_BOUND('',#183,.T.);
#236=FACE_BOUND('',#184,.T.);
#237=FACE_BOUND('',#185,.T.);
#238=FACE_BOUND('',#186,.T.);
#239=FACE_BOUND('',#187,.T.);
#240=FACE_BOUND('',#188,.T.);
#241=FACE_BOUND('',#189,.T.);
#242=FACE_BOUND('',#190,.T.);
#243=FACE_BOUND('',#191,.T.);
#244=FACE_BOUND('',#192,.T.);
#245=FACE_BOUND('',#193,.T.);
#246=FACE_BOUND('',#194,.T.);
#247=FACE_BOUND('',#195,.T.);
#248=FACE_BOUND('',#196,.T.);
#249=FACE_BOUND('',#197,.T.);
#250=FACE_BOUND('',#198,.T.);
#251=FACE_BOUND('',#199,.T.);
#252=FACE_BOUND('',#200,.T.);
#253=FACE_BOUND('',#201,.T.);
#254=FACE_BOUND('',#202,.T.);
#255=FACE_BOUND('',#203,.T.);
#256=FACE_BOUND('',#204,.T.);
#257=FACE_BOUND('',#205,.T.);
#258=FACE_BOUND('',#206,.T.);
#259=FACE_BOUND('',#207,.T.);
#260=FACE_BOUND('',#208,.T.);
#261=FACE_BOUND('',#209,.T.);
#262=FACE_BOUND('',#210,.T.);
#263=FACE_BOUND('',#211,.T.);
#264=FACE_BOUND('',#212,.T.);
#265=FACE_BOUND('',#213,.T.);
#266=FACE_BOUND('',#214,.T.);
#267=FACE_BOUND('',#215,.T.);
#268=FACE_BOUND('',#216,.T.);
#269=FACE_BOUND('',#217,.T.);
#270=FACE_BOUND('',#218,.T.);
#271=FACE_BOUND('',#219,.T.);
#272=CYLINDRICAL_SURFACE('',#495,5.4585);
#273=CYLINDRICAL_SURFACE('',#498,12.);
#274=CYLINDRICAL_SURFACE('',#503,12.5);
#275=CYLINDRICAL_SURFACE('',#513,12.);
#276=CYLINDRICAL_SURFACE('',#519,9.75);
#277=CYLINDRICAL_SURFACE('',#535,7.5);
#278=CYLINDRICAL_SURFACE('',#541,6.25);
#279=CYLINDRICAL_SURFACE('',#546,5.4585);
#280=STYLED_ITEM('',(#306),#464);
#281=STYLED_ITEM('',(#307),#465);
#282=STYLED_ITEM('',(#308),#466);
#283=STYLED_ITEM('',(#309),#467);
#284=STYLED_ITEM('',(#310),#468);
#285=STYLED_ITEM('',(#311),#469);
#286=STYLED_ITEM('',(#312),#470);
#287=STYLED_ITEM('',(#313),#471);
#288=STYLED_ITEM('',(#314),#472);
#289=STYLED_ITEM('',(#315),#473);
#290=STYLED_ITEM('',(#316),#474);
#291=STYLED_ITEM('',(#317),#475);
#292=STYLED_ITEM('',(#318),#476);
#293=STYLED_ITEM('',(#319),#477);
#294=STYLED_ITEM('',(#320),#478);
#295=STYLED_ITEM('',(#321),#479);
#296=STYLED_ITEM('',(#322),#480);
#297=STYLED_ITEM('',(#323),#481);
#298=STYLED_ITEM('',(#324),#482);
#299=STYLED_ITEM('',(#325),#483);
#300=STYLED_ITEM('',(#326),#484);
#301=STYLED_ITEM('',(#327),#485);
#302=STYLED_ITEM('',(#328),#486);
#303=STYLED_ITEM('',(#329),#487);
#304=STYLED_ITEM('',(#330),#488);
#305=STYLED_ITEM('',(#331),#489);
#306=PRESENTATION_STYLE_ASSIGNMENT((#332));
#307=PRESENTATION_STYLE_ASSIGNMENT((#333));
#308=PRESENTATION_STYLE_ASSIGNMENT((#334));
#309=PRESENTATION_STYLE_ASSIGNMENT((#335));
#310=PRESENTATION_STYLE_ASSIGNMENT((#336));
#311=PRESENTATION_STYLE_ASSIGNMENT((#337));
#312=PRESENTATION_STYLE_ASSIGNMENT((#338));
#313=PRESENTATION_STYLE_ASSIGNMENT((#339));
#314=PRESENTATION_STYLE_ASSIGNMENT((#340));
#315=PRESENTATION_STYLE_ASSIGNMENT((#341));
#316=PRESENTATION_STYLE_ASSIGNMENT((#342));
#317=PRESENTATION_STYLE_ASSIGNMENT((#343));
#318=PRESENTATION_STYLE_ASSIGNMENT((#344));
#319=PRESENTATION_STYLE_ASSIGNMENT((#345));
#320=PRESENTATION_STYLE_ASSIGNMENT((#346));
#321=PRESENTATION_STYLE_ASSIGNMENT((#347));
#322=PRESENTATION_STYLE_ASSIGNMENT((#348));
#323=PRESENTATION_STYLE_ASSIGNMENT((#349));
#324=PRESENTATION_STYLE_ASSIGNMENT((#350));
#325=PRESENTATION_STYLE_ASSIGNMENT((#351));
#326=PRESENTATION_STYLE_ASSIGNMENT((#352));
#327=PRESENTATION_STYLE_ASSIGNMENT((#353));
#328=PRESENTATION_STYLE_ASSIGNMENT((#354));
#329=PRESENTATION_STYLE_ASSIGNMENT((#355));
#330=PRESENTATION_STYLE_ASSIGNMENT((#356));
#331=PRESENTATION_STYLE_ASSIGNMENT((#357));
#332=SURFACE_STYLE_USAGE(.BOTH.,#358);
#333=SURFACE_STYLE_USAGE(.BOTH.,#359);
#334=SURFACE_STYLE_USAGE(.BOTH.,#360);
#335=SURFACE_STYLE_USAGE(.BOTH.,#361);
#336=SURFACE_STYLE_USAGE(.BOTH.,#362);
#337=SURFACE_STYLE_USAGE(.BOTH.,#363);
#338=SURFACE_STYLE_USAGE(.BOTH.,#364);
#339=SURFACE_STYLE_USAGE(.BOTH.,#365);
#340=SURFACE_STYLE_USAGE(.BOTH.,#366);
#341=SURFACE_STYLE_USAGE(.BOTH.,#367);
#342=SURFACE_STYLE_USAGE(.BOTH.,#368);
#343=SURFACE_STYLE_USAGE(.BOTH.,#369);
#344=SURFACE_STYLE_USAGE(.BOTH.,#370);
#345=SURFACE_STYLE_USAGE(.BOTH.,#371);
#346=SURFACE_STYLE_USAGE(.BOTH.,#372);
#347=SURFACE_STYLE_USAGE(.BOTH.,#373);
#348=SURFACE_STYLE_USAGE(.BOTH.,#374);
#349=SURFACE_STYLE_USAGE(.BOTH.,#375);
#350=SURFACE_STYLE_USAGE(.BOTH.,#376);
#351=SURFACE_STYLE_USAGE(.BOTH.,#377);
#352=SURFACE_STYLE_USAGE(.BOTH.,#378);
#353=SURFACE_STYLE_USAGE(.BOTH.,#379);
#354=SURFACE_STYLE_USAGE(.BOTH.,#380);
#355=SURFACE_STYLE_USAGE(.BOTH.,#381);
#356=SURFACE_STYLE_USAGE(.BOTH.,#382);
#357=SURFACE_STYLE_USAGE(.BOTH.,#383);
#358=SURFACE_SIDE_STYLE('',(#384));
#359=SURFACE_SIDE_STYLE('',(#385));
#360=SURFACE_SIDE_STYLE('',(#386));
#361=SURFACE_SIDE_STYLE('',(#387));
#362=SURFACE_SIDE_STYLE('',(#388));
#363=SURFACE_SIDE_STYLE('',(#389));
#364=SURFACE_SIDE_STYLE('',(#390));
#365=SURFACE_SIDE_STYLE('',(#391));
#366=SURFACE_SIDE_STYLE('',(#392));
#367=SURFACE_SIDE_STYLE('',(#393));
#368=SURFACE_SIDE_STYLE('',(#394));
#369=SURFACE_SIDE_STYLE('',(#395));
#370=SURFACE_SIDE_STYLE('',(#396));
#371=SURFACE_SIDE_STYLE('',(#397));
#372=SURFACE_SIDE_STYLE('',(#398));
#373=SURFACE_SIDE_STYLE('',(#399));
#374=SURFACE_SIDE_STYLE('',(#400));
#375=SURFACE_SIDE_STYLE('',(#401));
#376=SURFACE_SIDE_STYLE('',(#402));
#377=SURFACE_SIDE_STYLE('',(#403));
#378=SURFACE_SIDE_STYLE('',(#404));
#379=SURFACE_SIDE_STYLE('',(#405));
#380=SURFACE_SIDE_STYLE('',(#406));
#381=SURFACE_SIDE_STYLE('',(#407));
#382=SURFACE_SIDE_STYLE('',(#408));
#383=SURFACE_SIDE_STYLE('',(#409));
#384=SURFACE_STYLE_FILL_AREA(#410);
#385=SURFACE_STYLE_FILL_AREA(#411);
#386=SURFACE_STYLE_FILL_AREA(#412);
#387=SURFACE_STYLE_FILL_AREA(#413);
#388=SURFACE_STYLE_FILL_AREA(#414);
#389=SURFACE_STYLE_FILL_AREA(#415);
#390=SURFACE_STYLE_FILL_AREA(#416);
#391=SURFACE_STYLE_FILL_AREA(#417);
#392=SURFACE_STYLE_FILL_AREA(#418);
#393=SURFACE_STYLE_FILL_AREA(#419);
#394=SURFACE_STYLE_FILL_AREA(#420);
#395=SURFACE_STYLE_FILL_AREA(#421);
#396=SURFACE_STYLE_FILL_AREA(#422);
#397=SURFACE_STYLE_FILL_AREA(#423);
#398=SURFACE_STYLE_FILL_AREA(#424);
#399=SURFACE_STYLE_FILL_AREA(#425);
#400=SURFACE_STYLE_FILL_AREA(#426);
#401=SURFACE_STYLE_FILL_AREA(#427);
#402=SURFACE_STYLE_FILL_AREA(#428);
#403=SURFACE_STYLE_FILL_AREA(#429);
#404=SURFACE_STYLE_FILL_AREA(#430);
#405=SURFACE_STYLE_FILL_AREA(#431);
#406=SURFACE_STYLE_FILL_AREA(#432);
#407=SURFACE_STYLE_FILL_AREA(#433);
#408=SURFACE_STYLE_FILL_AREA(#434);
#409=SURFACE_STYLE_FILL_AREA(#435);
#410=FILL_AREA_STYLE('',(#436));
#411=FILL_AREA_STYLE('',(#437));
#412=FILL_AREA_STYLE('',(#438));
#413=FILL_AREA_STYLE('',(#439));
#414=FILL_AREA_STYLE('',(#440));
#415=FILL_AREA_STYLE('',(#441));
#416=FILL_AREA_STYLE('',(#442));
#417=FILL_AREA_STYLE('',(#443));
#418=FILL_AREA_STYLE('',(#444));
#419=FILL_AREA_STYLE('',(#445));
#420=FILL_AREA_STYLE('',(#446));
#421=FILL_AREA_STYLE('',(#447));
#422=FILL_AREA_STYLE('',(#448));
#423=FILL_AREA_STYLE('',(#449));
#424=FILL_AREA_STYLE('',(#450));
#425=FILL_AREA_STYLE('',(#451));
#426=FILL_AREA_STYLE('',(#452));
#427=FILL_AREA_STYLE('',(#453));
#428=FILL_AREA_STYLE('',(#454));
#429=FILL_AREA_STYLE('',(#455));
#430=FILL_AREA_STYLE('',(#456));
#431=FILL_AREA_STYLE('',(#457));
#432=FILL_AREA_STYLE('',(#458));
#433=FILL_AREA_STYLE('',(#459));
#434=FILL_AREA_STYLE('',(#460));
#435=FILL_AREA_STYLE('',(#461));
#436=FILL_AREA_STYLE_COLOUR('',#462);
#437=FILL_AREA_STYLE_COLOUR('',#462);
#438=FILL_AREA_STYLE_COLOUR('',#462);
#439=FILL_AREA_STYLE_COLOUR('',#462);
#440=FILL_AREA_STYLE_COLOUR('',#462);
#441=FILL_AREA_STYLE_COLOUR('',#462);
#442=FILL_AREA_STYLE_COLOUR('',#462);
#443=FILL_AREA_STYLE_COLOUR('',#462);
#444=FILL_AREA_STYLE_COLOUR('',#462);
#445=FILL_AREA_STYLE_COLOUR('',#462);
#446=FILL_AREA_STYLE_COLOUR('',#462);
#447=FILL_AREA_STYLE_COLOUR('',#462);
#448=FILL_AREA_STYLE_COLOUR('',#462);
#449=FILL_AREA_STYLE_COLOUR('',#462);
#450=FILL_AREA_STYLE_COLOUR('',#462);
#451=FILL_AREA_STYLE_COLOUR('',#462);
#452=FILL_AREA_STYLE_COLOUR('',#462);
#453=FILL_AREA_STYLE_COLOUR('',#462);
#454=FILL_AREA_STYLE_COLOUR('',#462);
#455=FILL_AREA_STYLE_COLOUR('',#462);
#456=FILL_AREA_STYLE_COLOUR('',#462);
#457=FILL_AREA_STYLE_COLOUR('',#462);
#458=FILL_AREA_STYLE_COLOUR('',#462);
#459=FILL_AREA_STYLE_COLOUR('',#462);
#460=FILL_AREA_STYLE_COLOUR('',#462);
#461=FILL_AREA_STYLE_COLOUR('',#463);
#462=COLOUR_RGB( ' ', 0.5, 0.5, 0.5 );
#463=COLOUR_RGB( ' ', 0.5, 0.5, 0.5 );
#464=ADVANCED_FACE('',(#220,#221),#272,.F.);
#465=ADVANCED_FACE('',(#222,#223),#273,.T.);
#466=ADVANCED_FACE('',(#224,#225),#30,.T.);
#467=ADVANCED_FACE('',(#226,#227),#274,.T.);
#468=ADVANCED_FACE('',(#228,#229),#25,.F.);
#469=ADVANCED_FACE('',(#230,#231),#26,.F.);
#470=ADVANCED_FACE('',(#232,#233),#31,.T.);
#471=ADVANCED_FACE('',(#234,#235),#275,.T.);
#472=ADVANCED_FACE('',(#236,#237),#27,.F.);
#473=ADVANCED_FACE('',(#238,#239),#276,.T.);
#474=ADVANCED_FACE('',(#240,#241),#28,.F.);
#475=ADVANCED_FACE('',(#242,#243),#20,.F.);
#476=ADVANCED_FACE('',(#244,#245),#21,.F.);
#477=ADVANCED_FACE('',(#246,#247),#32,.T.);
#478=ADVANCED_FACE('',(#248,#249),#33,.T.);
#479=ADVANCED_FACE('',(#250,#251),#22,.T.);
#480=ADVANCED_FACE('',(#252,#253),#34,.F.);
#481=ADVANCED_FACE('',(#254,#255),#29,.T.);
#482=ADVANCED_FACE('',(#256,#257),#277,.F.);
#483=ADVANCED_FACE('',(#258,#259),#35,.F.);
#484=ADVANCED_FACE('',(#260,#261),#23,.T.);
#485=ADVANCED_FACE('',(#262,#263),#24,.T.);
#486=ADVANCED_FACE('',(#264,#265),#278,.F.);
#487=ADVANCED_FACE('',(#266,#267),#36,.F.);
#488=ADVANCED_FACE('',(#268,#269),#37,.T.);
#489=ADVANCED_FACE('',(#270,#271),#279,.F.);
#490=CLOSED_SHELL('',(#464,#465,#466,#467,#468,#469,#470,#471,#472,#473,
#474,#475,#476,#477,#478,#479,#480,#481,#482,#483,#484,#485,#486,#487,#488,
#489));
#491=MANIFOLD_SOLID_BREP('NOCUT',#490);
#492=SHAPE_DEFINITION_REPRESENTATION(#738,#493);
#493=SHAPE_REPRESENTATION('262571540',(#494),#733);
#494=AXIS2_PLACEMENT_3D('',#653,#547,#548);
#495=AXIS2_PLACEMENT_3D('',#654,#549,#550);
#496=AXIS2_PLACEMENT_3D('',#655,#551,#552);
#497=AXIS2_PLACEMENT_3D('',#657,#553,#554);
#498=AXIS2_PLACEMENT_3D('',#659,#555,#556);
#499=AXIS2_PLACEMENT_3D('',#660,#557,#558);
#500=AXIS2_PLACEMENT_3D('',#662,#559,#560);
#501=AXIS2_PLACEMENT_3D('',#664,#561,#562);
#502=AXIS2_PLACEMENT_3D('',#665,#563,#564);
#503=AXIS2_PLACEMENT_3D('',#667,#565,#566);
#504=AXIS2_PLACEMENT_3D('',#668,#567,#568);
#505=AXIS2_PLACEMENT_3D('',#670,#569,#570);
#506=AXIS2_PLACEMENT_3D('',#671,#571,#572);
#507=AXIS2_PLACEMENT_3D('',#673,#573,#574);
#508=AXIS2_PLACEMENT_3D('',#675,#575,#576);
#509=AXIS2_PLACEMENT_3D('',#676,#577,#578);
#510=AXIS2_PLACEMENT_3D('',#678,#579,#580);
#511=AXIS2_PLACEMENT_3D('',#680,#581,#582);
#512=AXIS2_PLACEMENT_3D('',#681,#583,#584);
#513=AXIS2_PLACEMENT_3D('',#683,#585,#586);
#514=AXIS2_PLACEMENT_3D('',#684,#587,#588);
#515=AXIS2_PLACEMENT_3D('',#686,#589,#590);
#516=AXIS2_PLACEMENT_3D('',#688,#591,#592);
#517=AXIS2_PLACEMENT_3D('',#689,#593,#594);
#518=AXIS2_PLACEMENT_3D('',#691,#595,#596);
#519=AXIS2_PLACEMENT_3D('',#693,#597,#598);
#520=AXIS2_PLACEMENT_3D('',#694,#599,#600);
#521=AXIS2_PLACEMENT_3D('',#696,#601,#602);
#522=AXIS2_PLACEMENT_3D('',#698,#603,#604);
#523=AXIS2_PLACEMENT_3D('',#699,#605,#606);
#524=AXIS2_PLACEMENT_3D('',#701,#607,#608);
#525=AXIS2_PLACEMENT_3D('',#703,#609,#610);
#526=AXIS2_PLACEMENT_3D('',#704,#611,#612);
#527=AXIS2_PLACEMENT_3D('',#705,#613,#614);
#528=AXIS2_PLACEMENT_3D('',#706,#615,#616);
#529=AXIS2_PLACEMENT_3D('',#707,#617,#618);
#530=AXIS2_PLACEMENT_3D('',#708,#619,#620);
#531=AXIS2_PLACEMENT_3D('',#709,#621,#622);
#532=AXIS2_PLACEMENT_3D('',#711,#623,#624);
#533=AXIS2_PLACEMENT_3D('',#713,#625,#626);
#534=AXIS2_PLACEMENT_3D('',#714,#627,#628);
#535=AXIS2_PLACEMENT_3D('',#716,#629,#630);
#536=AXIS2_PLACEMENT_3D('',#717,#631,#632);
#537=AXIS2_PLACEMENT_3D('',#719,#633,#634);
#538=AXIS2_PLACEMENT_3D('',#720,#635,#636);
#539=AXIS2_PLACEMENT_3D('',#721,#637,#638);
#540=AXIS2_PLACEMENT_3D('',#722,#639,#640);
#541=AXIS2_PLACEMENT_3D('',#724,#641,#642);
#542=AXIS2_PLACEMENT_3D('',#725,#643,#644);
#543=AXIS2_PLACEMENT_3D('',#727,#645,#646);
#544=AXIS2_PLACEMENT_3D('',#728,#647,#648);
#545=AXIS2_PLACEMENT_3D('',#730,#649,#650);
#546=AXIS2_PLACEMENT_3D('',#731,#651,#652);
#547=DIRECTION('',(0.,0.,1.));
#548=DIRECTION('',(1.,0.,0.));
#549=DIRECTION('',(0.,0.,-1.));
#550=DIRECTION('',(1.,0.,0.));
#551=DIRECTION('',(0.,0.,-1.));
#552=DIRECTION('',(-1.,0.,0.));
#553=DIRECTION('',(0.,0.,1.));
#554=DIRECTION('',(1.,0.,0.));
#555=DIRECTION('',(0.,0.,1.));
#556=DIRECTION('',(1.,0.,0.));
#557=DIRECTION('',(0.,0.,1.));
#558=DIRECTION('',(1.,0.,0.));
#559=DIRECTION('',(0.,0.,1.));
#560=DIRECTION('',(1.,0.,0.));
#561=DIRECTION('',(0.,0.,1.));
#562=DIRECTION('',(1.,0.,0.));
#563=DIRECTION('',(0.,0.,1.));
#564=DIRECTION('',(1.,0.,0.));
#565=DIRECTION('',(0.,0.,1.));
#566=DIRECTION('',(1.,0.,0.));
#567=DIRECTION('',(0.,0.,-1.));
#568=DIRECTION('',(-1.,0.,0.));
#569=DIRECTION('',(0.,0.,-1.));
#570=DIRECTION('',(-1.,0.,0.));
#571=DIRECTION('',(0.,0.,-1.));
#572=DIRECTION('',(-1.,0.,0.));
#573=DIRECTION('',(0.,0.,1.));
#574=DIRECTION('',(1.,0.,0.));
#575=DIRECTION('',(0.,0.,1.));
#576=DIRECTION('',(1.,0.,0.));
#577=DIRECTION('',(0.,0.,1.));
#578=DIRECTION('',(1.,0.,0.));
#579=DIRECTION('',(0.,0.,1.));
#580=DIRECTION('',(1.,0.,0.));
#581=DIRECTION('',(0.,0.,1.));
#582=DIRECTION('',(1.,0.,0.));
#583=DIRECTION('',(0.,0.,-1.));
#584=DIRECTION('',(-1.,0.,0.));
#585=DIRECTION('',(0.,0.,1.));
#586=DIRECTION('',(1.,0.,0.));
#587=DIRECTION('',(0.,0.,-1.));
#588=DIRECTION('',(-1.,0.,0.));
#589=DIRECTION('',(0.,0.,-1.));
#590=DIRECTION('',(-1.,0.,0.));
#591=DIRECTION('',(0.,0.,-1.));
#592=DIRECTION('',(-1.,0.,0.));
#593=DIRECTION('',(0.,0.,-1.));
#594=DIRECTION('',(-1.,0.,0.));
#595=DIRECTION('',(0.,0.,-1.));
#596=DIRECTION('',(-1.,0.,0.));
#597=DIRECTION('',(0.,0.,1.));
#598=DIRECTION('',(1.,0.,0.));
#599=DIRECTION('',(0.,0.,-1.));
#600=DIRECTION('',(-1.,0.,0.));
#601=DIRECTION('',(0.,0.,1.));
#602=DIRECTION('',(1.,0.,0.));
#603=DIRECTION('',(0.,0.,1.));
#604=DIRECTION('',(1.,0.,0.));
#605=DIRECTION('',(0.,0.,1.));
#606=DIRECTION('',(1.,0.,0.));
#607=DIRECTION('',(0.,0.,1.));
#608=DIRECTION('',(1.,0.,0.));
#609=DIRECTION('',(0.,0.,1.));
#610=DIRECTION('',(1.,0.,0.));
#611=DIRECTION('',(0.,0.,-1.));
#612=DIRECTION('',(-1.,0.,0.));
#613=DIRECTION('',(0.,0.,-1.));
#614=DIRECTION('',(-1.,0.,0.));
#615=DIRECTION('',(0.,0.,1.));
#616=DIRECTION('',(1.,0.,0.));
#617=DIRECTION('',(0.,0.,-1.));
#618=DIRECTION('',(-1.,0.,0.));
#619=DIRECTION('',(0.,0.,-1.));
#620=DIRECTION('',(-1.,0.,0.));
#621=DIRECTION('',(0.,0.,1.));
#622=DIRECTION('',(1.,0.,0.));
#623=DIRECTION('',(0.,0.,1.));
#624=DIRECTION('',(1.,0.,0.));
#625=DIRECTION('',(0.,0.,1.));
#626=DIRECTION('',(1.,0.,0.));
#627=DIRECTION('',(0.,0.,1.));
#628=DIRECTION('',(1.,0.,0.));
#629=DIRECTION('',(0.,0.,1.));
#630=DIRECTION('',(1.,0.,0.));
#631=DIRECTION('',(0.,0.,1.));
#632=DIRECTION('',(1.,0.,0.));
#633=DIRECTION('',(0.,0.,-1.));
#634=DIRECTION('',(-1.,0.,0.));
#635=DIRECTION('',(0.,0.,1.));
#636=DIRECTION('',(1.,0.,0.));
#637=DIRECTION('',(0.,0.,1.));
#638=DIRECTION('',(1.,0.,0.));
#639=DIRECTION('',(0.,0.,1.));
#640=DIRECTION('',(1.,0.,0.));
#641=DIRECTION('',(0.,0.,1.));
#642=DIRECTION('',(1.,0.,0.));
#643=DIRECTION('',(0.,0.,1.));
#644=DIRECTION('',(1.,0.,0.));
#645=DIRECTION('',(0.,0.,1.));
#646=DIRECTION('',(1.,0.,0.));
#647=DIRECTION('',(0.,0.,1.));
#648=DIRECTION('',(1.,0.,0.));
#649=DIRECTION('',(0.,0.,-1.));
#650=DIRECTION('',(-1.,0.,0.));
#651=DIRECTION('',(0.,0.,-1.));
#652=DIRECTION('',(1.,0.,0.));
#653=CARTESIAN_POINT('',(0.,0.,0.));
#654=CARTESIAN_POINT('',(0.,0.,210.));
#655=CARTESIAN_POINT('',(0.,0.,55.6786605745506));
#656=CARTESIAN_POINT('',(-5.4585,0.,55.6786605745506));
#657=CARTESIAN_POINT('',(0.,0.,185.));
#658=CARTESIAN_POINT('',(5.4585,0.,185.));
#659=CARTESIAN_POINT('',(0.,0.,50.));
#660=CARTESIAN_POINT('',(0.,0.,44.));
#661=CARTESIAN_POINT('',(12.,0.,44.));
#662=CARTESIAN_POINT('',(0.,0.,14.55));
#663=CARTESIAN_POINT('',(12.,0.,14.55));
#664=CARTESIAN_POINT('',(0.,0.,44.));
#665=CARTESIAN_POINT('',(0.,0.,44.5));
#666=CARTESIAN_POINT('',(12.5,0.,44.5));
#667=CARTESIAN_POINT('',(0.,0.,50.));
#668=CARTESIAN_POINT('',(0.,0.,209.15));
#669=CARTESIAN_POINT('',(-12.5,0.,209.15));
#670=CARTESIAN_POINT('',(12.5,0.,210.));
#671=CARTESIAN_POINT('',(0.,0.,210.));
#672=CARTESIAN_POINT('',(-11.65,0.,210.));
#673=CARTESIAN_POINT('',(0.,0.,210.));
#674=CARTESIAN_POINT('',(7.25,0.,210.));
#675=CARTESIAN_POINT('',(0.,0.,4.5));
#676=CARTESIAN_POINT('',(0.,0.,4.5));
#677=CARTESIAN_POINT('',(8.01723611165369,0.,4.5));
#678=CARTESIAN_POINT('',(0.,0.,4.5));
#679=CARTESIAN_POINT('',(9.,0.,4.5));
#680=CARTESIAN_POINT('',(0.,0.,4.5));
#681=CARTESIAN_POINT('',(0.,0.,6.00111069989303));
#682=CARTESIAN_POINT('',(-11.6,0.,6.00111069989303));
#683=CARTESIAN_POINT('',(0.,0.,34.5));
#684=CARTESIAN_POINT('',(0.,0.,6.69393102292058));
#685=CARTESIAN_POINT('',(-12.,0.,6.69393102292058));
#686=CARTESIAN_POINT('',(0.,0.,9.05));
#687=CARTESIAN_POINT('',(-12.,0.,9.05));
#688=CARTESIAN_POINT('',(12.,0.,9.5));
#689=CARTESIAN_POINT('',(0.,0.,9.5));
#690=CARTESIAN_POINT('',(-11.55,0.,9.5));
#691=CARTESIAN_POINT('',(0.,0.,9.5));
#692=CARTESIAN_POINT('',(-10.15,0.,9.5));
#693=CARTESIAN_POINT('',(0.,0.,34.5));
#694=CARTESIAN_POINT('',(0.,0.,9.9));
#695=CARTESIAN_POINT('',(-9.75,0.,9.9));
#696=CARTESIAN_POINT('',(0.,0.,13.7));
#697=CARTESIAN_POINT('',(9.75,0.,13.7));
#698=CARTESIAN_POINT('',(9.75,0.,14.1));
#699=CARTESIAN_POINT('',(0.,0.,14.1));
#700=CARTESIAN_POINT('',(11.55,0.,14.1));
#701=CARTESIAN_POINT('',(0.,0.,14.1));
#702=CARTESIAN_POINT('',(10.15,0.,14.1));
#703=CARTESIAN_POINT('',(0.,0.,13.7));
#704=CARTESIAN_POINT('',(0.,0.,9.9));
#705=CARTESIAN_POINT('',(0.,0.,9.5));
#706=CARTESIAN_POINT('',(0.,0.,14.55));
#707=CARTESIAN_POINT('',(0.,0.,6.69393102292058));
#708=CARTESIAN_POINT('',(0.,0.,4.5));
#709=CARTESIAN_POINT('',(0.,0.,40.5));
#710=CARTESIAN_POINT('',(7.26998524060279,0.,40.5));
#711=CARTESIAN_POINT('',(0.,0.,4.99490078399168));
#712=CARTESIAN_POINT('',(7.44752529317901,0.,4.99490078399168));
#713=CARTESIAN_POINT('',(7.26998524060279,0.,40.5));
#714=CARTESIAN_POINT('',(0.,0.,40.5));
#715=CARTESIAN_POINT('',(7.5,0.,40.5));
#716=CARTESIAN_POINT('',(0.,0.,54.5301270189222));
#717=CARTESIAN_POINT('',(0.,0.,54.5));
#718=CARTESIAN_POINT('',(7.5,0.,54.5));
#719=CARTESIAN_POINT('',(0.,0.,54.5));
#720=CARTESIAN_POINT('',(0.,0.,5.28));
#721=CARTESIAN_POINT('',(0.,0.,209.));
#722=CARTESIAN_POINT('',(0.,0.,209.));
#723=CARTESIAN_POINT('',(6.25,0.,209.));
#724=CARTESIAN_POINT('',(0.,0.,270.));
#725=CARTESIAN_POINT('',(0.,0.,205.));
#726=CARTESIAN_POINT('',(6.25,0.,205.));
#727=CARTESIAN_POINT('',(0.,0.,205.));
#728=CARTESIAN_POINT('',(0.,0.,204.543027261936));
#729=CARTESIAN_POINT('',(5.4585,0.,204.543027261936));
#730=CARTESIAN_POINT('',(0.,0.,210.));
#731=CARTESIAN_POINT('',(0.,0.,210.));
#732=MECHANICAL_DESIGN_GEOMETRIC_PRESENTATION_REPRESENTATION('',(#280,#281,
#282,#283,#284,#285,#286,#287,#288,#289,#290,#291,#292,#293,#294,#295,#296,
#297,#298,#299,#300,#301,#302,#303,#304,#305),#733);
#733=(
GEOMETRIC_REPRESENTATION_CONTEXT(3)
GLOBAL_UNCERTAINTY_ASSIGNED_CONTEXT((#734))
GLOBAL_UNIT_ASSIGNED_CONTEXT((#737,#736,#735))
REPRESENTATION_CONTEXT('262571540','TOP_LEVEL_ASSEMBLY_PART')
);
#734=UNCERTAINTY_MEASURE_WITH_UNIT(LENGTH_MEASURE(0.005),#737,
'DISTANCE_ACCURACY_VALUE','Maximum Tolerance applied to model');
#735=(
NAMED_UNIT(*)
SI_UNIT($,.STERADIAN.)
SOLID_ANGLE_UNIT()
);
#736=(
NAMED_UNIT(*)
PLANE_ANGLE_UNIT()
SI_UNIT($,.RADIAN.)
);
#737=(
LENGTH_UNIT()
NAMED_UNIT(*)
SI_UNIT(.MILLI.,.METRE.)
);
#738=PRODUCT_DEFINITION_SHAPE('','',#739);
#739=PRODUCT_DEFINITION('','',#741,#740);
#740=PRODUCT_DEFINITION_CONTEXT('',#747,'design');
#741=PRODUCT_DEFINITION_FORMATION_WITH_SPECIFIED_SOURCE('','',#743,
 .NOT_KNOWN.);
#742=PRODUCT_RELATED_PRODUCT_CATEGORY('','',(#743));
#743=PRODUCT('NOCUT','NOCUT','NOCUT',(#745));
#744=PRODUCT_CATEGORY('','');
#745=PRODUCT_CONTEXT('',#747,'mechanical');
#746=APPLICATION_PROTOCOL_DEFINITION('international standard',
'automotive_design',2010,#747);
#747=APPLICATION_CONTEXT(
'core data for automotive mechanical design processes');
#748=AXIS2_PLACEMENT_3D('PCS',#749,#750,#751);
#749=CARTESIAN_POINT('',(0.,0.,160.));
#750=DIRECTION('',(0.,0.,1.));
#751=DIRECTION('',(1.,0.,0.));
#752=AXIS2_PLACEMENT_3D('MCS',#753,#754,#755);
#753=CARTESIAN_POINT('',(0.,0.,160.));
#754=DIRECTION('',(0.,0.,1.));
#755=DIRECTION('',(1.,0.,0.));
#756=AXIS2_PLACEMENT_3D('CSW',#757,#758,#759);
#757=CARTESIAN_POINT('',(0.,0.,4.5));
#758=DIRECTION('',(0.,0.,1.));
#759=DIRECTION('',(1.,0.,0.));
#760=CONSTRUCTIVE_GEOMETRY_REPRESENTATION_RELATIONSHIP('coordinate systems',$,#19,#761);
#761=CONSTRUCTIVE_GEOMETRY_REPRESENTATION('coordinate systems',(#748, #752, #756),#733);
ENDSEC;
END-ISO-10303-21;

