ISO-10303-21;
HEADER;
FILE_DESCRIPTION(
/* description */ (''),
/* implementation_level */ '2;1');
FILE_NAME(
/* name */ '263212532.stp',
/* time_stamp */ '2021-01-19T15:42:03',
/* author */ ('LRA'),
/* organization */ ('REGO-FIX'),
/* preprocessor_version */ ' Unknown',
/* originating_system */ 'SIEMENS PLM Software Solid Edge ST10',
/* authorization */ 'Unknown');
FILE_SCHEMA (('AUTOMOTIVE_DESIGN { 1 0 10303 214 2 1 1}'));
ENDSEC;
DATA;
#10=PROPERTY_DEFINITION_REPRESENTATION(#14,#12);
#11=PROPERTY_DEFINITION_REPRESENTATION(#15,#13);
#12=REPRESENTATION('',(#16),#690);
#13=REPRESENTATION('',(#17),#690);
#14=PROPERTY_DEFINITION('pmi validation property','',#695);
#15=PROPERTY_DEFINITION('pmi validation property','',#695);
#16=VALUE_REPRESENTATION_ITEM('number of annotations',COUNT_MEASURE(0.));
#17=VALUE_REPRESENTATION_ITEM('number of views',COUNT_MEASURE(0.));
#18=SHAPE_REPRESENTATION_RELATIONSHIP('','',#452,#19);
#19=ADVANCED_BREP_SHAPE_REPRESENTATION('',(#450),#690);
#20=PLANE('',#468);
#21=PLANE('',#472);
#22=PLANE('',#491);
#23=PLANE('',#492);
#24=PLANE('',#493);
#25=TOROIDAL_SURFACE('',#463,16.4,0.8);
#26=TOROIDAL_SURFACE('',#483,13.2094834737232,0.8);
#27=TOROIDAL_SURFACE('',#489,10.25,1.);
#28=B_SPLINE_CURVE_WITH_KNOTS('',3,(#596,#597,#598,#599),.UNSPECIFIED.,
 .F.,.F.,(4,4),(0.0208708393555656,0.0224784951453545),.UNSPECIFIED.);
#29=B_SPLINE_CURVE_WITH_KNOTS('',3,(#601,#602,#603,#604),.UNSPECIFIED.,
 .F.,.F.,(4,4),(0.0415621379036579,0.043166340095575),.UNSPECIFIED.);
#30=B_SPLINE_CURVE_WITH_KNOTS('',3,(#608,#609,#610,#611),.UNSPECIFIED.,
 .F.,.F.,(4,4),(0.0208708393555657,0.0224784951453622),.UNSPECIFIED.);
#31=B_SPLINE_CURVE_WITH_KNOTS('',3,(#616,#617,#618,#619),.UNSPECIFIED.,
 .F.,.F.,(4,4),(0.041562137903658,0.0431663400955751),.UNSPECIFIED.);
#32=B_SPLINE_CURVE_WITH_KNOTS('',3,(#623,#624,#625,#626),.UNSPECIFIED.,
 .F.,.F.,(4,4),(0.00357000258606952,0.004002899113009),.UNSPECIFIED.);
#33=B_SPLINE_CURVE_WITH_KNOTS('',3,(#627,#628,#629,#630),.UNSPECIFIED.,
 .F.,.F.,(4,4),(0.00740259276125429,0.00783789618639278),.UNSPECIFIED.);
#34=B_SPLINE_CURVE_WITH_KNOTS('',3,(#641,#642,#643,#644),.UNSPECIFIED.,
 .F.,.F.,(4,4),(7.152448122691E-18,0.00143839703506524),.UNSPECIFIED.);
#35=B_SPLINE_CURVE_WITH_KNOTS('',3,(#645,#646,#647,#648),.UNSPECIFIED.,
 .F.,.F.,(4,4),(0.,0.00143839703506524),.UNSPECIFIED.);
#36=CONICAL_SURFACE('',#458,16.2773596962246,0.261799387799149);
#37=CONICAL_SURFACE('',#460,15.6272593389687,0.26179938779915);
#38=CONICAL_SURFACE('',#466,16.15,0.785398163397448);
#39=CONICAL_SURFACE('',#475,16.,0.785398163397448);
#40=CONICAL_SURFACE('',#476,0.,1.0471975511966);
#41=CONICAL_SURFACE('',#481,9.,0.139626340159547);
#42=CONICAL_SURFACE('',#484,9.25,1.0471975511966);
#43=ELLIPSE('',#456,22.6274169979695,16.);
#44=LINE('',#587,#51);
#45=LINE('',#592,#52);
#46=LINE('',#632,#53);
#47=LINE('',#634,#54);
#48=LINE('',#652,#55);
#49=LINE('',#685,#56);
#50=LINE('',#687,#57);
#51=VECTOR('',#500,1000.);
#52=VECTOR('',#503,1000.);
#53=VECTOR('',#520,1000.);
#54=VECTOR('',#521,1000.);
#55=VECTOR('',#532,1000.);
#56=VECTOR('',#577,1000.);
#57=VECTOR('',#580,1000.);
#58=ORIENTED_EDGE('',*,*,#126,.F.);
#59=ORIENTED_EDGE('',*,*,#127,.F.);
#60=ORIENTED_EDGE('',*,*,#128,.F.);
#61=ORIENTED_EDGE('',*,*,#129,.F.);
#62=ORIENTED_EDGE('',*,*,#130,.T.);
#63=ORIENTED_EDGE('',*,*,#131,.F.);
#64=ORIENTED_EDGE('',*,*,#130,.F.);
#65=ORIENTED_EDGE('',*,*,#132,.F.);
#66=ORIENTED_EDGE('',*,*,#133,.F.);
#67=ORIENTED_EDGE('',*,*,#134,.F.);
#68=ORIENTED_EDGE('',*,*,#135,.F.);
#69=ORIENTED_EDGE('',*,*,#136,.F.);
#70=ORIENTED_EDGE('',*,*,#137,.T.);
#71=ORIENTED_EDGE('',*,*,#138,.F.);
#72=ORIENTED_EDGE('',*,*,#137,.F.);
#73=ORIENTED_EDGE('',*,*,#139,.F.);
#74=ORIENTED_EDGE('',*,*,#133,.T.);
#75=ORIENTED_EDGE('',*,*,#140,.F.);
#76=ORIENTED_EDGE('',*,*,#135,.T.);
#77=ORIENTED_EDGE('',*,*,#141,.F.);
#78=ORIENTED_EDGE('',*,*,#142,.T.);
#79=ORIENTED_EDGE('',*,*,#143,.F.);
#80=ORIENTED_EDGE('',*,*,#144,.T.);
#81=ORIENTED_EDGE('',*,*,#142,.F.);
#82=ORIENTED_EDGE('',*,*,#145,.T.);
#83=ORIENTED_EDGE('',*,*,#146,.F.);
#84=ORIENTED_EDGE('',*,*,#143,.T.);
#85=ORIENTED_EDGE('',*,*,#147,.T.);
#86=ORIENTED_EDGE('',*,*,#148,.T.);
#87=ORIENTED_EDGE('',*,*,#126,.T.);
#88=ORIENTED_EDGE('',*,*,#149,.T.);
#89=ORIENTED_EDGE('',*,*,#150,.T.);
#90=ORIENTED_EDGE('',*,*,#150,.F.);
#91=ORIENTED_EDGE('',*,*,#148,.F.);
#92=ORIENTED_EDGE('',*,*,#151,.T.);
#93=ORIENTED_EDGE('',*,*,#152,.F.);
#94=ORIENTED_EDGE('',*,*,#153,.F.);
#95=ORIENTED_EDGE('',*,*,#152,.T.);
#96=ORIENTED_EDGE('',*,*,#154,.F.);
#97=ORIENTED_EDGE('',*,*,#153,.T.);
#98=ORIENTED_EDGE('',*,*,#149,.F.);
#99=ORIENTED_EDGE('',*,*,#154,.T.);
#100=ORIENTED_EDGE('',*,*,#155,.T.);
#101=ORIENTED_EDGE('',*,*,#156,.T.);
#102=ORIENTED_EDGE('',*,*,#156,.F.);
#103=ORIENTED_EDGE('',*,*,#157,.T.);
#104=ORIENTED_EDGE('',*,*,#157,.F.);
#105=ORIENTED_EDGE('',*,*,#146,.T.);
#106=ORIENTED_EDGE('',*,*,#151,.F.);
#107=ORIENTED_EDGE('',*,*,#155,.F.);
#108=ORIENTED_EDGE('',*,*,#128,.T.);
#109=ORIENTED_EDGE('',*,*,#158,.F.);
#110=ORIENTED_EDGE('',*,*,#140,.T.);
#111=ORIENTED_EDGE('',*,*,#159,.T.);
#112=ORIENTED_EDGE('',*,*,#141,.T.);
#113=ORIENTED_EDGE('',*,*,#134,.T.);
#114=ORIENTED_EDGE('',*,*,#138,.T.);
#115=ORIENTED_EDGE('',*,*,#132,.T.);
#116=ORIENTED_EDGE('',*,*,#129,.T.);
#117=ORIENTED_EDGE('',*,*,#158,.T.);
#118=ORIENTED_EDGE('',*,*,#127,.T.);
#119=ORIENTED_EDGE('',*,*,#131,.T.);
#120=ORIENTED_EDGE('',*,*,#139,.T.);
#121=ORIENTED_EDGE('',*,*,#136,.T.);
#122=ORIENTED_EDGE('',*,*,#145,.F.);
#123=ORIENTED_EDGE('',*,*,#159,.F.);
#124=ORIENTED_EDGE('',*,*,#144,.F.);
#125=ORIENTED_EDGE('',*,*,#147,.F.);
#126=EDGE_CURVE('',#160,#160,#186,.T.);
#127=EDGE_CURVE('',#161,#162,#44,.T.);
#128=EDGE_CURVE('',#163,#161,#43,.T.);
#129=EDGE_CURVE('',#164,#163,#45,.F.);
#130=EDGE_CURVE('',#164,#162,#187,.T.);
#131=EDGE_CURVE('',#162,#165,#28,.T.);
#132=EDGE_CURVE('',#166,#164,#29,.T.);
#133=EDGE_CURVE('',#165,#166,#188,.T.);
#134=EDGE_CURVE('',#167,#168,#30,.T.);
#135=EDGE_CURVE('',#169,#167,#189,.T.);
#136=EDGE_CURVE('',#170,#169,#31,.T.);
#137=EDGE_CURVE('',#170,#168,#190,.T.);
#138=EDGE_CURVE('',#168,#166,#32,.T.);
#139=EDGE_CURVE('',#165,#170,#33,.T.);
#140=EDGE_CURVE('',#169,#171,#46,.T.);
#141=EDGE_CURVE('',#172,#167,#47,.F.);
#142=EDGE_CURVE('',#172,#171,#191,.T.);
#143=EDGE_CURVE('',#173,#174,#192,.T.);
#144=EDGE_CURVE('',#173,#171,#34,.T.);
#145=EDGE_CURVE('',#172,#174,#35,.T.);
#146=EDGE_CURVE('',#175,#175,#193,.T.);
#147=EDGE_CURVE('',#174,#173,#48,.T.);
#148=EDGE_CURVE('',#176,#176,#194,.T.);
#149=EDGE_CURVE('',#177,#177,#195,.T.);
#150=EDGE_CURVE('',#178,#178,#196,.F.);
#151=EDGE_CURVE('',#179,#179,#197,.F.);
#152=EDGE_CURVE('',#180,#180,#198,.T.);
#153=EDGE_CURVE('',#181,#181,#199,.T.);
#154=EDGE_CURVE('',#182,#182,#200,.T.);
#155=EDGE_CURVE('',#183,#183,#201,.F.);
#156=EDGE_CURVE('',#184,#184,#202,.T.);
#157=EDGE_CURVE('',#185,#185,#203,.T.);
#158=EDGE_CURVE('',#163,#161,#49,.T.);
#159=EDGE_CURVE('',#171,#172,#50,.T.);
#160=VERTEX_POINT('',#586);
#161=VERTEX_POINT('',#588);
#162=VERTEX_POINT('',#589);
#163=VERTEX_POINT('',#591);
#164=VERTEX_POINT('',#593);
#165=VERTEX_POINT('',#600);
#166=VERTEX_POINT('',#605);
#167=VERTEX_POINT('',#612);
#168=VERTEX_POINT('',#613);
#169=VERTEX_POINT('',#615);
#170=VERTEX_POINT('',#620);
#171=VERTEX_POINT('',#633);
#172=VERTEX_POINT('',#635);
#173=VERTEX_POINT('',#639);
#174=VERTEX_POINT('',#640);
#175=VERTEX_POINT('',#651);
#176=VERTEX_POINT('',#655);
#177=VERTEX_POINT('',#658);
#178=VERTEX_POINT('',#660);
#179=VERTEX_POINT('',#664);
#180=VERTEX_POINT('',#666);
#181=VERTEX_POINT('',#669);
#182=VERTEX_POINT('',#672);
#183=VERTEX_POINT('',#676);
#184=VERTEX_POINT('',#678);
#185=VERTEX_POINT('',#681);
#186=CIRCLE('',#455,16.);
#187=CIRCLE('',#457,16.);
#188=CIRCLE('',#459,15.6272593389687);
#189=CIRCLE('',#461,16.);
#190=CIRCLE('',#462,15.6272593389687);
#191=CIRCLE('',#465,16.);
#192=CIRCLE('',#467,15.);
#193=CIRCLE('',#469,10.25);
#194=CIRCLE('',#471,16.);
#195=CIRCLE('',#473,12.8221851391025);
#196=CIRCLE('',#474,15.);
#197=CIRCLE('',#477,8.188);
#198=CIRCLE('',#478,9.);
#199=CIRCLE('',#480,9.);
#200=CIRCLE('',#482,12.41726901873);
#201=CIRCLE('',#485,8.188);
#202=CIRCLE('',#486,9.25);
#203=CIRCLE('',#488,9.25);
#204=EDGE_LOOP('',(#58));
#205=EDGE_LOOP('',(#59,#60,#61,#62));
#206=EDGE_LOOP('',(#63,#64,#65,#66));
#207=EDGE_LOOP('',(#67,#68,#69,#70));
#208=EDGE_LOOP('',(#71,#72,#73,#74));
#209=EDGE_LOOP('',(#75,#76,#77,#78));
#210=EDGE_LOOP('',(#79,#80,#81,#82));
#211=EDGE_LOOP('',(#83));
#212=EDGE_LOOP('',(#84,#85));
#213=EDGE_LOOP('',(#86));
#214=EDGE_LOOP('',(#87));
#215=EDGE_LOOP('',(#88));
#216=EDGE_LOOP('',(#89));
#217=EDGE_LOOP('',(#90));
#218=EDGE_LOOP('',(#91));
#219=EDGE_LOOP('',(#92));
#220=EDGE_LOOP('',(#93));
#221=EDGE_LOOP('',(#94));
#222=EDGE_LOOP('',(#95));
#223=EDGE_LOOP('',(#96));
#224=EDGE_LOOP('',(#97));
#225=EDGE_LOOP('',(#98));
#226=EDGE_LOOP('',(#99));
#227=EDGE_LOOP('',(#100));
#228=EDGE_LOOP('',(#101));
#229=EDGE_LOOP('',(#102));
#230=EDGE_LOOP('',(#103));
#231=EDGE_LOOP('',(#104));
#232=EDGE_LOOP('',(#105));
#233=EDGE_LOOP('',(#106));
#234=EDGE_LOOP('',(#107));
#235=EDGE_LOOP('',(#108,#109));
#236=EDGE_LOOP('',(#110,#111,#112,#113,#114,#115,#116,#117,#118,#119,#120,
#121));
#237=EDGE_LOOP('',(#122,#123,#124,#125));
#238=FACE_BOUND('',#204,.T.);
#239=FACE_BOUND('',#205,.T.);
#240=FACE_BOUND('',#206,.T.);
#241=FACE_BOUND('',#207,.T.);
#242=FACE_BOUND('',#208,.T.);
#243=FACE_BOUND('',#209,.T.);
#244=FACE_BOUND('',#210,.T.);
#245=FACE_BOUND('',#211,.T.);
#246=FACE_BOUND('',#212,.T.);
#247=FACE_BOUND('',#213,.T.);
#248=FACE_BOUND('',#214,.T.);
#249=FACE_BOUND('',#215,.T.);
#250=FACE_BOUND('',#216,.T.);
#251=FACE_BOUND('',#217,.T.);
#252=FACE_BOUND('',#218,.T.);
#253=FACE_BOUND('',#219,.T.);
#254=FACE_BOUND('',#220,.T.);
#255=FACE_BOUND('',#221,.T.);
#256=FACE_BOUND('',#222,.T.);
#257=FACE_BOUND('',#223,.T.);
#258=FACE_BOUND('',#224,.T.);
#259=FACE_BOUND('',#225,.T.);
#260=FACE_BOUND('',#226,.T.);
#261=FACE_BOUND('',#227,.T.);
#262=FACE_BOUND('',#228,.T.);
#263=FACE_BOUND('',#229,.T.);
#264=FACE_BOUND('',#230,.T.);
#265=FACE_BOUND('',#231,.T.);
#266=FACE_BOUND('',#232,.T.);
#267=FACE_BOUND('',#233,.T.);
#268=FACE_BOUND('',#234,.T.);
#269=FACE_BOUND('',#235,.T.);
#270=FACE_BOUND('',#236,.T.);
#271=FACE_BOUND('',#237,.T.);
#272=CYLINDRICAL_SURFACE('',#454,16.);
#273=CYLINDRICAL_SURFACE('',#464,16.);
#274=CYLINDRICAL_SURFACE('',#470,16.);
#275=CYLINDRICAL_SURFACE('',#479,9.);
#276=CYLINDRICAL_SURFACE('',#487,9.25);
#277=CYLINDRICAL_SURFACE('',#490,8.188);
#278=STYLED_ITEM('',(#299),#428);
#279=STYLED_ITEM('',(#300),#429);
#280=STYLED_ITEM('',(#301),#430);
#281=STYLED_ITEM('',(#302),#431);
#282=STYLED_ITEM('',(#303),#432);
#283=STYLED_ITEM('',(#304),#433);
#284=STYLED_ITEM('',(#305),#434);
#285=STYLED_ITEM('',(#306),#435);
#286=STYLED_ITEM('',(#307),#436);
#287=STYLED_ITEM('',(#308),#437);
#288=STYLED_ITEM('',(#309),#438);
#289=STYLED_ITEM('',(#310),#439);
#290=STYLED_ITEM('',(#311),#440);
#291=STYLED_ITEM('',(#312),#441);
#292=STYLED_ITEM('',(#313),#442);
#293=STYLED_ITEM('',(#314),#443);
#294=STYLED_ITEM('',(#315),#444);
#295=STYLED_ITEM('',(#316),#445);
#296=STYLED_ITEM('',(#317),#446);
#297=STYLED_ITEM('',(#318),#447);
#298=STYLED_ITEM('',(#319),#448);
#299=PRESENTATION_STYLE_ASSIGNMENT((#320));
#300=PRESENTATION_STYLE_ASSIGNMENT((#321));
#301=PRESENTATION_STYLE_ASSIGNMENT((#322));
#302=PRESENTATION_STYLE_ASSIGNMENT((#323));
#303=PRESENTATION_STYLE_ASSIGNMENT((#324));
#304=PRESENTATION_STYLE_ASSIGNMENT((#325));
#305=PRESENTATION_STYLE_ASSIGNMENT((#326));
#306=PRESENTATION_STYLE_ASSIGNMENT((#327));
#307=PRESENTATION_STYLE_ASSIGNMENT((#328));
#308=PRESENTATION_STYLE_ASSIGNMENT((#329));
#309=PRESENTATION_STYLE_ASSIGNMENT((#330));
#310=PRESENTATION_STYLE_ASSIGNMENT((#331));
#311=PRESENTATION_STYLE_ASSIGNMENT((#332));
#312=PRESENTATION_STYLE_ASSIGNMENT((#333));
#313=PRESENTATION_STYLE_ASSIGNMENT((#334));
#314=PRESENTATION_STYLE_ASSIGNMENT((#335));
#315=PRESENTATION_STYLE_ASSIGNMENT((#336));
#316=PRESENTATION_STYLE_ASSIGNMENT((#337));
#317=PRESENTATION_STYLE_ASSIGNMENT((#338));
#318=PRESENTATION_STYLE_ASSIGNMENT((#339));
#319=PRESENTATION_STYLE_ASSIGNMENT((#340));
#320=SURFACE_STYLE_USAGE(.BOTH.,#341);
#321=SURFACE_STYLE_USAGE(.BOTH.,#342);
#322=SURFACE_STYLE_USAGE(.BOTH.,#343);
#323=SURFACE_STYLE_USAGE(.BOTH.,#344);
#324=SURFACE_STYLE_USAGE(.BOTH.,#345);
#325=SURFACE_STYLE_USAGE(.BOTH.,#346);
#326=SURFACE_STYLE_USAGE(.BOTH.,#347);
#327=SURFACE_STYLE_USAGE(.BOTH.,#348);
#328=SURFACE_STYLE_USAGE(.BOTH.,#349);
#329=SURFACE_STYLE_USAGE(.BOTH.,#350);
#330=SURFACE_STYLE_USAGE(.BOTH.,#351);
#331=SURFACE_STYLE_USAGE(.BOTH.,#352);
#332=SURFACE_STYLE_USAGE(.BOTH.,#353);
#333=SURFACE_STYLE_USAGE(.BOTH.,#354);
#334=SURFACE_STYLE_USAGE(.BOTH.,#355);
#335=SURFACE_STYLE_USAGE(.BOTH.,#356);
#336=SURFACE_STYLE_USAGE(.BOTH.,#357);
#337=SURFACE_STYLE_USAGE(.BOTH.,#358);
#338=SURFACE_STYLE_USAGE(.BOTH.,#359);
#339=SURFACE_STYLE_USAGE(.BOTH.,#360);
#340=SURFACE_STYLE_USAGE(.BOTH.,#361);
#341=SURFACE_SIDE_STYLE('',(#362));
#342=SURFACE_SIDE_STYLE('',(#363));
#343=SURFACE_SIDE_STYLE('',(#364));
#344=SURFACE_SIDE_STYLE('',(#365));
#345=SURFACE_SIDE_STYLE('',(#366));
#346=SURFACE_SIDE_STYLE('',(#367));
#347=SURFACE_SIDE_STYLE('',(#368));
#348=SURFACE_SIDE_STYLE('',(#369));
#349=SURFACE_SIDE_STYLE('',(#370));
#350=SURFACE_SIDE_STYLE('',(#371));
#351=SURFACE_SIDE_STYLE('',(#372));
#352=SURFACE_SIDE_STYLE('',(#373));
#353=SURFACE_SIDE_STYLE('',(#374));
#354=SURFACE_SIDE_STYLE('',(#375));
#355=SURFACE_SIDE_STYLE('',(#376));
#356=SURFACE_SIDE_STYLE('',(#377));
#357=SURFACE_SIDE_STYLE('',(#378));
#358=SURFACE_SIDE_STYLE('',(#379));
#359=SURFACE_SIDE_STYLE('',(#380));
#360=SURFACE_SIDE_STYLE('',(#381));
#361=SURFACE_SIDE_STYLE('',(#382));
#362=SURFACE_STYLE_FILL_AREA(#383);
#363=SURFACE_STYLE_FILL_AREA(#384);
#364=SURFACE_STYLE_FILL_AREA(#385);
#365=SURFACE_STYLE_FILL_AREA(#386);
#366=SURFACE_STYLE_FILL_AREA(#387);
#367=SURFACE_STYLE_FILL_AREA(#388);
#368=SURFACE_STYLE_FILL_AREA(#389);
#369=SURFACE_STYLE_FILL_AREA(#390);
#370=SURFACE_STYLE_FILL_AREA(#391);
#371=SURFACE_STYLE_FILL_AREA(#392);
#372=SURFACE_STYLE_FILL_AREA(#393);
#373=SURFACE_STYLE_FILL_AREA(#394);
#374=SURFACE_STYLE_FILL_AREA(#395);
#375=SURFACE_STYLE_FILL_AREA(#396);
#376=SURFACE_STYLE_FILL_AREA(#397);
#377=SURFACE_STYLE_FILL_AREA(#398);
#378=SURFACE_STYLE_FILL_AREA(#399);
#379=SURFACE_STYLE_FILL_AREA(#400);
#380=SURFACE_STYLE_FILL_AREA(#401);
#381=SURFACE_STYLE_FILL_AREA(#402);
#382=SURFACE_STYLE_FILL_AREA(#403);
#383=FILL_AREA_STYLE('',(#404));
#384=FILL_AREA_STYLE('',(#405));
#385=FILL_AREA_STYLE('',(#406));
#386=FILL_AREA_STYLE('',(#407));
#387=FILL_AREA_STYLE('',(#408));
#388=FILL_AREA_STYLE('',(#409));
#389=FILL_AREA_STYLE('',(#410));
#390=FILL_AREA_STYLE('',(#411));
#391=FILL_AREA_STYLE('',(#412));
#392=FILL_AREA_STYLE('',(#413));
#393=FILL_AREA_STYLE('',(#414));
#394=FILL_AREA_STYLE('',(#415));
#395=FILL_AREA_STYLE('',(#416));
#396=FILL_AREA_STYLE('',(#417));
#397=FILL_AREA_STYLE('',(#418));
#398=FILL_AREA_STYLE('',(#419));
#399=FILL_AREA_STYLE('',(#420));
#400=FILL_AREA_STYLE('',(#421));
#401=FILL_AREA_STYLE('',(#422));
#402=FILL_AREA_STYLE('',(#423));
#403=FILL_AREA_STYLE('',(#424));
#404=FILL_AREA_STYLE_COLOUR('',#425);
#405=FILL_AREA_STYLE_COLOUR('',#426);
#406=FILL_AREA_STYLE_COLOUR('',#426);
#407=FILL_AREA_STYLE_COLOUR('',#426);
#408=FILL_AREA_STYLE_COLOUR('',#425);
#409=FILL_AREA_STYLE_COLOUR('',#426);
#410=FILL_AREA_STYLE_COLOUR('',#425);
#411=FILL_AREA_STYLE_COLOUR('',#427);
#412=FILL_AREA_STYLE_COLOUR('',#426);
#413=FILL_AREA_STYLE_COLOUR('',#426);
#414=FILL_AREA_STYLE_COLOUR('',#426);
#415=FILL_AREA_STYLE_COLOUR('',#426);
#416=FILL_AREA_STYLE_COLOUR('',#426);
#417=FILL_AREA_STYLE_COLOUR('',#426);
#418=FILL_AREA_STYLE_COLOUR('',#426);
#419=FILL_AREA_STYLE_COLOUR('',#426);
#420=FILL_AREA_STYLE_COLOUR('',#426);
#421=FILL_AREA_STYLE_COLOUR('',#427);
#422=FILL_AREA_STYLE_COLOUR('',#425);
#423=FILL_AREA_STYLE_COLOUR('',#425);
#424=FILL_AREA_STYLE_COLOUR('',#425);
#425=COLOUR_RGB( ' ', 0.5, 0.5, 0.5 );
#426=COLOUR_RGB( ' ', 0.5, 0.5, 0.5 );
#427=COLOUR_RGB( ' ', 0.5, 0.5, 0.5 );
#428=ADVANCED_FACE('',(#238,#239),#272,.T.);
#429=ADVANCED_FACE('',(#240),#36,.T.);
#430=ADVANCED_FACE('',(#241),#37,.T.);
#431=ADVANCED_FACE('',(#242),#25,.F.);
#432=ADVANCED_FACE('',(#243),#273,.T.);
#433=ADVANCED_FACE('',(#244),#38,.T.);
#434=ADVANCED_FACE('',(#245,#246),#20,.T.);
#435=ADVANCED_FACE('',(#247,#248),#274,.T.);
#436=ADVANCED_FACE('',(#249,#250),#21,.F.);
#437=ADVANCED_FACE('',(#251,#252),#39,.T.);
#438=ADVANCED_FACE('',(#253,#254),#40,.F.);
#439=ADVANCED_FACE('',(#255,#256),#275,.F.);
#440=ADVANCED_FACE('',(#257,#258),#41,.F.);
#441=ADVANCED_FACE('',(#259,#260),#26,.T.);
#442=ADVANCED_FACE('',(#261,#262),#42,.F.);
#443=ADVANCED_FACE('',(#263,#264),#276,.F.);
#444=ADVANCED_FACE('',(#265,#266),#27,.T.);
#445=ADVANCED_FACE('',(#267,#268),#277,.F.);
#446=ADVANCED_FACE('',(#269),#22,.T.);
#447=ADVANCED_FACE('',(#270),#23,.T.);
#448=ADVANCED_FACE('',(#271),#24,.F.);
#449=CLOSED_SHELL('',(#428,#429,#430,#431,#432,#433,#434,#435,#436,#437,
#438,#439,#440,#441,#442,#443,#444,#445,#446,#447,#448));
#450=MANIFOLD_SOLID_BREP('NOCUT',#449);
#451=SHAPE_DEFINITION_REPRESENTATION(#695,#452);
#452=SHAPE_REPRESENTATION('263212532',(#453),#690);
#453=AXIS2_PLACEMENT_3D('',#583,#494,#495);
#454=AXIS2_PLACEMENT_3D('',#584,#496,#497);
#455=AXIS2_PLACEMENT_3D('',#585,#498,#499);
#456=AXIS2_PLACEMENT_3D('',#590,#501,#502);
#457=AXIS2_PLACEMENT_3D('',#594,#504,#505);
#458=AXIS2_PLACEMENT_3D('',#595,#506,#507);
#459=AXIS2_PLACEMENT_3D('',#606,#508,#509);
#460=AXIS2_PLACEMENT_3D('',#607,#510,#511);
#461=AXIS2_PLACEMENT_3D('',#614,#512,#513);
#462=AXIS2_PLACEMENT_3D('',#621,#514,#515);
#463=AXIS2_PLACEMENT_3D('',#622,#516,#517);
#464=AXIS2_PLACEMENT_3D('',#631,#518,#519);
#465=AXIS2_PLACEMENT_3D('',#636,#522,#523);
#466=AXIS2_PLACEMENT_3D('',#637,#524,#525);
#467=AXIS2_PLACEMENT_3D('',#638,#526,#527);
#468=AXIS2_PLACEMENT_3D('',#649,#528,#529);
#469=AXIS2_PLACEMENT_3D('',#650,#530,#531);
#470=AXIS2_PLACEMENT_3D('',#653,#533,#534);
#471=AXIS2_PLACEMENT_3D('',#654,#535,#536);
#472=AXIS2_PLACEMENT_3D('',#656,#537,#538);
#473=AXIS2_PLACEMENT_3D('',#657,#539,#540);
#474=AXIS2_PLACEMENT_3D('',#659,#541,#542);
#475=AXIS2_PLACEMENT_3D('',#661,#543,#544);
#476=AXIS2_PLACEMENT_3D('',#662,#545,#546);
#477=AXIS2_PLACEMENT_3D('',#663,#547,#548);
#478=AXIS2_PLACEMENT_3D('',#665,#549,#550);
#479=AXIS2_PLACEMENT_3D('',#667,#551,#552);
#480=AXIS2_PLACEMENT_3D('',#668,#553,#554);
#481=AXIS2_PLACEMENT_3D('',#670,#555,#556);
#482=AXIS2_PLACEMENT_3D('',#671,#557,#558);
#483=AXIS2_PLACEMENT_3D('',#673,#559,#560);
#484=AXIS2_PLACEMENT_3D('',#674,#561,#562);
#485=AXIS2_PLACEMENT_3D('',#675,#563,#564);
#486=AXIS2_PLACEMENT_3D('',#677,#565,#566);
#487=AXIS2_PLACEMENT_3D('',#679,#567,#568);
#488=AXIS2_PLACEMENT_3D('',#680,#569,#570);
#489=AXIS2_PLACEMENT_3D('',#682,#571,#572);
#490=AXIS2_PLACEMENT_3D('',#683,#573,#574);
#491=AXIS2_PLACEMENT_3D('',#684,#575,#576);
#492=AXIS2_PLACEMENT_3D('',#686,#578,#579);
#493=AXIS2_PLACEMENT_3D('',#688,#581,#582);
#494=DIRECTION('',(0.,0.,1.));
#495=DIRECTION('',(1.,0.,0.));
#496=DIRECTION('',(0.,0.,1.));
#497=DIRECTION('',(1.,0.,0.));
#498=DIRECTION('',(0.,0.,-1.));
#499=DIRECTION('',(1.,0.,0.));
#500=DIRECTION('',(0.,0.,1.));
#501=DIRECTION('',(0.707106781186547,0.,0.707106781186548));
#502=DIRECTION('',(-0.707106781186548,0.,0.707106781186547));
#503=DIRECTION('',(0.,0.,1.));
#504=DIRECTION('',(0.,0.,-1.));
#505=DIRECTION('',(-1.,0.,0.));
#506=DIRECTION('',(0.,0.,-1.));
#507=DIRECTION('',(-1.,0.,0.));
#508=DIRECTION('',(0.,0.,1.));
#509=DIRECTION('',(1.,0.,0.));
#510=DIRECTION('',(0.,0.,1.));
#511=DIRECTION('',(1.,0.,0.));
#512=DIRECTION('',(0.,0.,1.));
#513=DIRECTION('',(1.,0.,0.));
#514=DIRECTION('',(0.,0.,1.));
#515=DIRECTION('',(1.,0.,0.));
#516=DIRECTION('',(0.,0.,1.));
#517=DIRECTION('',(1.,0.,0.));
#518=DIRECTION('',(0.,0.,1.));
#519=DIRECTION('',(1.,0.,0.));
#520=DIRECTION('',(0.,0.,1.));
#521=DIRECTION('',(0.,0.,1.));
#522=DIRECTION('',(0.,0.,-1.));
#523=DIRECTION('',(-1.,0.,0.));
#524=DIRECTION('',(0.,0.,-1.));
#525=DIRECTION('',(-1.,0.,0.));
#526=DIRECTION('',(0.,0.,1.));
#527=DIRECTION('',(1.,0.,0.));
#528=DIRECTION('',(0.,0.,1.));
#529=DIRECTION('',(1.,0.,0.));
#530=DIRECTION('',(0.,0.,1.));
#531=DIRECTION('',(1.,0.,0.));
#532=DIRECTION('',(0.,1.,0.));
#533=DIRECTION('',(0.,0.,1.));
#534=DIRECTION('',(1.,0.,0.));
#535=DIRECTION('',(0.,0.,1.));
#536=DIRECTION('',(1.,0.,0.));
#537=DIRECTION('',(0.,0.,1.));
#538=DIRECTION('',(1.,0.,0.));
#539=DIRECTION('',(0.,0.,1.));
#540=DIRECTION('',(1.,0.,0.));
#541=DIRECTION('',(0.,0.,1.));
#542=DIRECTION('',(1.,0.,0.));
#543=DIRECTION('',(0.,0.,1.));
#544=DIRECTION('',(1.,0.,0.));
#545=DIRECTION('',(0.,0.,-1.));
#546=DIRECTION('',(-1.,0.,0.));
#547=DIRECTION('',(0.,0.,-1.));
#548=DIRECTION('',(-1.,0.,0.));
#549=DIRECTION('',(0.,0.,1.));
#550=DIRECTION('',(1.,0.,0.));
#551=DIRECTION('',(0.,0.,1.));
#552=DIRECTION('',(1.,0.,0.));
#553=DIRECTION('',(0.,0.,1.));
#554=DIRECTION('',(1.,0.,0.));
#555=DIRECTION('',(0.,0.,-1.));
#556=DIRECTION('',(-1.,0.,0.));
#557=DIRECTION('',(0.,0.,1.));
#558=DIRECTION('',(1.,0.,0.));
#559=DIRECTION('',(0.,0.,1.));
#560=DIRECTION('',(1.,0.,0.));
#561=DIRECTION('',(0.,0.,1.));
#562=DIRECTION('',(1.,0.,0.));
#563=DIRECTION('',(0.,0.,1.));
#564=DIRECTION('',(1.,0.,0.));
#565=DIRECTION('',(0.,0.,1.));
#566=DIRECTION('',(1.,0.,0.));
#567=DIRECTION('',(0.,0.,1.));
#568=DIRECTION('',(1.,0.,0.));
#569=DIRECTION('',(0.,0.,1.));
#570=DIRECTION('',(1.,0.,0.));
#571=DIRECTION('',(0.,0.,1.));
#572=DIRECTION('',(1.,0.,0.));
#573=DIRECTION('',(0.,0.,1.));
#574=DIRECTION('',(1.,0.,0.));
#575=DIRECTION('',(0.707106781186547,0.,0.707106781186548));
#576=DIRECTION('',(0.707106781186548,0.,-0.707106781186547));
#577=DIRECTION('',(0.,1.,0.));
#578=DIRECTION('',(1.,0.,0.));
#579=DIRECTION('',(0.,0.,-1.));
#580=DIRECTION('',(0.,-1.,0.));
#581=DIRECTION('',(-0.707106781186547,0.,-0.707106781186547));
#582=DIRECTION('',(-0.707106781186548,0.,0.707106781186548));
#583=CARTESIAN_POINT('',(0.,0.,0.));
#584=CARTESIAN_POINT('',(0.,0.,28.));
#585=CARTESIAN_POINT('',(0.,0.,26.5));
#586=CARTESIAN_POINT('',(16.,0.,26.5));
#587=CARTESIAN_POINT('',(14.,7.7459666924148,28.));
#588=CARTESIAN_POINT('',(14.,7.74596669241479,38.));
#589=CARTESIAN_POINT('',(14.,7.7459666924148,86.8018576789026));
#590=CARTESIAN_POINT('',(0.,0.,52.));
#591=CARTESIAN_POINT('',(14.,-7.74596669241479,38.));
#592=CARTESIAN_POINT('',(14.,-7.7459666924148,28.));
#593=CARTESIAN_POINT('',(14.,-7.7459666924148,86.8018576789026));
#594=CARTESIAN_POINT('',(0.,0.,86.8018576789026));
#595=CARTESIAN_POINT('',(0.,0.,85.7667372006205));
#596=CARTESIAN_POINT('',(14.,7.74596669241479,86.8018576789026));
#597=CARTESIAN_POINT('',(14.,7.48671232098432,87.2702710438914));
#598=CARTESIAN_POINT('',(14.,7.21996075278682,87.7344011234664));
#599=CARTESIAN_POINT('',(14.,6.94343102849301,88.1929447639116));
#600=CARTESIAN_POINT('',(14.,6.94343102848801,88.1929447639087));
#601=CARTESIAN_POINT('',(14.,-6.94343102848912,88.192944763918));
#602=CARTESIAN_POINT('',(14.,-7.22052671793804,87.7334626358537));
#603=CARTESIAN_POINT('',(14.,-7.48719629452554,87.2693966143736));
#604=CARTESIAN_POINT('',(14.,-7.74596669241479,86.8018576789026));
#605=CARTESIAN_POINT('',(14.,-6.94343102848913,88.192944763918));
#606=CARTESIAN_POINT('',(0.,0.,88.192944763918));
#607=CARTESIAN_POINT('',(0.,0.,88.607055236082));
#608=CARTESIAN_POINT('',(14.,-7.7459666924148,89.9981423210974));
#609=CARTESIAN_POINT('',(14.,-7.48671232098311,89.5297289561064));
#610=CARTESIAN_POINT('',(14.,-7.21996075278433,89.0655988765294));
#611=CARTESIAN_POINT('',(14.,-6.94343102848915,88.607055236082));
#612=CARTESIAN_POINT('',(14.,-7.7459666924148,89.9981423210974));
#613=CARTESIAN_POINT('',(14.,-6.94343102848912,88.607055236082));
#614=CARTESIAN_POINT('',(0.,0.,89.9981423210974));
#615=CARTESIAN_POINT('',(14.,7.7459666924148,89.9981423210974));
#616=CARTESIAN_POINT('',(14.,6.94343102848912,88.607055236082));
#617=CARTESIAN_POINT('',(14.,7.22052671793805,89.0665373641462));
#618=CARTESIAN_POINT('',(14.,7.48719629452555,89.5306033856264));
#619=CARTESIAN_POINT('',(14.,7.74596669241479,89.9981423210974));
#620=CARTESIAN_POINT('',(14.,6.94343102848912,88.607055236082));
#621=CARTESIAN_POINT('',(0.,0.,88.607055236082));
#622=CARTESIAN_POINT('',(0.,0.,88.4));
#623=CARTESIAN_POINT('',(14.,-6.94343102848697,88.6070552360831));
#624=CARTESIAN_POINT('',(14.,-6.86851164166653,88.4828233530183));
#625=CARTESIAN_POINT('',(14.,-6.86850357865328,88.3171900171342));
#626=CARTESIAN_POINT('',(14.,-6.94343102848868,88.1929447639177));
#627=CARTESIAN_POINT('',(14.,6.94343102849275,88.192944763912));
#628=CARTESIAN_POINT('',(14.,6.86808535898129,88.3178835120943));
#629=CARTESIAN_POINT('',(14.,6.86851995407106,88.482837136704));
#630=CARTESIAN_POINT('',(14.,6.94343102848913,88.607055236082));
#631=CARTESIAN_POINT('',(0.,0.,28.));
#632=CARTESIAN_POINT('',(14.,7.7459666924148,28.));
#633=CARTESIAN_POINT('',(14.,7.7459666924148,91.));
#634=CARTESIAN_POINT('',(14.,-7.7459666924148,28.));
#635=CARTESIAN_POINT('',(14.,-7.74596669241479,91.));
#636=CARTESIAN_POINT('',(0.,0.,91.));
#637=CARTESIAN_POINT('',(0.,0.,90.85));
#638=CARTESIAN_POINT('',(0.,0.,92.));
#639=CARTESIAN_POINT('',(13.,7.48331477354787,92.));
#640=CARTESIAN_POINT('',(13.,-7.48331477354787,92.));
#641=CARTESIAN_POINT('',(13.,7.48331477354787,92.));
#642=CARTESIAN_POINT('',(13.3331384005595,7.57234975621011,91.6668615994405));
#643=CARTESIAN_POINT('',(13.6664781269388,7.65985171508406,91.3335218730612));
#644=CARTESIAN_POINT('',(14.,7.74596669241485,91.));
#645=CARTESIAN_POINT('',(14.,-7.74596669241479,91.));
#646=CARTESIAN_POINT('',(13.6664781269388,-7.659851715084,91.3335218730612));
#647=CARTESIAN_POINT('',(13.3331384005595,-7.57234975621015,91.6668615994405));
#648=CARTESIAN_POINT('',(13.,-7.4833147735479,92.));
#649=CARTESIAN_POINT('',(-1.56125112837913E-14,0.,92.));
#650=CARTESIAN_POINT('',(0.,0.,92.));
#651=CARTESIAN_POINT('',(10.25,0.,92.));
#652=CARTESIAN_POINT('',(13.,0.,92.));
#653=CARTESIAN_POINT('',(0.,0.,28.));
#654=CARTESIAN_POINT('',(0.,0.,13.));
#655=CARTESIAN_POINT('',(16.,0.,13.));
#656=CARTESIAN_POINT('',(0.,0.,12.));
#657=CARTESIAN_POINT('',(0.,0.,12.));
#658=CARTESIAN_POINT('',(12.8221851391025,0.,12.));
#659=CARTESIAN_POINT('',(0.,0.,12.));
#660=CARTESIAN_POINT('',(15.,0.,12.));
#661=CARTESIAN_POINT('',(0.,0.,13.));
#662=CARTESIAN_POINT('',(0.,0.,46.1961524227066));
#663=CARTESIAN_POINT('',(0.,0.,41.468808418582));
#664=CARTESIAN_POINT('',(-8.188,0.,41.468808418582));
#665=CARTESIAN_POINT('',(0.,0.,41.));
#666=CARTESIAN_POINT('',(9.,0.,41.));
#667=CARTESIAN_POINT('',(0.,0.,46.1961524227066));
#668=CARTESIAN_POINT('',(0.,0.,36.9037940283447));
#669=CARTESIAN_POINT('',(9.,0.,36.9037940283447));
#670=CARTESIAN_POINT('',(0.,0.,36.9037940283447));
#671=CARTESIAN_POINT('',(0.,0.,12.5886615192319));
#672=CARTESIAN_POINT('',(12.41726901873,0.,12.5886615192319));
#673=CARTESIAN_POINT('',(0.,0.,12.7));
#674=CARTESIAN_POINT('',(0.,0.,87.));
#675=CARTESIAN_POINT('',(0.,0.,86.3868540141206));
#676=CARTESIAN_POINT('',(8.188,0.,86.3868540141206));
#677=CARTESIAN_POINT('',(0.,0.,87.));
#678=CARTESIAN_POINT('',(9.25,0.,87.));
#679=CARTESIAN_POINT('',(0.,0.,152.));
#680=CARTESIAN_POINT('',(0.,0.,91.));
#681=CARTESIAN_POINT('',(9.25,0.,91.));
#682=CARTESIAN_POINT('',(0.,0.,91.));
#683=CARTESIAN_POINT('',(0.,0.,8.69976553915519E-02));
#684=CARTESIAN_POINT('',(14.,-66.7285865984534,38.));
#685=CARTESIAN_POINT('',(14.,-66.7285865984534,38.));
#686=CARTESIAN_POINT('',(14.,-66.7285865984534,92.));
#687=CARTESIAN_POINT('',(14.,-66.7285865984534,91.));
#688=CARTESIAN_POINT('',(13.,0.,92.));
#689=MECHANICAL_DESIGN_GEOMETRIC_PRESENTATION_REPRESENTATION('',(#278,#279,
#280,#281,#282,#283,#284,#285,#286,#287,#288,#289,#290,#291,#292,#293,#294,
#295,#296,#297,#298),#690);
#690=(
GEOMETRIC_REPRESENTATION_CONTEXT(3)
GLOBAL_UNCERTAINTY_ASSIGNED_CONTEXT((#691))
GLOBAL_UNIT_ASSIGNED_CONTEXT((#694,#693,#692))
REPRESENTATION_CONTEXT('263212532','TOP_LEVEL_ASSEMBLY_PART')
);
#691=UNCERTAINTY_MEASURE_WITH_UNIT(LENGTH_MEASURE(0.005),#694,
'DISTANCE_ACCURACY_VALUE','Maximum Tolerance applied to model');
#692=(
NAMED_UNIT(*)
SI_UNIT($,.STERADIAN.)
SOLID_ANGLE_UNIT()
);
#693=(
NAMED_UNIT(*)
PLANE_ANGLE_UNIT()
SI_UNIT($,.RADIAN.)
);
#694=(
LENGTH_UNIT()
NAMED_UNIT(*)
SI_UNIT(.MILLI.,.METRE.)
);
#695=PRODUCT_DEFINITION_SHAPE('','',#696);
#696=PRODUCT_DEFINITION('','',#698,#697);
#697=DESIGN_CONTEXT('',#704,'design');
#698=PRODUCT_DEFINITION_FORMATION_WITH_SPECIFIED_SOURCE('','',#700,
 .NOT_KNOWN.);
#699=PRODUCT_RELATED_PRODUCT_CATEGORY('','',(#700));
#700=PRODUCT('NOCUT','NOCUT','NOCUT',(#702));
#701=PRODUCT_CATEGORY('','');
#702=MECHANICAL_CONTEXT('',#704,'mechanical');
#703=APPLICATION_PROTOCOL_DEFINITION('international standard',
'config_control_design',2010,#704);
#704=APPLICATION_CONTEXT(
'configuration controlled 3D designs of mechanical parts and assemblie
s');
#705=AXIS2_PLACEMENT_3D('PCS',#706,#707,#708);
#706=CARTESIAN_POINT('',(0.,0.,32.));
#707=DIRECTION('',(0.,0.,1.));
#708=DIRECTION('',(1.,0.,0.));
#709=AXIS2_PLACEMENT_3D('MCS',#710,#711,#712);
#710=CARTESIAN_POINT('',(0.,0.,32.));
#711=DIRECTION('',(0.,0.,1.));
#712=DIRECTION('',(1.,0.,0.));
#713=AXIS2_PLACEMENT_3D('CSW',#714,#715,#716);
#714=CARTESIAN_POINT('',(0.,0.,12.));
#715=DIRECTION('',(0.,0.,1.));
#716=DIRECTION('',(1.,0.,0.));
#717=CONSTRUCTIVE_GEOMETRY_REPRESENTATION_RELATIONSHIP('coordinate systems',$,#19,#718);
#718=CONSTRUCTIVE_GEOMETRY_REPRESENTATION('coordinate systems',(#705, #709, #713),#690);
ENDSEC;
END-ISO-10303-21;

