ISO-10303-21;
HEADER;
FILE_DESCRIPTION(
/* description */ (''),
/* implementation_level */ '2;1');
FILE_NAME(
/* name */ '321150000.stp',
/* time_stamp */ '2022-09-23T11:19:38',
/* author */ ('Ratnasingam Jekanthan'),
/* organization */ ('REGO-FIX'),
/* preprocessor_version */ ' Unknown',
/* originating_system */ 'SIEMENS PLM Software Solid Edge ST10',
/* authorization */ 'Unknown');
FILE_SCHEMA (('AUTOMOTIVE_DESIGN { 1 0 10303 214 2 1 1}'));
ENDSEC;
DATA;
#10=PROPERTY_DEFINITION_REPRESENTATION(#14,#12);
#11=PROPERTY_DEFINITION_REPRESENTATION(#15,#13);
#12=REPRESENTATION('',(#16),#745);
#13=REPRESENTATION('',(#17),#745);
#14=PROPERTY_DEFINITION('pmi validation property','',#750);
#15=PROPERTY_DEFINITION('pmi validation property','',#750);
#16=VALUE_REPRESENTATION_ITEM('number of annotations',COUNT_MEASURE(0.));
#17=VALUE_REPRESENTATION_ITEM('number of views',COUNT_MEASURE(0.));
#18=SHAPE_REPRESENTATION_RELATIONSHIP('','',#501,#19);
#19=ADVANCED_BREP_SHAPE_REPRESENTATION('',(#499),#745);
#20=TOROIDAL_SURFACE('',#546,6.2,0.4);
#21=LINE('',#682,#37);
#22=LINE('',#686,#38);
#23=LINE('',#690,#39);
#24=LINE('',#694,#40);
#25=LINE('',#696,#41);
#26=LINE('',#698,#42);
#27=LINE('',#700,#43);
#28=LINE('',#702,#44);
#29=LINE('',#704,#45);
#30=LINE('',#708,#46);
#31=LINE('',#710,#47);
#32=LINE('',#712,#48);
#33=LINE('',#722,#49);
#34=LINE('',#729,#50);
#35=LINE('',#736,#51);
#36=LINE('',#738,#52);
#37=VECTOR('',#583,1000.);
#38=VECTOR('',#586,1000.);
#39=VECTOR('',#589,1000.);
#40=VECTOR('',#592,1000.);
#41=VECTOR('',#595,1000.);
#42=VECTOR('',#596,1000.);
#43=VECTOR('',#597,1000.);
#44=VECTOR('',#600,1000.);
#45=VECTOR('',#601,1000.);
#46=VECTOR('',#606,1000.);
#47=VECTOR('',#607,1000.);
#48=VECTOR('',#610,1000.);
#49=VECTOR('',#623,1000.);
#50=VECTOR('',#632,1000.);
#51=VECTOR('',#641,1000.);
#52=VECTOR('',#644,1000.);
#53=PLANE('',#513);
#54=PLANE('',#523);
#55=PLANE('',#524);
#56=PLANE('',#526);
#57=PLANE('',#527);
#58=PLANE('',#531);
#59=PLANE('',#533);
#60=PLANE('',#541);
#61=PLANE('',#542);
#62=PLANE('',#543);
#63=PLANE('',#544);
#64=CONICAL_SURFACE('',#506,4.4,0.523598775598299);
#65=CONICAL_SURFACE('',#511,4.5,0.785398163397431);
#66=CONICAL_SURFACE('',#515,8.,0.523598775598298);
#67=CONICAL_SURFACE('',#529,7.5,0.785398163397445);
#68=CONICAL_SURFACE('',#534,6.09,0.785398163397449);
#69=CONICAL_SURFACE('',#540,6.6,0.349065850398868);
#70=ORIENTED_EDGE('',*,*,#146,.T.);
#71=ORIENTED_EDGE('',*,*,#147,.T.);
#72=ORIENTED_EDGE('',*,*,#148,.F.);
#73=ORIENTED_EDGE('',*,*,#149,.T.);
#74=ORIENTED_EDGE('',*,*,#150,.F.);
#75=ORIENTED_EDGE('',*,*,#148,.T.);
#76=ORIENTED_EDGE('',*,*,#151,.F.);
#77=ORIENTED_EDGE('',*,*,#150,.T.);
#78=ORIENTED_EDGE('',*,*,#151,.T.);
#79=ORIENTED_EDGE('',*,*,#152,.F.);
#80=ORIENTED_EDGE('',*,*,#153,.F.);
#81=ORIENTED_EDGE('',*,*,#152,.T.);
#82=ORIENTED_EDGE('',*,*,#154,.F.);
#83=ORIENTED_EDGE('',*,*,#155,.F.);
#84=ORIENTED_EDGE('',*,*,#156,.T.);
#85=ORIENTED_EDGE('',*,*,#157,.F.);
#86=ORIENTED_EDGE('',*,*,#158,.F.);
#87=ORIENTED_EDGE('',*,*,#159,.F.);
#88=ORIENTED_EDGE('',*,*,#160,.F.);
#89=ORIENTED_EDGE('',*,*,#161,.F.);
#90=ORIENTED_EDGE('',*,*,#162,.T.);
#91=ORIENTED_EDGE('',*,*,#153,.T.);
#92=ORIENTED_EDGE('',*,*,#156,.F.);
#93=ORIENTED_EDGE('',*,*,#163,.T.);
#94=ORIENTED_EDGE('',*,*,#164,.T.);
#95=ORIENTED_EDGE('',*,*,#165,.F.);
#96=ORIENTED_EDGE('',*,*,#166,.F.);
#97=ORIENTED_EDGE('',*,*,#159,.T.);
#98=ORIENTED_EDGE('',*,*,#167,.T.);
#99=ORIENTED_EDGE('',*,*,#168,.F.);
#100=ORIENTED_EDGE('',*,*,#167,.F.);
#101=ORIENTED_EDGE('',*,*,#162,.F.);
#102=ORIENTED_EDGE('',*,*,#169,.T.);
#103=ORIENTED_EDGE('',*,*,#170,.T.);
#104=ORIENTED_EDGE('',*,*,#161,.T.);
#105=ORIENTED_EDGE('',*,*,#171,.T.);
#106=ORIENTED_EDGE('',*,*,#172,.F.);
#107=ORIENTED_EDGE('',*,*,#169,.F.);
#108=ORIENTED_EDGE('',*,*,#173,.F.);
#109=ORIENTED_EDGE('',*,*,#154,.T.);
#110=ORIENTED_EDGE('',*,*,#174,.F.);
#111=ORIENTED_EDGE('',*,*,#173,.T.);
#112=ORIENTED_EDGE('',*,*,#160,.T.);
#113=ORIENTED_EDGE('',*,*,#166,.T.);
#114=ORIENTED_EDGE('',*,*,#175,.F.);
#115=ORIENTED_EDGE('',*,*,#171,.F.);
#116=ORIENTED_EDGE('',*,*,#174,.T.);
#117=ORIENTED_EDGE('',*,*,#146,.F.);
#118=ORIENTED_EDGE('',*,*,#176,.T.);
#119=ORIENTED_EDGE('',*,*,#164,.F.);
#120=ORIENTED_EDGE('',*,*,#177,.T.);
#121=ORIENTED_EDGE('',*,*,#178,.T.);
#122=ORIENTED_EDGE('',*,*,#179,.T.);
#123=ORIENTED_EDGE('',*,*,#175,.T.);
#124=ORIENTED_EDGE('',*,*,#168,.T.);
#125=ORIENTED_EDGE('',*,*,#170,.F.);
#126=ORIENTED_EDGE('',*,*,#172,.T.);
#127=ORIENTED_EDGE('',*,*,#180,.F.);
#128=ORIENTED_EDGE('',*,*,#179,.F.);
#129=ORIENTED_EDGE('',*,*,#147,.F.);
#130=ORIENTED_EDGE('',*,*,#181,.F.);
#131=ORIENTED_EDGE('',*,*,#157,.T.);
#132=ORIENTED_EDGE('',*,*,#165,.T.);
#133=ORIENTED_EDGE('',*,*,#176,.F.);
#134=ORIENTED_EDGE('',*,*,#182,.F.);
#135=ORIENTED_EDGE('',*,*,#158,.T.);
#136=ORIENTED_EDGE('',*,*,#181,.T.);
#137=ORIENTED_EDGE('',*,*,#178,.F.);
#138=ORIENTED_EDGE('',*,*,#163,.F.);
#139=ORIENTED_EDGE('',*,*,#155,.T.);
#140=ORIENTED_EDGE('',*,*,#182,.T.);
#141=ORIENTED_EDGE('',*,*,#177,.F.);
#142=ORIENTED_EDGE('',*,*,#149,.F.);
#143=ORIENTED_EDGE('',*,*,#183,.T.);
#144=ORIENTED_EDGE('',*,*,#183,.F.);
#145=ORIENTED_EDGE('',*,*,#180,.T.);
#146=EDGE_CURVE('',#184,#184,#214,.T.);
#147=EDGE_CURVE('',#185,#185,#215,.T.);
#148=EDGE_CURVE('',#186,#186,#216,.T.);
#149=EDGE_CURVE('',#187,#187,#217,.T.);
#150=EDGE_CURVE('',#188,#188,#218,.T.);
#151=EDGE_CURVE('',#189,#189,#219,.T.);
#152=EDGE_CURVE('',#190,#190,#220,.T.);
#153=EDGE_CURVE('',#191,#191,#221,.T.);
#154=EDGE_CURVE('',#192,#192,#222,.T.);
#155=EDGE_CURVE('',#193,#194,#223,.T.);
#156=EDGE_CURVE('',#193,#195,#21,.T.);
#157=EDGE_CURVE('',#196,#195,#224,.T.);
#158=EDGE_CURVE('',#194,#196,#22,.T.);
#159=EDGE_CURVE('',#197,#198,#225,.T.);
#160=EDGE_CURVE('',#199,#197,#23,.T.);
#161=EDGE_CURVE('',#200,#199,#226,.T.);
#162=EDGE_CURVE('',#200,#198,#24,.T.);
#163=EDGE_CURVE('',#193,#201,#25,.T.);
#164=EDGE_CURVE('',#201,#202,#26,.T.);
#165=EDGE_CURVE('',#195,#202,#27,.T.);
#166=EDGE_CURVE('',#197,#203,#28,.T.);
#167=EDGE_CURVE('',#198,#204,#29,.T.);
#168=EDGE_CURVE('',#203,#204,#227,.T.);
#169=EDGE_CURVE('',#200,#205,#30,.T.);
#170=EDGE_CURVE('',#205,#204,#31,.T.);
#171=EDGE_CURVE('',#199,#206,#32,.T.);
#172=EDGE_CURVE('',#205,#206,#228,.T.);
#173=EDGE_CURVE('',#207,#207,#229,.T.);
#174=EDGE_CURVE('',#208,#208,#230,.T.);
#175=EDGE_CURVE('',#206,#203,#33,.T.);
#176=EDGE_CURVE('',#209,#202,#231,.T.);
#177=EDGE_CURVE('',#201,#210,#232,.T.);
#178=EDGE_CURVE('',#210,#209,#34,.T.);
#179=EDGE_CURVE('',#211,#211,#233,.T.);
#180=EDGE_CURVE('',#212,#212,#234,.T.);
#181=EDGE_CURVE('',#196,#209,#35,.T.);
#182=EDGE_CURVE('',#194,#210,#36,.T.);
#183=EDGE_CURVE('',#213,#213,#235,.T.);
#184=VERTEX_POINT('',#656);
#185=VERTEX_POINT('',#658);
#186=VERTEX_POINT('',#661);
#187=VERTEX_POINT('',#663);
#188=VERTEX_POINT('',#666);
#189=VERTEX_POINT('',#669);
#190=VERTEX_POINT('',#672);
#191=VERTEX_POINT('',#675);
#192=VERTEX_POINT('',#678);
#193=VERTEX_POINT('',#680);
#194=VERTEX_POINT('',#681);
#195=VERTEX_POINT('',#683);
#196=VERTEX_POINT('',#685);
#197=VERTEX_POINT('',#688);
#198=VERTEX_POINT('',#689);
#199=VERTEX_POINT('',#691);
#200=VERTEX_POINT('',#693);
#201=VERTEX_POINT('',#697);
#202=VERTEX_POINT('',#699);
#203=VERTEX_POINT('',#703);
#204=VERTEX_POINT('',#705);
#205=VERTEX_POINT('',#709);
#206=VERTEX_POINT('',#713);
#207=VERTEX_POINT('',#717);
#208=VERTEX_POINT('',#720);
#209=VERTEX_POINT('',#726);
#210=VERTEX_POINT('',#728);
#211=VERTEX_POINT('',#731);
#212=VERTEX_POINT('',#733);
#213=VERTEX_POINT('',#742);
#214=CIRCLE('',#504,6.094);
#215=CIRCLE('',#505,6.094);
#216=CIRCLE('',#507,4.4);
#217=CIRCLE('',#508,5.65);
#218=CIRCLE('',#510,4.4);
#219=CIRCLE('',#512,4.5);
#220=CIRCLE('',#514,6.84529946162076);
#221=CIRCLE('',#516,8.);
#222=CIRCLE('',#518,8.);
#223=CIRCLE('',#519,8.);
#224=CIRCLE('',#520,8.);
#225=CIRCLE('',#521,8.);
#226=CIRCLE('',#522,8.);
#227=CIRCLE('',#525,6.6);
#228=CIRCLE('',#528,6.6);
#229=CIRCLE('',#530,7.5);
#230=CIRCLE('',#532,6.64);
#231=CIRCLE('',#536,6.6);
#232=CIRCLE('',#537,6.6);
#233=CIRCLE('',#538,6.6);
#234=CIRCLE('',#539,6.6);
#235=CIRCLE('',#545,6.2);
#236=EDGE_LOOP('',(#70));
#237=EDGE_LOOP('',(#71));
#238=EDGE_LOOP('',(#72));
#239=EDGE_LOOP('',(#73));
#240=EDGE_LOOP('',(#74));
#241=EDGE_LOOP('',(#75));
#242=EDGE_LOOP('',(#76));
#243=EDGE_LOOP('',(#77));
#244=EDGE_LOOP('',(#78));
#245=EDGE_LOOP('',(#79));
#246=EDGE_LOOP('',(#80));
#247=EDGE_LOOP('',(#81));
#248=EDGE_LOOP('',(#82));
#249=EDGE_LOOP('',(#83,#84,#85,#86));
#250=EDGE_LOOP('',(#87,#88,#89,#90));
#251=EDGE_LOOP('',(#91));
#252=EDGE_LOOP('',(#92,#93,#94,#95));
#253=EDGE_LOOP('',(#96,#97,#98,#99));
#254=EDGE_LOOP('',(#100,#101,#102,#103));
#255=EDGE_LOOP('',(#104,#105,#106,#107));
#256=EDGE_LOOP('',(#108));
#257=EDGE_LOOP('',(#109));
#258=EDGE_LOOP('',(#110));
#259=EDGE_LOOP('',(#111));
#260=EDGE_LOOP('',(#112,#113,#114,#115));
#261=EDGE_LOOP('',(#116));
#262=EDGE_LOOP('',(#117));
#263=EDGE_LOOP('',(#118,#119,#120,#121));
#264=EDGE_LOOP('',(#122));
#265=EDGE_LOOP('',(#123,#124,#125,#126));
#266=EDGE_LOOP('',(#127));
#267=EDGE_LOOP('',(#128));
#268=EDGE_LOOP('',(#129));
#269=EDGE_LOOP('',(#130,#131,#132,#133));
#270=EDGE_LOOP('',(#134,#135,#136,#137));
#271=EDGE_LOOP('',(#138,#139,#140,#141));
#272=EDGE_LOOP('',(#142));
#273=EDGE_LOOP('',(#143));
#274=EDGE_LOOP('',(#144));
#275=EDGE_LOOP('',(#145));
#276=FACE_BOUND('',#236,.T.);
#277=FACE_BOUND('',#237,.T.);
#278=FACE_BOUND('',#238,.T.);
#279=FACE_BOUND('',#239,.T.);
#280=FACE_BOUND('',#240,.T.);
#281=FACE_BOUND('',#241,.T.);
#282=FACE_BOUND('',#242,.T.);
#283=FACE_BOUND('',#243,.T.);
#284=FACE_BOUND('',#244,.T.);
#285=FACE_BOUND('',#245,.T.);
#286=FACE_BOUND('',#246,.T.);
#287=FACE_BOUND('',#247,.T.);
#288=FACE_BOUND('',#248,.T.);
#289=FACE_BOUND('',#249,.T.);
#290=FACE_BOUND('',#250,.T.);
#291=FACE_BOUND('',#251,.T.);
#292=FACE_BOUND('',#252,.T.);
#293=FACE_BOUND('',#253,.T.);
#294=FACE_BOUND('',#254,.T.);
#295=FACE_BOUND('',#255,.T.);
#296=FACE_BOUND('',#256,.T.);
#297=FACE_BOUND('',#257,.T.);
#298=FACE_BOUND('',#258,.T.);
#299=FACE_BOUND('',#259,.T.);
#300=FACE_BOUND('',#260,.T.);
#301=FACE_BOUND('',#261,.T.);
#302=FACE_BOUND('',#262,.T.);
#303=FACE_BOUND('',#263,.T.);
#304=FACE_BOUND('',#264,.T.);
#305=FACE_BOUND('',#265,.T.);
#306=FACE_BOUND('',#266,.T.);
#307=FACE_BOUND('',#267,.T.);
#308=FACE_BOUND('',#268,.T.);
#309=FACE_BOUND('',#269,.T.);
#310=FACE_BOUND('',#270,.T.);
#311=FACE_BOUND('',#271,.T.);
#312=FACE_BOUND('',#272,.T.);
#313=FACE_BOUND('',#273,.T.);
#314=FACE_BOUND('',#274,.T.);
#315=FACE_BOUND('',#275,.T.);
#316=CYLINDRICAL_SURFACE('',#503,6.094);
#317=CYLINDRICAL_SURFACE('',#509,4.4);
#318=CYLINDRICAL_SURFACE('',#517,8.);
#319=CYLINDRICAL_SURFACE('',#535,6.6);
#320=STYLED_ITEM('',(#342),#476);
#321=STYLED_ITEM('',(#343),#477);
#322=STYLED_ITEM('',(#344),#478);
#323=STYLED_ITEM('',(#345),#479);
#324=STYLED_ITEM('',(#346),#480);
#325=STYLED_ITEM('',(#347),#481);
#326=STYLED_ITEM('',(#348),#482);
#327=STYLED_ITEM('',(#349),#483);
#328=STYLED_ITEM('',(#350),#484);
#329=STYLED_ITEM('',(#351),#485);
#330=STYLED_ITEM('',(#352),#486);
#331=STYLED_ITEM('',(#353),#487);
#332=STYLED_ITEM('',(#354),#488);
#333=STYLED_ITEM('',(#355),#489);
#334=STYLED_ITEM('',(#356),#490);
#335=STYLED_ITEM('',(#357),#491);
#336=STYLED_ITEM('',(#358),#492);
#337=STYLED_ITEM('',(#359),#493);
#338=STYLED_ITEM('',(#360),#494);
#339=STYLED_ITEM('',(#361),#495);
#340=STYLED_ITEM('',(#362),#496);
#341=STYLED_ITEM('',(#363),#497);
#342=PRESENTATION_STYLE_ASSIGNMENT((#364));
#343=PRESENTATION_STYLE_ASSIGNMENT((#365));
#344=PRESENTATION_STYLE_ASSIGNMENT((#366));
#345=PRESENTATION_STYLE_ASSIGNMENT((#367));
#346=PRESENTATION_STYLE_ASSIGNMENT((#368));
#347=PRESENTATION_STYLE_ASSIGNMENT((#369));
#348=PRESENTATION_STYLE_ASSIGNMENT((#370));
#349=PRESENTATION_STYLE_ASSIGNMENT((#371));
#350=PRESENTATION_STYLE_ASSIGNMENT((#372));
#351=PRESENTATION_STYLE_ASSIGNMENT((#373));
#352=PRESENTATION_STYLE_ASSIGNMENT((#374));
#353=PRESENTATION_STYLE_ASSIGNMENT((#375));
#354=PRESENTATION_STYLE_ASSIGNMENT((#376));
#355=PRESENTATION_STYLE_ASSIGNMENT((#377));
#356=PRESENTATION_STYLE_ASSIGNMENT((#378));
#357=PRESENTATION_STYLE_ASSIGNMENT((#379));
#358=PRESENTATION_STYLE_ASSIGNMENT((#380));
#359=PRESENTATION_STYLE_ASSIGNMENT((#381));
#360=PRESENTATION_STYLE_ASSIGNMENT((#382));
#361=PRESENTATION_STYLE_ASSIGNMENT((#383));
#362=PRESENTATION_STYLE_ASSIGNMENT((#384));
#363=PRESENTATION_STYLE_ASSIGNMENT((#385));
#364=SURFACE_STYLE_USAGE(.BOTH.,#386);
#365=SURFACE_STYLE_USAGE(.BOTH.,#387);
#366=SURFACE_STYLE_USAGE(.BOTH.,#388);
#367=SURFACE_STYLE_USAGE(.BOTH.,#389);
#368=SURFACE_STYLE_USAGE(.BOTH.,#390);
#369=SURFACE_STYLE_USAGE(.BOTH.,#391);
#370=SURFACE_STYLE_USAGE(.BOTH.,#392);
#371=SURFACE_STYLE_USAGE(.BOTH.,#393);
#372=SURFACE_STYLE_USAGE(.BOTH.,#394);
#373=SURFACE_STYLE_USAGE(.BOTH.,#395);
#374=SURFACE_STYLE_USAGE(.BOTH.,#396);
#375=SURFACE_STYLE_USAGE(.BOTH.,#397);
#376=SURFACE_STYLE_USAGE(.BOTH.,#398);
#377=SURFACE_STYLE_USAGE(.BOTH.,#399);
#378=SURFACE_STYLE_USAGE(.BOTH.,#400);
#379=SURFACE_STYLE_USAGE(.BOTH.,#401);
#380=SURFACE_STYLE_USAGE(.BOTH.,#402);
#381=SURFACE_STYLE_USAGE(.BOTH.,#403);
#382=SURFACE_STYLE_USAGE(.BOTH.,#404);
#383=SURFACE_STYLE_USAGE(.BOTH.,#405);
#384=SURFACE_STYLE_USAGE(.BOTH.,#406);
#385=SURFACE_STYLE_USAGE(.BOTH.,#407);
#386=SURFACE_SIDE_STYLE('',(#408));
#387=SURFACE_SIDE_STYLE('',(#409));
#388=SURFACE_SIDE_STYLE('',(#410));
#389=SURFACE_SIDE_STYLE('',(#411));
#390=SURFACE_SIDE_STYLE('',(#412));
#391=SURFACE_SIDE_STYLE('',(#413));
#392=SURFACE_SIDE_STYLE('',(#414));
#393=SURFACE_SIDE_STYLE('',(#415));
#394=SURFACE_SIDE_STYLE('',(#416));
#395=SURFACE_SIDE_STYLE('',(#417));
#396=SURFACE_SIDE_STYLE('',(#418));
#397=SURFACE_SIDE_STYLE('',(#419));
#398=SURFACE_SIDE_STYLE('',(#420));
#399=SURFACE_SIDE_STYLE('',(#421));
#400=SURFACE_SIDE_STYLE('',(#422));
#401=SURFACE_SIDE_STYLE('',(#423));
#402=SURFACE_SIDE_STYLE('',(#424));
#403=SURFACE_SIDE_STYLE('',(#425));
#404=SURFACE_SIDE_STYLE('',(#426));
#405=SURFACE_SIDE_STYLE('',(#427));
#406=SURFACE_SIDE_STYLE('',(#428));
#407=SURFACE_SIDE_STYLE('',(#429));
#408=SURFACE_STYLE_FILL_AREA(#430);
#409=SURFACE_STYLE_FILL_AREA(#431);
#410=SURFACE_STYLE_FILL_AREA(#432);
#411=SURFACE_STYLE_FILL_AREA(#433);
#412=SURFACE_STYLE_FILL_AREA(#434);
#413=SURFACE_STYLE_FILL_AREA(#435);
#414=SURFACE_STYLE_FILL_AREA(#436);
#415=SURFACE_STYLE_FILL_AREA(#437);
#416=SURFACE_STYLE_FILL_AREA(#438);
#417=SURFACE_STYLE_FILL_AREA(#439);
#418=SURFACE_STYLE_FILL_AREA(#440);
#419=SURFACE_STYLE_FILL_AREA(#441);
#420=SURFACE_STYLE_FILL_AREA(#442);
#421=SURFACE_STYLE_FILL_AREA(#443);
#422=SURFACE_STYLE_FILL_AREA(#444);
#423=SURFACE_STYLE_FILL_AREA(#445);
#424=SURFACE_STYLE_FILL_AREA(#446);
#425=SURFACE_STYLE_FILL_AREA(#447);
#426=SURFACE_STYLE_FILL_AREA(#448);
#427=SURFACE_STYLE_FILL_AREA(#449);
#428=SURFACE_STYLE_FILL_AREA(#450);
#429=SURFACE_STYLE_FILL_AREA(#451);
#430=FILL_AREA_STYLE('',(#452));
#431=FILL_AREA_STYLE('',(#453));
#432=FILL_AREA_STYLE('',(#454));
#433=FILL_AREA_STYLE('',(#455));
#434=FILL_AREA_STYLE('',(#456));
#435=FILL_AREA_STYLE('',(#457));
#436=FILL_AREA_STYLE('',(#458));
#437=FILL_AREA_STYLE('',(#459));
#438=FILL_AREA_STYLE('',(#460));
#439=FILL_AREA_STYLE('',(#461));
#440=FILL_AREA_STYLE('',(#462));
#441=FILL_AREA_STYLE('',(#463));
#442=FILL_AREA_STYLE('',(#464));
#443=FILL_AREA_STYLE('',(#465));
#444=FILL_AREA_STYLE('',(#466));
#445=FILL_AREA_STYLE('',(#467));
#446=FILL_AREA_STYLE('',(#468));
#447=FILL_AREA_STYLE('',(#469));
#448=FILL_AREA_STYLE('',(#470));
#449=FILL_AREA_STYLE('',(#471));
#450=FILL_AREA_STYLE('',(#472));
#451=FILL_AREA_STYLE('',(#473));
#452=FILL_AREA_STYLE_COLOUR('',#474);
#453=FILL_AREA_STYLE_COLOUR('',#475);
#454=FILL_AREA_STYLE_COLOUR('',#475);
#455=FILL_AREA_STYLE_COLOUR('',#475);
#456=FILL_AREA_STYLE_COLOUR('',#475);
#457=FILL_AREA_STYLE_COLOUR('',#475);
#458=FILL_AREA_STYLE_COLOUR('',#475);
#459=FILL_AREA_STYLE_COLOUR('',#475);
#460=FILL_AREA_STYLE_COLOUR('',#475);
#461=FILL_AREA_STYLE_COLOUR('',#475);
#462=FILL_AREA_STYLE_COLOUR('',#475);
#463=FILL_AREA_STYLE_COLOUR('',#475);
#464=FILL_AREA_STYLE_COLOUR('',#475);
#465=FILL_AREA_STYLE_COLOUR('',#475);
#466=FILL_AREA_STYLE_COLOUR('',#475);
#467=FILL_AREA_STYLE_COLOUR('',#475);
#468=FILL_AREA_STYLE_COLOUR('',#475);
#469=FILL_AREA_STYLE_COLOUR('',#475);
#470=FILL_AREA_STYLE_COLOUR('',#475);
#471=FILL_AREA_STYLE_COLOUR('',#475);
#472=FILL_AREA_STYLE_COLOUR('',#475);
#473=FILL_AREA_STYLE_COLOUR('',#475);
#474=COLOUR_RGB( ' ', 0.5, 0.5, 0.5 );
#475=COLOUR_RGB( ' ', 0.5, 0.5, 0.5 );
#476=ADVANCED_FACE('',(#276,#277),#316,.F.);
#477=ADVANCED_FACE('',(#278,#279),#64,.F.);
#478=ADVANCED_FACE('',(#280,#281),#317,.F.);
#479=ADVANCED_FACE('',(#282,#283),#65,.F.);
#480=ADVANCED_FACE('',(#284,#285),#53,.T.);
#481=ADVANCED_FACE('',(#286,#287),#66,.T.);
#482=ADVANCED_FACE('',(#288,#289,#290,#291),#318,.T.);
#483=ADVANCED_FACE('',(#292),#54,.F.);
#484=ADVANCED_FACE('',(#293),#55,.T.);
#485=ADVANCED_FACE('',(#294),#56,.T.);
#486=ADVANCED_FACE('',(#295),#57,.T.);
#487=ADVANCED_FACE('',(#296,#297),#67,.T.);
#488=ADVANCED_FACE('',(#298,#299),#58,.T.);
#489=ADVANCED_FACE('',(#300),#59,.F.);
#490=ADVANCED_FACE('',(#301,#302),#68,.F.);
#491=ADVANCED_FACE('',(#303,#304,#305,#306),#319,.F.);
#492=ADVANCED_FACE('',(#307,#308),#69,.F.);
#493=ADVANCED_FACE('',(#309),#60,.T.);
#494=ADVANCED_FACE('',(#310),#61,.T.);
#495=ADVANCED_FACE('',(#311),#62,.T.);
#496=ADVANCED_FACE('',(#312,#313),#63,.T.);
#497=ADVANCED_FACE('',(#314,#315),#20,.F.);
#498=CLOSED_SHELL('',(#476,#477,#478,#479,#480,#481,#482,#483,#484,#485,
#486,#487,#488,#489,#490,#491,#492,#493,#494,#495,#496,#497));
#499=MANIFOLD_SOLID_BREP('NOCUT',#498);
#500=SHAPE_DEFINITION_REPRESENTATION(#750,#501);
#501=SHAPE_REPRESENTATION('321150000',(#502),#745);
#502=AXIS2_PLACEMENT_3D('',#653,#547,#548);
#503=AXIS2_PLACEMENT_3D('',#654,#549,#550);
#504=AXIS2_PLACEMENT_3D('',#655,#551,#552);
#505=AXIS2_PLACEMENT_3D('',#657,#553,#554);
#506=AXIS2_PLACEMENT_3D('',#659,#555,#556);
#507=AXIS2_PLACEMENT_3D('',#660,#557,#558);
#508=AXIS2_PLACEMENT_3D('',#662,#559,#560);
#509=AXIS2_PLACEMENT_3D('',#664,#561,#562);
#510=AXIS2_PLACEMENT_3D('',#665,#563,#564);
#511=AXIS2_PLACEMENT_3D('',#667,#565,#566);
#512=AXIS2_PLACEMENT_3D('',#668,#567,#568);
#513=AXIS2_PLACEMENT_3D('',#670,#569,#570);
#514=AXIS2_PLACEMENT_3D('',#671,#571,#572);
#515=AXIS2_PLACEMENT_3D('',#673,#573,#574);
#516=AXIS2_PLACEMENT_3D('',#674,#575,#576);
#517=AXIS2_PLACEMENT_3D('',#676,#577,#578);
#518=AXIS2_PLACEMENT_3D('',#677,#579,#580);
#519=AXIS2_PLACEMENT_3D('',#679,#581,#582);
#520=AXIS2_PLACEMENT_3D('',#684,#584,#585);
#521=AXIS2_PLACEMENT_3D('',#687,#587,#588);
#522=AXIS2_PLACEMENT_3D('',#692,#590,#591);
#523=AXIS2_PLACEMENT_3D('',#695,#593,#594);
#524=AXIS2_PLACEMENT_3D('',#701,#598,#599);
#525=AXIS2_PLACEMENT_3D('',#706,#602,#603);
#526=AXIS2_PLACEMENT_3D('',#707,#604,#605);
#527=AXIS2_PLACEMENT_3D('',#711,#608,#609);
#528=AXIS2_PLACEMENT_3D('',#714,#611,#612);
#529=AXIS2_PLACEMENT_3D('',#715,#613,#614);
#530=AXIS2_PLACEMENT_3D('',#716,#615,#616);
#531=AXIS2_PLACEMENT_3D('',#718,#617,#618);
#532=AXIS2_PLACEMENT_3D('',#719,#619,#620);
#533=AXIS2_PLACEMENT_3D('',#721,#621,#622);
#534=AXIS2_PLACEMENT_3D('',#723,#624,#625);
#535=AXIS2_PLACEMENT_3D('',#724,#626,#627);
#536=AXIS2_PLACEMENT_3D('',#725,#628,#629);
#537=AXIS2_PLACEMENT_3D('',#727,#630,#631);
#538=AXIS2_PLACEMENT_3D('',#730,#633,#634);
#539=AXIS2_PLACEMENT_3D('',#732,#635,#636);
#540=AXIS2_PLACEMENT_3D('',#734,#637,#638);
#541=AXIS2_PLACEMENT_3D('',#735,#639,#640);
#542=AXIS2_PLACEMENT_3D('',#737,#642,#643);
#543=AXIS2_PLACEMENT_3D('',#739,#645,#646);
#544=AXIS2_PLACEMENT_3D('',#740,#647,#648);
#545=AXIS2_PLACEMENT_3D('',#741,#649,#650);
#546=AXIS2_PLACEMENT_3D('',#743,#651,#652);
#547=DIRECTION('',(0.,0.,1.));
#548=DIRECTION('',(1.,0.,0.));
#549=DIRECTION('',(0.,0.,-1.));
#550=DIRECTION('',(1.,0.,0.));
#551=DIRECTION('',(0.,0.,1.));
#552=DIRECTION('',(1.,0.,0.));
#553=DIRECTION('',(0.,0.,-1.));
#554=DIRECTION('',(-1.,0.,0.));
#555=DIRECTION('',(0.,0.,1.));
#556=DIRECTION('',(1.,0.,0.));
#557=DIRECTION('',(0.,0.,1.));
#558=DIRECTION('',(1.,0.,0.));
#559=DIRECTION('',(0.,0.,1.));
#560=DIRECTION('',(1.,0.,0.));
#561=DIRECTION('',(0.,0.,-1.));
#562=DIRECTION('',(1.,0.,0.));
#563=DIRECTION('',(0.,0.,1.));
#564=DIRECTION('',(1.,0.,0.));
#565=DIRECTION('',(0.,0.,-1.));
#566=DIRECTION('',(-1.,0.,0.));
#567=DIRECTION('',(0.,0.,1.));
#568=DIRECTION('',(1.,0.,0.));
#569=DIRECTION('',(0.,0.,-1.));
#570=DIRECTION('',(-1.,0.,0.));
#571=DIRECTION('',(0.,0.,1.));
#572=DIRECTION('',(1.,0.,0.));
#573=DIRECTION('',(0.,0.,1.));
#574=DIRECTION('',(1.,0.,0.));
#575=DIRECTION('',(0.,0.,1.));
#576=DIRECTION('',(1.,0.,0.));
#577=DIRECTION('',(0.,0.,-1.));
#578=DIRECTION('',(1.,0.,0.));
#579=DIRECTION('',(0.,0.,1.));
#580=DIRECTION('',(1.,0.,0.));
#581=DIRECTION('',(0.,0.,1.));
#582=DIRECTION('',(1.,0.,0.));
#583=DIRECTION('',(0.,0.,1.));
#584=DIRECTION('',(0.,0.,-1.));
#585=DIRECTION('',(-1.,0.,0.));
#586=DIRECTION('',(0.,0.,1.));
#587=DIRECTION('',(0.,0.,-1.));
#588=DIRECTION('',(-1.,0.,0.));
#589=DIRECTION('',(0.,0.,1.));
#590=DIRECTION('',(0.,0.,1.));
#591=DIRECTION('',(1.,0.,0.));
#592=DIRECTION('',(0.,0.,1.));
#593=DIRECTION('',(1.,0.,0.));
#594=DIRECTION('',(0.,0.,-1.));
#595=DIRECTION('',(0.,-1.,0.));
#596=DIRECTION('',(0.,0.,1.));
#597=DIRECTION('',(0.,-1.,0.));
#598=DIRECTION('',(0.,0.,-1.));
#599=DIRECTION('',(-1.,0.,0.));
#600=DIRECTION('',(0.,-1.,0.));
#601=DIRECTION('',(0.,1.,0.));
#602=DIRECTION('',(0.,0.,-1.));
#603=DIRECTION('',(-1.,0.,0.));
#604=DIRECTION('',(1.,0.,0.));
#605=DIRECTION('',(0.,0.,-1.));
#606=DIRECTION('',(0.,1.,0.));
#607=DIRECTION('',(0.,0.,1.));
#608=DIRECTION('',(0.,0.,1.));
#609=DIRECTION('',(1.,0.,0.));
#610=DIRECTION('',(0.,-1.,0.));
#611=DIRECTION('',(0.,0.,1.));
#612=DIRECTION('',(1.,0.,0.));
#613=DIRECTION('',(0.,0.,-1.));
#614=DIRECTION('',(-1.,0.,0.));
#615=DIRECTION('',(0.,0.,1.));
#616=DIRECTION('',(1.,0.,0.));
#617=DIRECTION('',(0.,0.,1.));
#618=DIRECTION('',(1.,0.,0.));
#619=DIRECTION('',(0.,0.,1.));
#620=DIRECTION('',(1.,0.,0.));
#621=DIRECTION('',(-1.,0.,0.));
#622=DIRECTION('',(0.,0.,1.));
#623=DIRECTION('',(0.,0.,1.));
#624=DIRECTION('',(0.,0.,1.));
#625=DIRECTION('',(1.,0.,0.));
#626=DIRECTION('',(0.,0.,-1.));
#627=DIRECTION('',(1.,0.,0.));
#628=DIRECTION('',(0.,0.,-1.));
#629=DIRECTION('',(-1.,0.,0.));
#630=DIRECTION('',(0.,0.,1.));
#631=DIRECTION('',(1.,0.,0.));
#632=DIRECTION('',(0.,0.,1.));
#633=DIRECTION('',(0.,0.,1.));
#634=DIRECTION('',(1.,0.,0.));
#635=DIRECTION('',(0.,0.,1.));
#636=DIRECTION('',(1.,0.,0.));
#637=DIRECTION('',(0.,0.,-1.));
#638=DIRECTION('',(-1.,0.,0.));
#639=DIRECTION('',(0.,0.,-1.));
#640=DIRECTION('',(-1.,0.,0.));
#641=DIRECTION('',(0.,1.,0.));
#642=DIRECTION('',(-1.,0.,0.));
#643=DIRECTION('',(0.,0.,1.));
#644=DIRECTION('',(0.,1.,0.));
#645=DIRECTION('',(0.,0.,1.));
#646=DIRECTION('',(1.,0.,0.));
#647=DIRECTION('',(0.,0.,1.));
#648=DIRECTION('',(1.,0.,0.));
#649=DIRECTION('',(0.,0.,1.));
#650=DIRECTION('',(1.,0.,0.));
#651=DIRECTION('',(0.,0.,1.));
#652=DIRECTION('',(1.,0.,0.));
#653=CARTESIAN_POINT('',(0.,0.,0.));
#654=CARTESIAN_POINT('',(0.,0.,-13.8820802929941));
#655=CARTESIAN_POINT('',(0.,0.,10.954));
#656=CARTESIAN_POINT('',(6.094,0.,10.954));
#657=CARTESIAN_POINT('',(0.,0.,6.89022357424404));
#658=CARTESIAN_POINT('',(-6.094,0.,6.89022357424404));
#659=CARTESIAN_POINT('',(0.,0.,0.234936490538913));
#660=CARTESIAN_POINT('',(0.,0.,0.234936490538913));
#661=CARTESIAN_POINT('',(4.4,0.,0.234936490538913));
#662=CARTESIAN_POINT('',(0.,0.,2.4));
#663=CARTESIAN_POINT('',(5.65,0.,2.4));
#664=CARTESIAN_POINT('',(0.,0.,60.));
#665=CARTESIAN_POINT('',(0.,0.,0.100000000000003));
#666=CARTESIAN_POINT('',(4.4,0.,0.100000000000003));
#667=CARTESIAN_POINT('',(0.,0.,0.));
#668=CARTESIAN_POINT('',(0.,0.,0.));
#669=CARTESIAN_POINT('',(4.5,0.,0.));
#670=CARTESIAN_POINT('',(6.84529946162076,0.,0.));
#671=CARTESIAN_POINT('',(0.,0.,0.));
#672=CARTESIAN_POINT('',(6.84529946162076,0.,0.));
#673=CARTESIAN_POINT('',(0.,0.,2.));
#674=CARTESIAN_POINT('',(0.,0.,2.));
#675=CARTESIAN_POINT('',(8.,0.,2.));
#676=CARTESIAN_POINT('',(0.,0.,60.));
#677=CARTESIAN_POINT('',(0.,0.,11.));
#678=CARTESIAN_POINT('',(8.,0.,11.));
#679=CARTESIAN_POINT('',(0.,0.,3.2));
#680=CARTESIAN_POINT('',(-5.,6.2449979983984,3.2));
#681=CARTESIAN_POINT('',(-5.,-6.2449979983984,3.2));
#682=CARTESIAN_POINT('',(-5.,6.2449979983984,60.));
#683=CARTESIAN_POINT('',(-5.,6.2449979983984,4.2));
#684=CARTESIAN_POINT('',(0.,0.,4.2));
#685=CARTESIAN_POINT('',(-5.,-6.2449979983984,4.2));
#686=CARTESIAN_POINT('',(-5.,-6.2449979983984,60.));
#687=CARTESIAN_POINT('',(0.,0.,4.2));
#688=CARTESIAN_POINT('',(5.,6.2449979983984,4.2));
#689=CARTESIAN_POINT('',(5.,-6.2449979983984,4.2));
#690=CARTESIAN_POINT('',(5.,6.2449979983984,60.));
#691=CARTESIAN_POINT('',(5.,6.2449979983984,3.2));
#692=CARTESIAN_POINT('',(0.,0.,3.2));
#693=CARTESIAN_POINT('',(5.,-6.2449979983984,3.2));
#694=CARTESIAN_POINT('',(5.,-6.2449979983984,60.));
#695=CARTESIAN_POINT('',(-5.,25.7705257998358,3.2));
#696=CARTESIAN_POINT('',(-5.,25.7705257998358,3.2));
#697=CARTESIAN_POINT('',(-5.,4.30813184570761,3.2));
#698=CARTESIAN_POINT('',(-5.,4.30813184570761,60.));
#699=CARTESIAN_POINT('',(-5.,4.30813184570761,4.2));
#700=CARTESIAN_POINT('',(-5.,25.7705257998358,4.2));
#701=CARTESIAN_POINT('',(8.1,-25.7705257998358,4.2));
#702=CARTESIAN_POINT('',(5.,25.7705257998358,4.2));
#703=CARTESIAN_POINT('',(5.,4.30813184570761,4.2));
#704=CARTESIAN_POINT('',(5.,-25.7705257998358,4.2));
#705=CARTESIAN_POINT('',(5.,-4.30813184570761,4.2));
#706=CARTESIAN_POINT('',(0.,0.,4.2));
#707=CARTESIAN_POINT('',(5.,-25.7705257998358,4.2));
#708=CARTESIAN_POINT('',(5.,-25.7705257998358,3.2));
#709=CARTESIAN_POINT('',(5.,-4.30813184570761,3.2));
#710=CARTESIAN_POINT('',(5.,-4.30813184570761,60.));
#711=CARTESIAN_POINT('',(5.,-25.7705257998358,3.2));
#712=CARTESIAN_POINT('',(5.,25.7705257998358,3.2));
#713=CARTESIAN_POINT('',(5.,4.30813184570761,3.2));
#714=CARTESIAN_POINT('',(0.,0.,3.2));
#715=CARTESIAN_POINT('',(0.,0.,11.5));
#716=CARTESIAN_POINT('',(0.,0.,11.5));
#717=CARTESIAN_POINT('',(7.5,0.,11.5));
#718=CARTESIAN_POINT('',(6.64,0.,11.5));
#719=CARTESIAN_POINT('',(0.,0.,11.5));
#720=CARTESIAN_POINT('',(6.64,0.,11.5));
#721=CARTESIAN_POINT('',(5.,25.7705257998358,4.2));
#722=CARTESIAN_POINT('',(5.,4.30813184570761,60.));
#723=CARTESIAN_POINT('',(0.,0.,10.95));
#724=CARTESIAN_POINT('',(0.,0.,60.));
#725=CARTESIAN_POINT('',(0.,0.,4.2));
#726=CARTESIAN_POINT('',(-5.,-4.30813184570761,4.2));
#727=CARTESIAN_POINT('',(0.,0.,3.2));
#728=CARTESIAN_POINT('',(-5.,-4.30813184570761,3.2));
#729=CARTESIAN_POINT('',(-5.,-4.30813184570761,60.));
#730=CARTESIAN_POINT('',(0.,0.,5.5));
#731=CARTESIAN_POINT('',(6.6,0.,5.5));
#732=CARTESIAN_POINT('',(0.,0.,2.8));
#733=CARTESIAN_POINT('',(6.6,0.,2.8));
#734=CARTESIAN_POINT('',(0.,0.,5.5));
#735=CARTESIAN_POINT('',(-5.,-25.7705257998358,4.2));
#736=CARTESIAN_POINT('',(-5.,-25.7705257998358,4.2));
#737=CARTESIAN_POINT('',(-5.,-25.7705257998358,3.2));
#738=CARTESIAN_POINT('',(-5.,-25.7705257998358,3.2));
#739=CARTESIAN_POINT('',(-8.1,-25.7705257998358,3.2));
#740=CARTESIAN_POINT('',(5.55,0.,2.4));
#741=CARTESIAN_POINT('',(0.,0.,2.4));
#742=CARTESIAN_POINT('',(6.2,0.,2.4));
#743=CARTESIAN_POINT('',(0.,0.,2.8));
#744=MECHANICAL_DESIGN_GEOMETRIC_PRESENTATION_REPRESENTATION('',(#320,#321,
#322,#323,#324,#325,#326,#327,#328,#329,#330,#331,#332,#333,#334,#335,#336,
#337,#338,#339,#340,#341),#745);
#745=(
GEOMETRIC_REPRESENTATION_CONTEXT(3)
GLOBAL_UNCERTAINTY_ASSIGNED_CONTEXT((#746))
GLOBAL_UNIT_ASSIGNED_CONTEXT((#749,#748,#747))
REPRESENTATION_CONTEXT('321150000','TOP_LEVEL_ASSEMBLY_PART')
);
#746=UNCERTAINTY_MEASURE_WITH_UNIT(LENGTH_MEASURE(0.005),#749,
'DISTANCE_ACCURACY_VALUE','Maximum Tolerance applied to model');
#747=(
NAMED_UNIT(*)
SI_UNIT($,.STERADIAN.)
SOLID_ANGLE_UNIT()
);
#748=(
NAMED_UNIT(*)
PLANE_ANGLE_UNIT()
SI_UNIT($,.RADIAN.)
);
#749=(
LENGTH_UNIT()
NAMED_UNIT(*)
SI_UNIT(.MILLI.,.METRE.)
);
#750=PRODUCT_DEFINITION_SHAPE('','',#751);
#751=PRODUCT_DEFINITION('','',#753,#752);
#752=PRODUCT_DEFINITION_CONTEXT('',#759,'design');
#753=PRODUCT_DEFINITION_FORMATION_WITH_SPECIFIED_SOURCE('','',#755,
 .NOT_KNOWN.);
#754=PRODUCT_RELATED_PRODUCT_CATEGORY('','',(#755));
#755=PRODUCT('NOCUT','NOCUT','NOCUT',(#757));
#756=PRODUCT_CATEGORY('','');
#757=PRODUCT_CONTEXT('',#759,'mechanical');
#758=APPLICATION_PROTOCOL_DEFINITION('international standard',
'automotive_design',2010,#759);
#759=APPLICATION_CONTEXT(
'core data for automotive mechanical design processes');
#760=AXIS2_PLACEMENT_3D('PCS',#761,#762,#763);
#761=CARTESIAN_POINT('',(0.,0.,11.5));
#762=DIRECTION('',(0.,0.,1.));
#763=DIRECTION('',(1.,0.,0.));
#764=AXIS2_PLACEMENT_3D('MCS',#765,#766,#767);
#765=CARTESIAN_POINT('',(0.,0.,0.25));
#766=DIRECTION('',(0.,0.,1.));
#767=DIRECTION('',(1.,0.,0.));
#768=AXIS2_PLACEMENT_3D('CSW',#769,#770,#771);
#769=CARTESIAN_POINT('',(0.,0.,0.));
#770=DIRECTION('',(0.,0.,1.));
#771=DIRECTION('',(1.,0.,0.));
#772=CONSTRUCTIVE_GEOMETRY_REPRESENTATION_RELATIONSHIP('coordinate systems',$,#19,#773);
#773=CONSTRUCTIVE_GEOMETRY_REPRESENTATION('coordinate systems',(#760, #764, #768),#745);
ENDSEC;
END-ISO-10303-21;

