ISO-10303-21;
HEADER;
FILE_DESCRIPTION(
/* description */ (''),
/* implementation_level */ '2;1');
FILE_NAME(
/* name */ '322050000.stp',
/* time_stamp */ '2022-09-23T10:08:31',
/* author */ ('Ratnasingam Jekanthan'),
/* organization */ ('REGO-FIX'),
/* preprocessor_version */ ' Unknown',
/* originating_system */ 'SIEMENS PLM Software Solid Edge ST10',
/* authorization */ 'Unknown');
FILE_SCHEMA (('AUTOMOTIVE_DESIGN { 1 0 10303 214 2 1 1}'));
ENDSEC;
DATA;
#10=PROPERTY_DEFINITION_REPRESENTATION(#14,#12);
#11=PROPERTY_DEFINITION_REPRESENTATION(#15,#13);
#12=REPRESENTATION('',(#16),#745);
#13=REPRESENTATION('',(#17),#745);
#14=PROPERTY_DEFINITION('pmi validation property','',#750);
#15=PROPERTY_DEFINITION('pmi validation property','',#750);
#16=VALUE_REPRESENTATION_ITEM('number of annotations',COUNT_MEASURE(0.));
#17=VALUE_REPRESENTATION_ITEM('number of views',COUNT_MEASURE(0.));
#18=SHAPE_REPRESENTATION_RELATIONSHIP('','',#501,#19);
#19=ADVANCED_BREP_SHAPE_REPRESENTATION('',(#499),#745);
#20=TOROIDAL_SURFACE('',#529,11.7,0.4);
#21=LINE('',#674,#37);
#22=LINE('',#679,#38);
#23=LINE('',#685,#39);
#24=LINE('',#689,#40);
#25=LINE('',#696,#41);
#26=LINE('',#701,#42);
#27=LINE('',#707,#43);
#28=LINE('',#711,#44);
#29=LINE('',#721,#45);
#30=LINE('',#722,#46);
#31=LINE('',#724,#47);
#32=LINE('',#725,#48);
#33=LINE('',#729,#49);
#34=LINE('',#730,#50);
#35=LINE('',#732,#51);
#36=LINE('',#734,#52);
#37=VECTOR('',#575,1000.);
#38=VECTOR('',#578,1000.);
#39=VECTOR('',#583,1000.);
#40=VECTOR('',#586,1000.);
#41=VECTOR('',#595,1000.);
#42=VECTOR('',#598,1000.);
#43=VECTOR('',#603,1000.);
#44=VECTOR('',#606,1000.);
#45=VECTOR('',#619,1000.);
#46=VECTOR('',#620,1000.);
#47=VECTOR('',#623,1000.);
#48=VECTOR('',#624,1000.);
#49=VECTOR('',#631,1000.);
#50=VECTOR('',#632,1000.);
#51=VECTOR('',#635,1000.);
#52=VECTOR('',#638,1000.);
#53=CYLINDRICAL_SURFACE('',#515,14.);
#54=CYLINDRICAL_SURFACE('',#523,12.1);
#55=CYLINDRICAL_SURFACE('',#540,7.9);
#56=CYLINDRICAL_SURFACE('',#544,11.4585);
#57=CONICAL_SURFACE('',#506,14.,0.785398163397448);
#58=CONICAL_SURFACE('',#508,12.2679491924311,0.523598775598299);
#59=CONICAL_SURFACE('',#513,7.9,0.785398163397457);
#60=CONICAL_SURFACE('',#520,11.35,0.349065850398867);
#61=CONICAL_SURFACE('',#542,10.3,0.523598775598299);
#62=CONICAL_SURFACE('',#546,11.35,0.785398163397448);
#63=ORIENTED_EDGE('',*,*,#139,.T.);
#64=ORIENTED_EDGE('',*,*,#140,.T.);
#65=ORIENTED_EDGE('',*,*,#141,.T.);
#66=ORIENTED_EDGE('',*,*,#139,.F.);
#67=ORIENTED_EDGE('',*,*,#142,.T.);
#68=ORIENTED_EDGE('',*,*,#143,.F.);
#69=ORIENTED_EDGE('',*,*,#144,.T.);
#70=ORIENTED_EDGE('',*,*,#142,.F.);
#71=ORIENTED_EDGE('',*,*,#145,.T.);
#72=ORIENTED_EDGE('',*,*,#144,.F.);
#73=ORIENTED_EDGE('',*,*,#143,.T.);
#74=ORIENTED_EDGE('',*,*,#146,.F.);
#75=ORIENTED_EDGE('',*,*,#147,.F.);
#76=ORIENTED_EDGE('',*,*,#148,.T.);
#77=ORIENTED_EDGE('',*,*,#149,.F.);
#78=ORIENTED_EDGE('',*,*,#150,.F.);
#79=ORIENTED_EDGE('',*,*,#151,.T.);
#80=ORIENTED_EDGE('',*,*,#152,.F.);
#81=ORIENTED_EDGE('',*,*,#153,.F.);
#82=ORIENTED_EDGE('',*,*,#141,.F.);
#83=ORIENTED_EDGE('',*,*,#154,.F.);
#84=ORIENTED_EDGE('',*,*,#155,.F.);
#85=ORIENTED_EDGE('',*,*,#156,.T.);
#86=ORIENTED_EDGE('',*,*,#157,.T.);
#87=ORIENTED_EDGE('',*,*,#158,.F.);
#88=ORIENTED_EDGE('',*,*,#159,.T.);
#89=ORIENTED_EDGE('',*,*,#160,.T.);
#90=ORIENTED_EDGE('',*,*,#161,.F.);
#91=ORIENTED_EDGE('',*,*,#162,.T.);
#92=ORIENTED_EDGE('',*,*,#163,.T.);
#93=ORIENTED_EDGE('',*,*,#154,.T.);
#94=ORIENTED_EDGE('',*,*,#164,.F.);
#95=ORIENTED_EDGE('',*,*,#164,.T.);
#96=ORIENTED_EDGE('',*,*,#165,.F.);
#97=ORIENTED_EDGE('',*,*,#166,.F.);
#98=ORIENTED_EDGE('',*,*,#165,.T.);
#99=ORIENTED_EDGE('',*,*,#149,.T.);
#100=ORIENTED_EDGE('',*,*,#167,.T.);
#101=ORIENTED_EDGE('',*,*,#160,.F.);
#102=ORIENTED_EDGE('',*,*,#168,.F.);
#103=ORIENTED_EDGE('',*,*,#147,.T.);
#104=ORIENTED_EDGE('',*,*,#169,.T.);
#105=ORIENTED_EDGE('',*,*,#162,.F.);
#106=ORIENTED_EDGE('',*,*,#170,.F.);
#107=ORIENTED_EDGE('',*,*,#146,.T.);
#108=ORIENTED_EDGE('',*,*,#168,.T.);
#109=ORIENTED_EDGE('',*,*,#163,.F.);
#110=ORIENTED_EDGE('',*,*,#169,.F.);
#111=ORIENTED_EDGE('',*,*,#167,.F.);
#112=ORIENTED_EDGE('',*,*,#148,.F.);
#113=ORIENTED_EDGE('',*,*,#170,.T.);
#114=ORIENTED_EDGE('',*,*,#161,.T.);
#115=ORIENTED_EDGE('',*,*,#152,.T.);
#116=ORIENTED_EDGE('',*,*,#171,.T.);
#117=ORIENTED_EDGE('',*,*,#157,.F.);
#118=ORIENTED_EDGE('',*,*,#172,.F.);
#119=ORIENTED_EDGE('',*,*,#151,.F.);
#120=ORIENTED_EDGE('',*,*,#173,.T.);
#121=ORIENTED_EDGE('',*,*,#158,.T.);
#122=ORIENTED_EDGE('',*,*,#171,.F.);
#123=ORIENTED_EDGE('',*,*,#173,.F.);
#124=ORIENTED_EDGE('',*,*,#150,.T.);
#125=ORIENTED_EDGE('',*,*,#174,.T.);
#126=ORIENTED_EDGE('',*,*,#159,.F.);
#127=ORIENTED_EDGE('',*,*,#175,.T.);
#128=ORIENTED_EDGE('',*,*,#145,.F.);
#129=ORIENTED_EDGE('',*,*,#166,.T.);
#130=ORIENTED_EDGE('',*,*,#175,.F.);
#131=ORIENTED_EDGE('',*,*,#174,.F.);
#132=ORIENTED_EDGE('',*,*,#153,.T.);
#133=ORIENTED_EDGE('',*,*,#172,.T.);
#134=ORIENTED_EDGE('',*,*,#156,.F.);
#135=ORIENTED_EDGE('',*,*,#176,.T.);
#136=ORIENTED_EDGE('',*,*,#155,.T.);
#137=ORIENTED_EDGE('',*,*,#140,.F.);
#138=ORIENTED_EDGE('',*,*,#176,.F.);
#139=EDGE_CURVE('',#177,#177,#207,.T.);
#140=EDGE_CURVE('',#178,#178,#208,.T.);
#141=EDGE_CURVE('',#179,#179,#209,.T.);
#142=EDGE_CURVE('',#180,#180,#210,.T.);
#143=EDGE_CURVE('',#181,#181,#211,.T.);
#144=EDGE_CURVE('',#182,#182,#212,.T.);
#145=EDGE_CURVE('',#183,#183,#213,.T.);
#146=EDGE_CURVE('',#184,#185,#21,.T.);
#147=EDGE_CURVE('',#186,#184,#214,.T.);
#148=EDGE_CURVE('',#186,#187,#22,.T.);
#149=EDGE_CURVE('',#185,#187,#215,.T.);
#150=EDGE_CURVE('',#188,#189,#216,.T.);
#151=EDGE_CURVE('',#188,#190,#23,.T.);
#152=EDGE_CURVE('',#191,#190,#217,.T.);
#153=EDGE_CURVE('',#189,#191,#24,.T.);
#154=EDGE_CURVE('',#192,#192,#218,.T.);
#155=EDGE_CURVE('',#193,#193,#219,.T.);
#156=EDGE_CURVE('',#194,#195,#25,.T.);
#157=EDGE_CURVE('',#195,#196,#220,.T.);
#158=EDGE_CURVE('',#197,#196,#26,.T.);
#159=EDGE_CURVE('',#197,#194,#221,.T.);
#160=EDGE_CURVE('',#198,#199,#222,.T.);
#161=EDGE_CURVE('',#200,#199,#27,.T.);
#162=EDGE_CURVE('',#200,#201,#223,.T.);
#163=EDGE_CURVE('',#201,#198,#28,.T.);
#164=EDGE_CURVE('',#202,#202,#224,.T.);
#165=EDGE_CURVE('',#203,#203,#225,.T.);
#166=EDGE_CURVE('',#204,#204,#226,.T.);
#167=EDGE_CURVE('',#187,#199,#29,.T.);
#168=EDGE_CURVE('',#185,#198,#30,.T.);
#169=EDGE_CURVE('',#184,#201,#31,.T.);
#170=EDGE_CURVE('',#186,#200,#32,.T.);
#171=EDGE_CURVE('',#190,#196,#33,.T.);
#172=EDGE_CURVE('',#191,#195,#34,.T.);
#173=EDGE_CURVE('',#188,#197,#35,.T.);
#174=EDGE_CURVE('',#189,#194,#36,.T.);
#175=EDGE_CURVE('',#205,#205,#227,.T.);
#176=EDGE_CURVE('',#206,#206,#228,.T.);
#177=VERTEX_POINT('',#656);
#178=VERTEX_POINT('',#658);
#179=VERTEX_POINT('',#661);
#180=VERTEX_POINT('',#664);
#181=VERTEX_POINT('',#666);
#182=VERTEX_POINT('',#669);
#183=VERTEX_POINT('',#672);
#184=VERTEX_POINT('',#675);
#185=VERTEX_POINT('',#676);
#186=VERTEX_POINT('',#678);
#187=VERTEX_POINT('',#680);
#188=VERTEX_POINT('',#683);
#189=VERTEX_POINT('',#684);
#190=VERTEX_POINT('',#686);
#191=VERTEX_POINT('',#688);
#192=VERTEX_POINT('',#692);
#193=VERTEX_POINT('',#694);
#194=VERTEX_POINT('',#697);
#195=VERTEX_POINT('',#698);
#196=VERTEX_POINT('',#700);
#197=VERTEX_POINT('',#702);
#198=VERTEX_POINT('',#705);
#199=VERTEX_POINT('',#706);
#200=VERTEX_POINT('',#708);
#201=VERTEX_POINT('',#710);
#202=VERTEX_POINT('',#713);
#203=VERTEX_POINT('',#716);
#204=VERTEX_POINT('',#719);
#205=VERTEX_POINT('',#737);
#206=VERTEX_POINT('',#742);
#207=CIRCLE('',#504,13.5);
#208=CIRCLE('',#505,12.15);
#209=CIRCLE('',#507,14.);
#210=CIRCLE('',#509,12.2679491924311);
#211=CIRCLE('',#510,14.);
#212=CIRCLE('',#512,8.1);
#213=CIRCLE('',#514,7.9);
#214=CIRCLE('',#516,14.);
#215=CIRCLE('',#517,14.);
#216=CIRCLE('',#518,14.);
#217=CIRCLE('',#519,14.);
#218=CIRCLE('',#521,12.1);
#219=CIRCLE('',#522,11.4585);
#220=CIRCLE('',#524,12.1);
#221=CIRCLE('',#525,12.1);
#222=CIRCLE('',#526,12.1);
#223=CIRCLE('',#527,12.1);
#224=CIRCLE('',#528,12.1);
#225=CIRCLE('',#530,11.7);
#226=CIRCLE('',#532,10.3);
#227=CIRCLE('',#541,7.9);
#228=CIRCLE('',#545,11.4585);
#229=EDGE_LOOP('',(#63));
#230=EDGE_LOOP('',(#64));
#231=EDGE_LOOP('',(#65));
#232=EDGE_LOOP('',(#66));
#233=EDGE_LOOP('',(#67));
#234=EDGE_LOOP('',(#68));
#235=EDGE_LOOP('',(#69));
#236=EDGE_LOOP('',(#70));
#237=EDGE_LOOP('',(#71));
#238=EDGE_LOOP('',(#72));
#239=EDGE_LOOP('',(#73));
#240=EDGE_LOOP('',(#74,#75,#76,#77));
#241=EDGE_LOOP('',(#78,#79,#80,#81));
#242=EDGE_LOOP('',(#82));
#243=EDGE_LOOP('',(#83));
#244=EDGE_LOOP('',(#84));
#245=EDGE_LOOP('',(#85,#86,#87,#88));
#246=EDGE_LOOP('',(#89,#90,#91,#92));
#247=EDGE_LOOP('',(#93));
#248=EDGE_LOOP('',(#94));
#249=EDGE_LOOP('',(#95));
#250=EDGE_LOOP('',(#96));
#251=EDGE_LOOP('',(#97));
#252=EDGE_LOOP('',(#98));
#253=EDGE_LOOP('',(#99,#100,#101,#102));
#254=EDGE_LOOP('',(#103,#104,#105,#106));
#255=EDGE_LOOP('',(#107,#108,#109,#110));
#256=EDGE_LOOP('',(#111,#112,#113,#114));
#257=EDGE_LOOP('',(#115,#116,#117,#118));
#258=EDGE_LOOP('',(#119,#120,#121,#122));
#259=EDGE_LOOP('',(#123,#124,#125,#126));
#260=EDGE_LOOP('',(#127));
#261=EDGE_LOOP('',(#128));
#262=EDGE_LOOP('',(#129));
#263=EDGE_LOOP('',(#130));
#264=EDGE_LOOP('',(#131,#132,#133,#134));
#265=EDGE_LOOP('',(#135));
#266=EDGE_LOOP('',(#136));
#267=EDGE_LOOP('',(#137));
#268=EDGE_LOOP('',(#138));
#269=FACE_BOUND('',#229,.T.);
#270=FACE_BOUND('',#230,.T.);
#271=FACE_BOUND('',#231,.T.);
#272=FACE_BOUND('',#232,.T.);
#273=FACE_BOUND('',#233,.T.);
#274=FACE_BOUND('',#234,.T.);
#275=FACE_BOUND('',#235,.T.);
#276=FACE_BOUND('',#236,.T.);
#277=FACE_BOUND('',#237,.T.);
#278=FACE_BOUND('',#238,.T.);
#279=FACE_BOUND('',#239,.T.);
#280=FACE_BOUND('',#240,.T.);
#281=FACE_BOUND('',#241,.T.);
#282=FACE_BOUND('',#242,.T.);
#283=FACE_BOUND('',#243,.T.);
#284=FACE_BOUND('',#244,.T.);
#285=FACE_BOUND('',#245,.T.);
#286=FACE_BOUND('',#246,.T.);
#287=FACE_BOUND('',#247,.T.);
#288=FACE_BOUND('',#248,.T.);
#289=FACE_BOUND('',#249,.T.);
#290=FACE_BOUND('',#250,.T.);
#291=FACE_BOUND('',#251,.T.);
#292=FACE_BOUND('',#252,.T.);
#293=FACE_BOUND('',#253,.T.);
#294=FACE_BOUND('',#254,.T.);
#295=FACE_BOUND('',#255,.T.);
#296=FACE_BOUND('',#256,.T.);
#297=FACE_BOUND('',#257,.T.);
#298=FACE_BOUND('',#258,.T.);
#299=FACE_BOUND('',#259,.T.);
#300=FACE_BOUND('',#260,.T.);
#301=FACE_BOUND('',#261,.T.);
#302=FACE_BOUND('',#262,.T.);
#303=FACE_BOUND('',#263,.T.);
#304=FACE_BOUND('',#264,.T.);
#305=FACE_BOUND('',#265,.T.);
#306=FACE_BOUND('',#266,.T.);
#307=FACE_BOUND('',#267,.T.);
#308=FACE_BOUND('',#268,.T.);
#309=PLANE('',#503);
#310=PLANE('',#511);
#311=PLANE('',#531);
#312=PLANE('',#533);
#313=PLANE('',#534);
#314=PLANE('',#535);
#315=PLANE('',#536);
#316=PLANE('',#537);
#317=PLANE('',#538);
#318=PLANE('',#539);
#319=PLANE('',#543);
#320=STYLED_ITEM('',(#342),#476);
#321=STYLED_ITEM('',(#343),#477);
#322=STYLED_ITEM('',(#344),#478);
#323=STYLED_ITEM('',(#345),#479);
#324=STYLED_ITEM('',(#346),#480);
#325=STYLED_ITEM('',(#347),#481);
#326=STYLED_ITEM('',(#348),#482);
#327=STYLED_ITEM('',(#349),#483);
#328=STYLED_ITEM('',(#350),#484);
#329=STYLED_ITEM('',(#351),#485);
#330=STYLED_ITEM('',(#352),#486);
#331=STYLED_ITEM('',(#353),#487);
#332=STYLED_ITEM('',(#354),#488);
#333=STYLED_ITEM('',(#355),#489);
#334=STYLED_ITEM('',(#356),#490);
#335=STYLED_ITEM('',(#357),#491);
#336=STYLED_ITEM('',(#358),#492);
#337=STYLED_ITEM('',(#359),#493);
#338=STYLED_ITEM('',(#360),#494);
#339=STYLED_ITEM('',(#361),#495);
#340=STYLED_ITEM('',(#362),#496);
#341=STYLED_ITEM('',(#363),#497);
#342=PRESENTATION_STYLE_ASSIGNMENT((#364));
#343=PRESENTATION_STYLE_ASSIGNMENT((#365));
#344=PRESENTATION_STYLE_ASSIGNMENT((#366));
#345=PRESENTATION_STYLE_ASSIGNMENT((#367));
#346=PRESENTATION_STYLE_ASSIGNMENT((#368));
#347=PRESENTATION_STYLE_ASSIGNMENT((#369));
#348=PRESENTATION_STYLE_ASSIGNMENT((#370));
#349=PRESENTATION_STYLE_ASSIGNMENT((#371));
#350=PRESENTATION_STYLE_ASSIGNMENT((#372));
#351=PRESENTATION_STYLE_ASSIGNMENT((#373));
#352=PRESENTATION_STYLE_ASSIGNMENT((#374));
#353=PRESENTATION_STYLE_ASSIGNMENT((#375));
#354=PRESENTATION_STYLE_ASSIGNMENT((#376));
#355=PRESENTATION_STYLE_ASSIGNMENT((#377));
#356=PRESENTATION_STYLE_ASSIGNMENT((#378));
#357=PRESENTATION_STYLE_ASSIGNMENT((#379));
#358=PRESENTATION_STYLE_ASSIGNMENT((#380));
#359=PRESENTATION_STYLE_ASSIGNMENT((#381));
#360=PRESENTATION_STYLE_ASSIGNMENT((#382));
#361=PRESENTATION_STYLE_ASSIGNMENT((#383));
#362=PRESENTATION_STYLE_ASSIGNMENT((#384));
#363=PRESENTATION_STYLE_ASSIGNMENT((#385));
#364=SURFACE_STYLE_USAGE(.BOTH.,#386);
#365=SURFACE_STYLE_USAGE(.BOTH.,#387);
#366=SURFACE_STYLE_USAGE(.BOTH.,#388);
#367=SURFACE_STYLE_USAGE(.BOTH.,#389);
#368=SURFACE_STYLE_USAGE(.BOTH.,#390);
#369=SURFACE_STYLE_USAGE(.BOTH.,#391);
#370=SURFACE_STYLE_USAGE(.BOTH.,#392);
#371=SURFACE_STYLE_USAGE(.BOTH.,#393);
#372=SURFACE_STYLE_USAGE(.BOTH.,#394);
#373=SURFACE_STYLE_USAGE(.BOTH.,#395);
#374=SURFACE_STYLE_USAGE(.BOTH.,#396);
#375=SURFACE_STYLE_USAGE(.BOTH.,#397);
#376=SURFACE_STYLE_USAGE(.BOTH.,#398);
#377=SURFACE_STYLE_USAGE(.BOTH.,#399);
#378=SURFACE_STYLE_USAGE(.BOTH.,#400);
#379=SURFACE_STYLE_USAGE(.BOTH.,#401);
#380=SURFACE_STYLE_USAGE(.BOTH.,#402);
#381=SURFACE_STYLE_USAGE(.BOTH.,#403);
#382=SURFACE_STYLE_USAGE(.BOTH.,#404);
#383=SURFACE_STYLE_USAGE(.BOTH.,#405);
#384=SURFACE_STYLE_USAGE(.BOTH.,#406);
#385=SURFACE_STYLE_USAGE(.BOTH.,#407);
#386=SURFACE_SIDE_STYLE('',(#408));
#387=SURFACE_SIDE_STYLE('',(#409));
#388=SURFACE_SIDE_STYLE('',(#410));
#389=SURFACE_SIDE_STYLE('',(#411));
#390=SURFACE_SIDE_STYLE('',(#412));
#391=SURFACE_SIDE_STYLE('',(#413));
#392=SURFACE_SIDE_STYLE('',(#414));
#393=SURFACE_SIDE_STYLE('',(#415));
#394=SURFACE_SIDE_STYLE('',(#416));
#395=SURFACE_SIDE_STYLE('',(#417));
#396=SURFACE_SIDE_STYLE('',(#418));
#397=SURFACE_SIDE_STYLE('',(#419));
#398=SURFACE_SIDE_STYLE('',(#420));
#399=SURFACE_SIDE_STYLE('',(#421));
#400=SURFACE_SIDE_STYLE('',(#422));
#401=SURFACE_SIDE_STYLE('',(#423));
#402=SURFACE_SIDE_STYLE('',(#424));
#403=SURFACE_SIDE_STYLE('',(#425));
#404=SURFACE_SIDE_STYLE('',(#426));
#405=SURFACE_SIDE_STYLE('',(#427));
#406=SURFACE_SIDE_STYLE('',(#428));
#407=SURFACE_SIDE_STYLE('',(#429));
#408=SURFACE_STYLE_FILL_AREA(#430);
#409=SURFACE_STYLE_FILL_AREA(#431);
#410=SURFACE_STYLE_FILL_AREA(#432);
#411=SURFACE_STYLE_FILL_AREA(#433);
#412=SURFACE_STYLE_FILL_AREA(#434);
#413=SURFACE_STYLE_FILL_AREA(#435);
#414=SURFACE_STYLE_FILL_AREA(#436);
#415=SURFACE_STYLE_FILL_AREA(#437);
#416=SURFACE_STYLE_FILL_AREA(#438);
#417=SURFACE_STYLE_FILL_AREA(#439);
#418=SURFACE_STYLE_FILL_AREA(#440);
#419=SURFACE_STYLE_FILL_AREA(#441);
#420=SURFACE_STYLE_FILL_AREA(#442);
#421=SURFACE_STYLE_FILL_AREA(#443);
#422=SURFACE_STYLE_FILL_AREA(#444);
#423=SURFACE_STYLE_FILL_AREA(#445);
#424=SURFACE_STYLE_FILL_AREA(#446);
#425=SURFACE_STYLE_FILL_AREA(#447);
#426=SURFACE_STYLE_FILL_AREA(#448);
#427=SURFACE_STYLE_FILL_AREA(#449);
#428=SURFACE_STYLE_FILL_AREA(#450);
#429=SURFACE_STYLE_FILL_AREA(#451);
#430=FILL_AREA_STYLE('',(#452));
#431=FILL_AREA_STYLE('',(#453));
#432=FILL_AREA_STYLE('',(#454));
#433=FILL_AREA_STYLE('',(#455));
#434=FILL_AREA_STYLE('',(#456));
#435=FILL_AREA_STYLE('',(#457));
#436=FILL_AREA_STYLE('',(#458));
#437=FILL_AREA_STYLE('',(#459));
#438=FILL_AREA_STYLE('',(#460));
#439=FILL_AREA_STYLE('',(#461));
#440=FILL_AREA_STYLE('',(#462));
#441=FILL_AREA_STYLE('',(#463));
#442=FILL_AREA_STYLE('',(#464));
#443=FILL_AREA_STYLE('',(#465));
#444=FILL_AREA_STYLE('',(#466));
#445=FILL_AREA_STYLE('',(#467));
#446=FILL_AREA_STYLE('',(#468));
#447=FILL_AREA_STYLE('',(#469));
#448=FILL_AREA_STYLE('',(#470));
#449=FILL_AREA_STYLE('',(#471));
#450=FILL_AREA_STYLE('',(#472));
#451=FILL_AREA_STYLE('',(#473));
#452=FILL_AREA_STYLE_COLOUR('',#474);
#453=FILL_AREA_STYLE_COLOUR('',#474);
#454=FILL_AREA_STYLE_COLOUR('',#474);
#455=FILL_AREA_STYLE_COLOUR('',#474);
#456=FILL_AREA_STYLE_COLOUR('',#474);
#457=FILL_AREA_STYLE_COLOUR('',#474);
#458=FILL_AREA_STYLE_COLOUR('',#474);
#459=FILL_AREA_STYLE_COLOUR('',#474);
#460=FILL_AREA_STYLE_COLOUR('',#474);
#461=FILL_AREA_STYLE_COLOUR('',#474);
#462=FILL_AREA_STYLE_COLOUR('',#474);
#463=FILL_AREA_STYLE_COLOUR('',#474);
#464=FILL_AREA_STYLE_COLOUR('',#474);
#465=FILL_AREA_STYLE_COLOUR('',#474);
#466=FILL_AREA_STYLE_COLOUR('',#474);
#467=FILL_AREA_STYLE_COLOUR('',#474);
#468=FILL_AREA_STYLE_COLOUR('',#474);
#469=FILL_AREA_STYLE_COLOUR('',#474);
#470=FILL_AREA_STYLE_COLOUR('',#474);
#471=FILL_AREA_STYLE_COLOUR('',#474);
#472=FILL_AREA_STYLE_COLOUR('',#475);
#473=FILL_AREA_STYLE_COLOUR('',#474);
#474=COLOUR_RGB( ' ', 0.5, 0.5, 0.5 );
#475=COLOUR_RGB( ' ', 0.5, 0.5, 0.5 );
#476=ADVANCED_FACE('',(#269,#270),#309,.F.);
#477=ADVANCED_FACE('',(#271,#272),#57,.T.);
#478=ADVANCED_FACE('',(#273,#274),#58,.T.);
#479=ADVANCED_FACE('',(#275,#276),#310,.F.);
#480=ADVANCED_FACE('',(#277,#278),#59,.F.);
#481=ADVANCED_FACE('',(#279,#280,#281,#282),#53,.T.);
#482=ADVANCED_FACE('',(#283,#284),#60,.F.);
#483=ADVANCED_FACE('',(#285,#286,#287,#288),#54,.F.);
#484=ADVANCED_FACE('',(#289,#290),#20,.F.);
#485=ADVANCED_FACE('',(#291,#292),#311,.F.);
#486=ADVANCED_FACE('',(#293),#312,.T.);
#487=ADVANCED_FACE('',(#294),#313,.T.);
#488=ADVANCED_FACE('',(#295),#314,.T.);
#489=ADVANCED_FACE('',(#296),#315,.F.);
#490=ADVANCED_FACE('',(#297),#316,.T.);
#491=ADVANCED_FACE('',(#298),#317,.T.);
#492=ADVANCED_FACE('',(#299),#318,.T.);
#493=ADVANCED_FACE('',(#300,#301),#55,.F.);
#494=ADVANCED_FACE('',(#302,#303),#61,.F.);
#495=ADVANCED_FACE('',(#304),#319,.F.);
#496=ADVANCED_FACE('',(#305,#306),#56,.F.);
#497=ADVANCED_FACE('',(#307,#308),#62,.F.);
#498=CLOSED_SHELL('',(#476,#477,#478,#479,#480,#481,#482,#483,#484,#485,
#486,#487,#488,#489,#490,#491,#492,#493,#494,#495,#496,#497));
#499=MANIFOLD_SOLID_BREP('NOCUT',#498);
#500=SHAPE_DEFINITION_REPRESENTATION(#750,#501);
#501=SHAPE_REPRESENTATION('322050000',(#502),#745);
#502=AXIS2_PLACEMENT_3D('',#653,#547,#548);
#503=AXIS2_PLACEMENT_3D('',#654,#549,#550);
#504=AXIS2_PLACEMENT_3D('',#655,#551,#552);
#505=AXIS2_PLACEMENT_3D('',#657,#553,#554);
#506=AXIS2_PLACEMENT_3D('',#659,#555,#556);
#507=AXIS2_PLACEMENT_3D('',#660,#557,#558);
#508=AXIS2_PLACEMENT_3D('',#662,#559,#560);
#509=AXIS2_PLACEMENT_3D('',#663,#561,#562);
#510=AXIS2_PLACEMENT_3D('',#665,#563,#564);
#511=AXIS2_PLACEMENT_3D('',#667,#565,#566);
#512=AXIS2_PLACEMENT_3D('',#668,#567,#568);
#513=AXIS2_PLACEMENT_3D('',#670,#569,#570);
#514=AXIS2_PLACEMENT_3D('',#671,#571,#572);
#515=AXIS2_PLACEMENT_3D('',#673,#573,#574);
#516=AXIS2_PLACEMENT_3D('',#677,#576,#577);
#517=AXIS2_PLACEMENT_3D('',#681,#579,#580);
#518=AXIS2_PLACEMENT_3D('',#682,#581,#582);
#519=AXIS2_PLACEMENT_3D('',#687,#584,#585);
#520=AXIS2_PLACEMENT_3D('',#690,#587,#588);
#521=AXIS2_PLACEMENT_3D('',#691,#589,#590);
#522=AXIS2_PLACEMENT_3D('',#693,#591,#592);
#523=AXIS2_PLACEMENT_3D('',#695,#593,#594);
#524=AXIS2_PLACEMENT_3D('',#699,#596,#597);
#525=AXIS2_PLACEMENT_3D('',#703,#599,#600);
#526=AXIS2_PLACEMENT_3D('',#704,#601,#602);
#527=AXIS2_PLACEMENT_3D('',#709,#604,#605);
#528=AXIS2_PLACEMENT_3D('',#712,#607,#608);
#529=AXIS2_PLACEMENT_3D('',#714,#609,#610);
#530=AXIS2_PLACEMENT_3D('',#715,#611,#612);
#531=AXIS2_PLACEMENT_3D('',#717,#613,#614);
#532=AXIS2_PLACEMENT_3D('',#718,#615,#616);
#533=AXIS2_PLACEMENT_3D('',#720,#617,#618);
#534=AXIS2_PLACEMENT_3D('',#723,#621,#622);
#535=AXIS2_PLACEMENT_3D('',#726,#625,#626);
#536=AXIS2_PLACEMENT_3D('',#727,#627,#628);
#537=AXIS2_PLACEMENT_3D('',#728,#629,#630);
#538=AXIS2_PLACEMENT_3D('',#731,#633,#634);
#539=AXIS2_PLACEMENT_3D('',#733,#636,#637);
#540=AXIS2_PLACEMENT_3D('',#735,#639,#640);
#541=AXIS2_PLACEMENT_3D('',#736,#641,#642);
#542=AXIS2_PLACEMENT_3D('',#738,#643,#644);
#543=AXIS2_PLACEMENT_3D('',#739,#645,#646);
#544=AXIS2_PLACEMENT_3D('',#740,#647,#648);
#545=AXIS2_PLACEMENT_3D('',#741,#649,#650);
#546=AXIS2_PLACEMENT_3D('',#743,#651,#652);
#547=DIRECTION('',(0.,0.,1.));
#548=DIRECTION('',(1.,0.,0.));
#549=DIRECTION('',(0.,0.,-1.));
#550=DIRECTION('',(-1.,0.,0.));
#551=DIRECTION('',(0.,0.,1.));
#552=DIRECTION('',(1.,0.,0.));
#553=DIRECTION('',(0.,0.,-1.));
#554=DIRECTION('',(-1.,0.,0.));
#555=DIRECTION('',(0.,0.,-1.));
#556=DIRECTION('',(-1.,0.,0.));
#557=DIRECTION('',(0.,0.,1.));
#558=DIRECTION('',(1.,0.,0.));
#559=DIRECTION('',(0.,0.,1.));
#560=DIRECTION('',(1.,0.,0.));
#561=DIRECTION('',(0.,0.,1.));
#562=DIRECTION('',(1.,0.,0.));
#563=DIRECTION('',(0.,0.,1.));
#564=DIRECTION('',(1.,0.,0.));
#565=DIRECTION('',(0.,0.,1.));
#566=DIRECTION('',(1.,0.,0.));
#567=DIRECTION('',(0.,0.,1.));
#568=DIRECTION('',(1.,0.,0.));
#569=DIRECTION('',(0.,0.,-1.));
#570=DIRECTION('',(-1.,0.,0.));
#571=DIRECTION('',(0.,0.,1.));
#572=DIRECTION('',(1.,0.,0.));
#573=DIRECTION('',(0.,0.,-1.));
#574=DIRECTION('',(1.,0.,0.));
#575=DIRECTION('',(0.,0.,1.));
#576=DIRECTION('',(0.,0.,1.));
#577=DIRECTION('',(1.,0.,0.));
#578=DIRECTION('',(0.,0.,1.));
#579=DIRECTION('',(0.,0.,-1.));
#580=DIRECTION('',(-1.,0.,0.));
#581=DIRECTION('',(-1.78837471750187E-16,0.,1.));
#582=DIRECTION('',(1.,0.,1.78837471750187E-16));
#583=DIRECTION('',(0.,0.,1.));
#584=DIRECTION('',(-1.78837471750187E-16,0.,-1.));
#585=DIRECTION('',(-1.,0.,1.78837471750187E-16));
#586=DIRECTION('',(0.,0.,1.));
#587=DIRECTION('',(0.,0.,-1.));
#588=DIRECTION('',(-1.,0.,0.));
#589=DIRECTION('',(0.,0.,1.));
#590=DIRECTION('',(1.,0.,0.));
#591=DIRECTION('',(0.,0.,-1.));
#592=DIRECTION('',(-1.,0.,0.));
#593=DIRECTION('',(0.,0.,-1.));
#594=DIRECTION('',(1.,0.,0.));
#595=DIRECTION('',(0.,0.,1.));
#596=DIRECTION('',(-1.78837471750186E-16,0.,-1.));
#597=DIRECTION('',(-1.,0.,1.78837471750186E-16));
#598=DIRECTION('',(0.,0.,1.));
#599=DIRECTION('',(-1.78837471750186E-16,0.,1.));
#600=DIRECTION('',(1.,0.,1.78837471750186E-16));
#601=DIRECTION('',(0.,0.,-1.));
#602=DIRECTION('',(-1.,0.,0.));
#603=DIRECTION('',(0.,0.,1.));
#604=DIRECTION('',(0.,0.,1.));
#605=DIRECTION('',(1.,0.,0.));
#606=DIRECTION('',(0.,0.,1.));
#607=DIRECTION('',(0.,0.,1.));
#608=DIRECTION('',(1.,0.,0.));
#609=DIRECTION('',(0.,0.,1.));
#610=DIRECTION('',(1.,0.,0.));
#611=DIRECTION('',(0.,0.,1.));
#612=DIRECTION('',(1.,0.,0.));
#613=DIRECTION('',(0.,0.,-1.));
#614=DIRECTION('',(-1.,0.,0.));
#615=DIRECTION('',(0.,0.,1.));
#616=DIRECTION('',(1.,0.,0.));
#617=DIRECTION('',(0.,0.,-1.));
#618=DIRECTION('',(-1.,0.,0.));
#619=DIRECTION('',(0.,-1.,0.));
#620=DIRECTION('',(0.,1.,0.));
#621=DIRECTION('',(0.,0.,1.));
#622=DIRECTION('',(1.,0.,0.));
#623=DIRECTION('',(0.,1.,0.));
#624=DIRECTION('',(0.,-1.,0.));
#625=DIRECTION('',(-1.,0.,0.));
#626=DIRECTION('',(0.,0.,1.));
#627=DIRECTION('',(1.,0.,0.));
#628=DIRECTION('',(0.,0.,-1.));
#629=DIRECTION('',(-1.78837471750186E-16,0.,-1.));
#630=DIRECTION('',(-1.,0.,1.78837471750186E-16));
#631=DIRECTION('',(0.,1.,0.));
#632=DIRECTION('',(0.,-1.,0.));
#633=DIRECTION('',(1.,0.,0.));
#634=DIRECTION('',(0.,0.,-1.));
#635=DIRECTION('',(0.,1.,0.));
#636=DIRECTION('',(-1.78837471750186E-16,0.,1.));
#637=DIRECTION('',(1.,0.,1.78837471750186E-16));
#638=DIRECTION('',(0.,-1.,0.));
#639=DIRECTION('',(0.,0.,-1.));
#640=DIRECTION('',(1.,0.,0.));
#641=DIRECTION('',(0.,0.,1.));
#642=DIRECTION('',(1.,0.,0.));
#643=DIRECTION('',(0.,0.,1.));
#644=DIRECTION('',(1.,0.,0.));
#645=DIRECTION('',(-1.,0.,0.));
#646=DIRECTION('',(0.,0.,1.));
#647=DIRECTION('',(0.,0.,-1.));
#648=DIRECTION('',(1.,0.,0.));
#649=DIRECTION('',(0.,0.,1.));
#650=DIRECTION('',(1.,0.,0.));
#651=DIRECTION('',(0.,0.,1.));
#652=DIRECTION('',(1.,0.,0.));
#653=CARTESIAN_POINT('',(0.,0.,0.));
#654=CARTESIAN_POINT('',(13.5,0.,19.));
#655=CARTESIAN_POINT('',(0.,0.,19.));
#656=CARTESIAN_POINT('',(13.5,0.,19.));
#657=CARTESIAN_POINT('',(0.,0.,19.));
#658=CARTESIAN_POINT('',(-12.15,0.,19.));
#659=CARTESIAN_POINT('',(0.,0.,18.5));
#660=CARTESIAN_POINT('',(0.,0.,18.5));
#661=CARTESIAN_POINT('',(14.,0.,18.5));
#662=CARTESIAN_POINT('',(0.,0.,0.));
#663=CARTESIAN_POINT('',(0.,0.,0.));
#664=CARTESIAN_POINT('',(12.2679491924311,0.,0.));
#665=CARTESIAN_POINT('',(0.,0.,3.));
#666=CARTESIAN_POINT('',(14.,0.,3.));
#667=CARTESIAN_POINT('',(8.1,0.,0.));
#668=CARTESIAN_POINT('',(0.,0.,0.));
#669=CARTESIAN_POINT('',(8.1,0.,0.));
#670=CARTESIAN_POINT('',(0.,0.,0.2));
#671=CARTESIAN_POINT('',(0.,0.,0.2));
#672=CARTESIAN_POINT('',(7.9,0.,0.2));
#673=CARTESIAN_POINT('',(0.,0.,60.));
#674=CARTESIAN_POINT('',(-9.25,-10.5089247784919,60.));
#675=CARTESIAN_POINT('',(-9.25,-10.5089247784919,5.3));
#676=CARTESIAN_POINT('',(-9.25,-10.5089247784919,6.6));
#677=CARTESIAN_POINT('',(0.,0.,5.3));
#678=CARTESIAN_POINT('',(-9.25,10.5089247784919,5.3));
#679=CARTESIAN_POINT('',(-9.25,10.5089247784919,60.));
#680=CARTESIAN_POINT('',(-9.25,10.5089247784919,6.6));
#681=CARTESIAN_POINT('',(0.,0.,6.6));
#682=CARTESIAN_POINT('',(0.,0.,5.3));
#683=CARTESIAN_POINT('',(9.25,-10.5089247784919,5.3));
#684=CARTESIAN_POINT('',(9.25,10.5089247784919,5.3));
#685=CARTESIAN_POINT('',(9.25,-10.5089247784919,60.));
#686=CARTESIAN_POINT('',(9.25,-10.5089247784919,6.6));
#687=CARTESIAN_POINT('',(0.,0.,6.6));
#688=CARTESIAN_POINT('',(9.25,10.5089247784919,6.6));
#689=CARTESIAN_POINT('',(9.25,10.5089247784919,60.));
#690=CARTESIAN_POINT('',(0.,0.,10.560608064591));
#691=CARTESIAN_POINT('',(0.,0.,8.5));
#692=CARTESIAN_POINT('',(12.1,0.,8.5));
#693=CARTESIAN_POINT('',(0.,0.,10.2625067645801));
#694=CARTESIAN_POINT('',(-11.4585,0.,10.2625067645801));
#695=CARTESIAN_POINT('',(0.,0.,18.1));
#696=CARTESIAN_POINT('',(9.25,7.80048075441508,18.1));
#697=CARTESIAN_POINT('',(9.25,7.80048075441508,5.3));
#698=CARTESIAN_POINT('',(9.25,7.80048075441508,6.6));
#699=CARTESIAN_POINT('',(0.,0.,6.6));
#700=CARTESIAN_POINT('',(9.25,-7.80048075441508,6.6));
#701=CARTESIAN_POINT('',(9.25,-7.80048075441508,18.1));
#702=CARTESIAN_POINT('',(9.25,-7.80048075441508,5.3));
#703=CARTESIAN_POINT('',(0.,0.,5.3));
#704=CARTESIAN_POINT('',(0.,0.,6.6));
#705=CARTESIAN_POINT('',(-9.25,-7.80048075441508,6.6));
#706=CARTESIAN_POINT('',(-9.25,7.80048075441508,6.6));
#707=CARTESIAN_POINT('',(-9.25,7.80048075441508,18.1));
#708=CARTESIAN_POINT('',(-9.25,7.80048075441508,5.3));
#709=CARTESIAN_POINT('',(0.,0.,5.3));
#710=CARTESIAN_POINT('',(-9.25,-7.80048075441508,5.3));
#711=CARTESIAN_POINT('',(-9.25,-7.80048075441508,18.1));
#712=CARTESIAN_POINT('',(0.,0.,4.9));
#713=CARTESIAN_POINT('',(12.1,0.,4.9));
#714=CARTESIAN_POINT('',(0.,0.,4.9));
#715=CARTESIAN_POINT('',(0.,0.,4.5));
#716=CARTESIAN_POINT('',(11.7,0.,4.5));
#717=CARTESIAN_POINT('',(11.7,0.,4.5));
#718=CARTESIAN_POINT('',(0.,0.,4.5));
#719=CARTESIAN_POINT('',(10.3,0.,4.5));
#720=CARTESIAN_POINT('',(-9.25,-44.3054172759946,6.6));
#721=CARTESIAN_POINT('',(-9.25,44.3054172759946,6.6));
#722=CARTESIAN_POINT('',(-9.25,-44.3054172759946,6.6));
#723=CARTESIAN_POINT('',(-14.1,-44.3054172759946,5.3));
#724=CARTESIAN_POINT('',(-9.25,-44.3054172759946,5.3));
#725=CARTESIAN_POINT('',(-9.25,44.3054172759946,5.3));
#726=CARTESIAN_POINT('',(-9.25,-44.3054172759946,5.3));
#727=CARTESIAN_POINT('',(-9.25,44.3054172759946,5.3));
#728=CARTESIAN_POINT('',(14.1,-44.3054172759946,6.6));
#729=CARTESIAN_POINT('',(9.25,-44.3054172759946,6.6));
#730=CARTESIAN_POINT('',(9.25,44.3054172759946,6.6));
#731=CARTESIAN_POINT('',(9.25,-44.3054172759946,6.6));
#732=CARTESIAN_POINT('',(9.25,-44.3054172759946,5.3));
#733=CARTESIAN_POINT('',(9.25,-44.3054172759946,5.3));
#734=CARTESIAN_POINT('',(9.25,44.3054172759946,5.3));
#735=CARTESIAN_POINT('',(0.,0.,60.));
#736=CARTESIAN_POINT('',(0.,0.,0.343078061834673));
#737=CARTESIAN_POINT('',(7.9,0.,0.343078061834673));
#738=CARTESIAN_POINT('',(0.,0.,4.5));
#739=CARTESIAN_POINT('',(9.25,44.3054172759946,6.6));
#740=CARTESIAN_POINT('',(3.68628738645072E-15,0.,-24.8354805589299));
#741=CARTESIAN_POINT('',(0.,0.,18.3085));
#742=CARTESIAN_POINT('',(11.4585,0.,18.3085));
#743=CARTESIAN_POINT('',(0.,0.,18.2));
#744=MECHANICAL_DESIGN_GEOMETRIC_PRESENTATION_REPRESENTATION('',(#320,#321,
#322,#323,#324,#325,#326,#327,#328,#329,#330,#331,#332,#333,#334,#335,#336,
#337,#338,#339,#340,#341),#745);
#745=(
GEOMETRIC_REPRESENTATION_CONTEXT(3)
GLOBAL_UNCERTAINTY_ASSIGNED_CONTEXT((#746))
GLOBAL_UNIT_ASSIGNED_CONTEXT((#749,#748,#747))
REPRESENTATION_CONTEXT('322050000','TOP_LEVEL_ASSEMBLY_PART')
);
#746=UNCERTAINTY_MEASURE_WITH_UNIT(LENGTH_MEASURE(0.005),#749,
'DISTANCE_ACCURACY_VALUE','Maximum Tolerance applied to model');
#747=(
NAMED_UNIT(*)
SI_UNIT($,.STERADIAN.)
SOLID_ANGLE_UNIT()
);
#748=(
NAMED_UNIT(*)
PLANE_ANGLE_UNIT()
SI_UNIT($,.RADIAN.)
);
#749=(
LENGTH_UNIT()
NAMED_UNIT(*)
SI_UNIT(.MILLI.,.METRE.)
);
#750=PRODUCT_DEFINITION_SHAPE('','',#751);
#751=PRODUCT_DEFINITION('','',#753,#752);
#752=PRODUCT_DEFINITION_CONTEXT('',#759,'design');
#753=PRODUCT_DEFINITION_FORMATION_WITH_SPECIFIED_SOURCE('','',#755,
 .NOT_KNOWN.);
#754=PRODUCT_RELATED_PRODUCT_CATEGORY('','',(#755));
#755=PRODUCT('NOCUT','NOCUT','NOCUT',(#757));
#756=PRODUCT_CATEGORY('','');
#757=PRODUCT_CONTEXT('',#759,'mechanical');
#758=APPLICATION_PROTOCOL_DEFINITION('international standard',
'automotive_design',2010,#759);
#759=APPLICATION_CONTEXT(
'core data for automotive mechanical design processes');
#760=AXIS2_PLACEMENT_3D('PCS',#761,#762,#763);
#761=CARTESIAN_POINT('',(0.,0.,19.));
#762=DIRECTION('',(0.,0.,1.));
#763=DIRECTION('',(1.,0.,0.));
#764=AXIS2_PLACEMENT_3D('MCS',#765,#766,#767);
#765=CARTESIAN_POINT('',(0.,0.,0.31));
#766=DIRECTION('',(0.,0.,1.));
#767=DIRECTION('',(1.,0.,0.));
#768=AXIS2_PLACEMENT_3D('CSW',#769,#770,#771);
#769=CARTESIAN_POINT('',(0.,0.,0.));
#770=DIRECTION('',(0.,0.,1.));
#771=DIRECTION('',(1.,0.,0.));
#772=CONSTRUCTIVE_GEOMETRY_REPRESENTATION_RELATIONSHIP('coordinate systems',$,#19,#773);
#773=CONSTRUCTIVE_GEOMETRY_REPRESENTATION('coordinate systems',(#760, #764, #768),#745);
ENDSEC;
END-ISO-10303-21;

