ISO-10303-21;
HEADER;
FILE_DESCRIPTION(
/* description */ (''),
/* implementation_level */ '2;1');
FILE_NAME(
/* name */ '361100000.stp',
/* time_stamp */ '2021-09-24T14:16:29',
/* author */ ('LRA'),
/* organization */ ('REGO-FIX'),
/* preprocessor_version */ ' Unknown',
/* originating_system */ 'SIEMENS PLM Software Solid Edge ST10',
/* authorization */ 'Unknown');
FILE_SCHEMA (('AUTOMOTIVE_DESIGN { 1 0 10303 214 2 1 1}'));
ENDSEC;
DATA;
#10=PROPERTY_DEFINITION_REPRESENTATION(#14,#12);
#11=PROPERTY_DEFINITION_REPRESENTATION(#15,#13);
#12=REPRESENTATION('',(#16),#598);
#13=REPRESENTATION('',(#17),#598);
#14=PROPERTY_DEFINITION('pmi validation property','',#603);
#15=PROPERTY_DEFINITION('pmi validation property','',#603);
#16=VALUE_REPRESENTATION_ITEM('number of annotations',COUNT_MEASURE(0.));
#17=VALUE_REPRESENTATION_ITEM('number of views',COUNT_MEASURE(0.));
#18=SHAPE_REPRESENTATION_RELATIONSHIP('','',#403,#19);
#19=ADVANCED_BREP_SHAPE_REPRESENTATION('',(#401),#598);
#20=TOROIDAL_SURFACE('',#430,7.57499999999999,0.5);
#21=TOROIDAL_SURFACE('',#441,6.275,0.8);
#22=TOROIDAL_SURFACE('',#443,7.5,0.5);
#23=TOROIDAL_SURFACE('',#444,5.85566243270259,0.25);
#24=TOROIDAL_SURFACE('',#445,7.7,0.3);
#25=CONICAL_SURFACE('',#417,8.,0.523598775598299);
#26=CONICAL_SURFACE('',#427,5.64726497308104,0.523598775598296);
#27=CONICAL_SURFACE('',#434,7.075,1.0471975511966);
#28=CONICAL_SURFACE('',#436,6.34999999999999,0.523598775598299);
#29=CYLINDRICAL_SURFACE('',#414,8.);
#30=CYLINDRICAL_SURFACE('',#423,5.99999999999999);
#31=CYLINDRICAL_SURFACE('',#429,4.55);
#32=CYLINDRICAL_SURFACE('',#432,7.07499999999999);
#33=CYLINDRICAL_SURFACE('',#439,7.075);
#34=CYLINDRICAL_SURFACE('',#442,6.4585);
#35=CYLINDRICAL_SURFACE('',#446,5.89574033474405);
#36=ORIENTED_EDGE('',*,*,#78,.F.);
#37=ORIENTED_EDGE('',*,*,#79,.T.);
#38=ORIENTED_EDGE('',*,*,#80,.T.);
#39=ORIENTED_EDGE('',*,*,#81,.F.);
#40=ORIENTED_EDGE('',*,*,#82,.T.);
#41=ORIENTED_EDGE('',*,*,#83,.F.);
#42=ORIENTED_EDGE('',*,*,#84,.T.);
#43=ORIENTED_EDGE('',*,*,#85,.T.);
#44=ORIENTED_EDGE('',*,*,#86,.T.);
#45=ORIENTED_EDGE('',*,*,#87,.T.);
#46=ORIENTED_EDGE('',*,*,#88,.T.);
#47=ORIENTED_EDGE('',*,*,#89,.F.);
#48=ORIENTED_EDGE('',*,*,#90,.F.);
#49=ORIENTED_EDGE('',*,*,#78,.T.);
#50=ORIENTED_EDGE('',*,*,#91,.F.);
#51=ORIENTED_EDGE('',*,*,#90,.T.);
#52=ORIENTED_EDGE('',*,*,#91,.T.);
#53=ORIENTED_EDGE('',*,*,#92,.F.);
#54=ORIENTED_EDGE('',*,*,#89,.T.);
#55=ORIENTED_EDGE('',*,*,#92,.T.);
#56=ORIENTED_EDGE('',*,*,#93,.F.);
#57=ORIENTED_EDGE('',*,*,#83,.T.);
#58=ORIENTED_EDGE('',*,*,#94,.F.);
#59=ORIENTED_EDGE('',*,*,#93,.T.);
#60=ORIENTED_EDGE('',*,*,#95,.T.);
#61=ORIENTED_EDGE('',*,*,#94,.T.);
#62=ORIENTED_EDGE('',*,*,#96,.T.);
#63=ORIENTED_EDGE('',*,*,#97,.F.);
#64=ORIENTED_EDGE('',*,*,#98,.F.);
#65=ORIENTED_EDGE('',*,*,#97,.T.);
#66=ORIENTED_EDGE('',*,*,#98,.T.);
#67=ORIENTED_EDGE('',*,*,#80,.F.);
#68=ORIENTED_EDGE('',*,*,#95,.F.);
#69=ORIENTED_EDGE('',*,*,#96,.F.);
#70=ORIENTED_EDGE('',*,*,#87,.F.);
#71=ORIENTED_EDGE('',*,*,#85,.F.);
#72=ORIENTED_EDGE('',*,*,#88,.F.);
#73=ORIENTED_EDGE('',*,*,#86,.F.);
#74=ORIENTED_EDGE('',*,*,#84,.F.);
#75=ORIENTED_EDGE('',*,*,#82,.F.);
#76=ORIENTED_EDGE('',*,*,#79,.F.);
#77=ORIENTED_EDGE('',*,*,#81,.T.);
#78=EDGE_CURVE('',#99,#99,#120,.T.);
#79=EDGE_CURVE('',#100,#100,#121,.T.);
#80=EDGE_CURVE('',#101,#101,#122,.T.);
#81=EDGE_CURVE('',#102,#102,#123,.F.);
#82=EDGE_CURVE('',#103,#103,#124,.T.);
#83=EDGE_CURVE('',#104,#104,#125,.F.);
#84=EDGE_CURVE('',#105,#105,#126,.F.);
#85=EDGE_CURVE('',#106,#106,#127,.F.);
#86=EDGE_CURVE('',#107,#107,#128,.F.);
#87=EDGE_CURVE('',#108,#108,#129,.T.);
#88=EDGE_CURVE('',#109,#109,#130,.T.);
#89=EDGE_CURVE('',#110,#110,#131,.T.);
#90=EDGE_CURVE('',#111,#111,#132,.T.);
#91=EDGE_CURVE('',#112,#112,#133,.T.);
#92=EDGE_CURVE('',#113,#113,#134,.T.);
#93=EDGE_CURVE('',#114,#114,#135,.T.);
#94=EDGE_CURVE('',#115,#115,#136,.T.);
#95=EDGE_CURVE('',#116,#116,#137,.F.);
#96=EDGE_CURVE('',#117,#117,#138,.F.);
#97=EDGE_CURVE('',#118,#118,#139,.T.);
#98=EDGE_CURVE('',#119,#119,#140,.T.);
#99=VERTEX_POINT('',#536);
#100=VERTEX_POINT('',#538);
#101=VERTEX_POINT('',#541);
#102=VERTEX_POINT('',#543);
#103=VERTEX_POINT('',#546);
#104=VERTEX_POINT('',#548);
#105=VERTEX_POINT('',#551);
#106=VERTEX_POINT('',#553);
#107=VERTEX_POINT('',#556);
#108=VERTEX_POINT('',#558);
#109=VERTEX_POINT('',#561);
#110=VERTEX_POINT('',#563);
#111=VERTEX_POINT('',#566);
#112=VERTEX_POINT('',#569);
#113=VERTEX_POINT('',#572);
#114=VERTEX_POINT('',#576);
#115=VERTEX_POINT('',#579);
#116=VERTEX_POINT('',#582);
#117=VERTEX_POINT('',#585);
#118=VERTEX_POINT('',#587);
#119=VERTEX_POINT('',#590);
#120=CIRCLE('',#406,5.99999999999999);
#121=CIRCLE('',#407,5.89574033474405);
#122=CIRCLE('',#409,6.275);
#123=CIRCLE('',#410,5.89574033474405);
#124=CIRCLE('',#412,7.7);
#125=CIRCLE('',#413,7.275);
#126=CIRCLE('',#415,8.);
#127=CIRCLE('',#416,8.);
#128=CIRCLE('',#418,6.0721687836487);
#129=CIRCLE('',#419,7.93301270189222);
#130=CIRCLE('',#421,5.85566243270259);
#131=CIRCLE('',#422,4.55);
#132=CIRCLE('',#424,5.99999999999999);
#133=CIRCLE('',#426,5.64726497308104);
#134=CIRCLE('',#428,4.55);
#135=CIRCLE('',#431,7.07499999999999);
#136=CIRCLE('',#433,7.075);
#137=CIRCLE('',#435,6.4585);
#138=CIRCLE('',#437,6.4585);
#139=CIRCLE('',#438,7.075);
#140=CIRCLE('',#440,7.075);
#141=EDGE_LOOP('',(#36));
#142=EDGE_LOOP('',(#37));
#143=EDGE_LOOP('',(#38));
#144=EDGE_LOOP('',(#39));
#145=EDGE_LOOP('',(#40));
#146=EDGE_LOOP('',(#41));
#147=EDGE_LOOP('',(#42));
#148=EDGE_LOOP('',(#43));
#149=EDGE_LOOP('',(#44));
#150=EDGE_LOOP('',(#45));
#151=EDGE_LOOP('',(#46));
#152=EDGE_LOOP('',(#47));
#153=EDGE_LOOP('',(#48));
#154=EDGE_LOOP('',(#49));
#155=EDGE_LOOP('',(#50));
#156=EDGE_LOOP('',(#51));
#157=EDGE_LOOP('',(#52));
#158=EDGE_LOOP('',(#53));
#159=EDGE_LOOP('',(#54));
#160=EDGE_LOOP('',(#55));
#161=EDGE_LOOP('',(#56));
#162=EDGE_LOOP('',(#57));
#163=EDGE_LOOP('',(#58));
#164=EDGE_LOOP('',(#59));
#165=EDGE_LOOP('',(#60));
#166=EDGE_LOOP('',(#61));
#167=EDGE_LOOP('',(#62));
#168=EDGE_LOOP('',(#63));
#169=EDGE_LOOP('',(#64));
#170=EDGE_LOOP('',(#65));
#171=EDGE_LOOP('',(#66));
#172=EDGE_LOOP('',(#67));
#173=EDGE_LOOP('',(#68));
#174=EDGE_LOOP('',(#69));
#175=EDGE_LOOP('',(#70));
#176=EDGE_LOOP('',(#71));
#177=EDGE_LOOP('',(#72));
#178=EDGE_LOOP('',(#73));
#179=EDGE_LOOP('',(#74));
#180=EDGE_LOOP('',(#75));
#181=EDGE_LOOP('',(#76));
#182=EDGE_LOOP('',(#77));
#183=FACE_BOUND('',#141,.T.);
#184=FACE_BOUND('',#142,.T.);
#185=FACE_BOUND('',#143,.T.);
#186=FACE_BOUND('',#144,.T.);
#187=FACE_BOUND('',#145,.T.);
#188=FACE_BOUND('',#146,.T.);
#189=FACE_BOUND('',#147,.T.);
#190=FACE_BOUND('',#148,.T.);
#191=FACE_BOUND('',#149,.T.);
#192=FACE_BOUND('',#150,.T.);
#193=FACE_BOUND('',#151,.T.);
#194=FACE_BOUND('',#152,.T.);
#195=FACE_BOUND('',#153,.T.);
#196=FACE_BOUND('',#154,.T.);
#197=FACE_BOUND('',#155,.T.);
#198=FACE_BOUND('',#156,.T.);
#199=FACE_BOUND('',#157,.T.);
#200=FACE_BOUND('',#158,.T.);
#201=FACE_BOUND('',#159,.T.);
#202=FACE_BOUND('',#160,.T.);
#203=FACE_BOUND('',#161,.T.);
#204=FACE_BOUND('',#162,.T.);
#205=FACE_BOUND('',#163,.T.);
#206=FACE_BOUND('',#164,.T.);
#207=FACE_BOUND('',#165,.T.);
#208=FACE_BOUND('',#166,.T.);
#209=FACE_BOUND('',#167,.T.);
#210=FACE_BOUND('',#168,.T.);
#211=FACE_BOUND('',#169,.T.);
#212=FACE_BOUND('',#170,.T.);
#213=FACE_BOUND('',#171,.T.);
#214=FACE_BOUND('',#172,.T.);
#215=FACE_BOUND('',#173,.T.);
#216=FACE_BOUND('',#174,.T.);
#217=FACE_BOUND('',#175,.T.);
#218=FACE_BOUND('',#176,.T.);
#219=FACE_BOUND('',#177,.T.);
#220=FACE_BOUND('',#178,.T.);
#221=FACE_BOUND('',#179,.T.);
#222=FACE_BOUND('',#180,.T.);
#223=FACE_BOUND('',#181,.T.);
#224=FACE_BOUND('',#182,.T.);
#225=PLANE('',#405);
#226=PLANE('',#408);
#227=PLANE('',#411);
#228=PLANE('',#420);
#229=PLANE('',#425);
#230=STYLED_ITEM('',(#251),#379);
#231=STYLED_ITEM('',(#252),#380);
#232=STYLED_ITEM('',(#253),#381);
#233=STYLED_ITEM('',(#254),#382);
#234=STYLED_ITEM('',(#255),#383);
#235=STYLED_ITEM('',(#256),#384);
#236=STYLED_ITEM('',(#257),#385);
#237=STYLED_ITEM('',(#258),#386);
#238=STYLED_ITEM('',(#259),#387);
#239=STYLED_ITEM('',(#260),#388);
#240=STYLED_ITEM('',(#261),#389);
#241=STYLED_ITEM('',(#262),#390);
#242=STYLED_ITEM('',(#263),#391);
#243=STYLED_ITEM('',(#264),#392);
#244=STYLED_ITEM('',(#265),#393);
#245=STYLED_ITEM('',(#266),#394);
#246=STYLED_ITEM('',(#267),#395);
#247=STYLED_ITEM('',(#268),#396);
#248=STYLED_ITEM('',(#269),#397);
#249=STYLED_ITEM('',(#270),#398);
#250=STYLED_ITEM('',(#271),#399);
#251=PRESENTATION_STYLE_ASSIGNMENT((#272));
#252=PRESENTATION_STYLE_ASSIGNMENT((#273));
#253=PRESENTATION_STYLE_ASSIGNMENT((#274));
#254=PRESENTATION_STYLE_ASSIGNMENT((#275));
#255=PRESENTATION_STYLE_ASSIGNMENT((#276));
#256=PRESENTATION_STYLE_ASSIGNMENT((#277));
#257=PRESENTATION_STYLE_ASSIGNMENT((#278));
#258=PRESENTATION_STYLE_ASSIGNMENT((#279));
#259=PRESENTATION_STYLE_ASSIGNMENT((#280));
#260=PRESENTATION_STYLE_ASSIGNMENT((#281));
#261=PRESENTATION_STYLE_ASSIGNMENT((#282));
#262=PRESENTATION_STYLE_ASSIGNMENT((#283));
#263=PRESENTATION_STYLE_ASSIGNMENT((#284));
#264=PRESENTATION_STYLE_ASSIGNMENT((#285));
#265=PRESENTATION_STYLE_ASSIGNMENT((#286));
#266=PRESENTATION_STYLE_ASSIGNMENT((#287));
#267=PRESENTATION_STYLE_ASSIGNMENT((#288));
#268=PRESENTATION_STYLE_ASSIGNMENT((#289));
#269=PRESENTATION_STYLE_ASSIGNMENT((#290));
#270=PRESENTATION_STYLE_ASSIGNMENT((#291));
#271=PRESENTATION_STYLE_ASSIGNMENT((#292));
#272=SURFACE_STYLE_USAGE(.BOTH.,#293);
#273=SURFACE_STYLE_USAGE(.BOTH.,#294);
#274=SURFACE_STYLE_USAGE(.BOTH.,#295);
#275=SURFACE_STYLE_USAGE(.BOTH.,#296);
#276=SURFACE_STYLE_USAGE(.BOTH.,#297);
#277=SURFACE_STYLE_USAGE(.BOTH.,#298);
#278=SURFACE_STYLE_USAGE(.BOTH.,#299);
#279=SURFACE_STYLE_USAGE(.BOTH.,#300);
#280=SURFACE_STYLE_USAGE(.BOTH.,#301);
#281=SURFACE_STYLE_USAGE(.BOTH.,#302);
#282=SURFACE_STYLE_USAGE(.BOTH.,#303);
#283=SURFACE_STYLE_USAGE(.BOTH.,#304);
#284=SURFACE_STYLE_USAGE(.BOTH.,#305);
#285=SURFACE_STYLE_USAGE(.BOTH.,#306);
#286=SURFACE_STYLE_USAGE(.BOTH.,#307);
#287=SURFACE_STYLE_USAGE(.BOTH.,#308);
#288=SURFACE_STYLE_USAGE(.BOTH.,#309);
#289=SURFACE_STYLE_USAGE(.BOTH.,#310);
#290=SURFACE_STYLE_USAGE(.BOTH.,#311);
#291=SURFACE_STYLE_USAGE(.BOTH.,#312);
#292=SURFACE_STYLE_USAGE(.BOTH.,#313);
#293=SURFACE_SIDE_STYLE('',(#314));
#294=SURFACE_SIDE_STYLE('',(#315));
#295=SURFACE_SIDE_STYLE('',(#316));
#296=SURFACE_SIDE_STYLE('',(#317));
#297=SURFACE_SIDE_STYLE('',(#318));
#298=SURFACE_SIDE_STYLE('',(#319));
#299=SURFACE_SIDE_STYLE('',(#320));
#300=SURFACE_SIDE_STYLE('',(#321));
#301=SURFACE_SIDE_STYLE('',(#322));
#302=SURFACE_SIDE_STYLE('',(#323));
#303=SURFACE_SIDE_STYLE('',(#324));
#304=SURFACE_SIDE_STYLE('',(#325));
#305=SURFACE_SIDE_STYLE('',(#326));
#306=SURFACE_SIDE_STYLE('',(#327));
#307=SURFACE_SIDE_STYLE('',(#328));
#308=SURFACE_SIDE_STYLE('',(#329));
#309=SURFACE_SIDE_STYLE('',(#330));
#310=SURFACE_SIDE_STYLE('',(#331));
#311=SURFACE_SIDE_STYLE('',(#332));
#312=SURFACE_SIDE_STYLE('',(#333));
#313=SURFACE_SIDE_STYLE('',(#334));
#314=SURFACE_STYLE_FILL_AREA(#335);
#315=SURFACE_STYLE_FILL_AREA(#336);
#316=SURFACE_STYLE_FILL_AREA(#337);
#317=SURFACE_STYLE_FILL_AREA(#338);
#318=SURFACE_STYLE_FILL_AREA(#339);
#319=SURFACE_STYLE_FILL_AREA(#340);
#320=SURFACE_STYLE_FILL_AREA(#341);
#321=SURFACE_STYLE_FILL_AREA(#342);
#322=SURFACE_STYLE_FILL_AREA(#343);
#323=SURFACE_STYLE_FILL_AREA(#344);
#324=SURFACE_STYLE_FILL_AREA(#345);
#325=SURFACE_STYLE_FILL_AREA(#346);
#326=SURFACE_STYLE_FILL_AREA(#347);
#327=SURFACE_STYLE_FILL_AREA(#348);
#328=SURFACE_STYLE_FILL_AREA(#349);
#329=SURFACE_STYLE_FILL_AREA(#350);
#330=SURFACE_STYLE_FILL_AREA(#351);
#331=SURFACE_STYLE_FILL_AREA(#352);
#332=SURFACE_STYLE_FILL_AREA(#353);
#333=SURFACE_STYLE_FILL_AREA(#354);
#334=SURFACE_STYLE_FILL_AREA(#355);
#335=FILL_AREA_STYLE('',(#356));
#336=FILL_AREA_STYLE('',(#357));
#337=FILL_AREA_STYLE('',(#358));
#338=FILL_AREA_STYLE('',(#359));
#339=FILL_AREA_STYLE('',(#360));
#340=FILL_AREA_STYLE('',(#361));
#341=FILL_AREA_STYLE('',(#362));
#342=FILL_AREA_STYLE('',(#363));
#343=FILL_AREA_STYLE('',(#364));
#344=FILL_AREA_STYLE('',(#365));
#345=FILL_AREA_STYLE('',(#366));
#346=FILL_AREA_STYLE('',(#367));
#347=FILL_AREA_STYLE('',(#368));
#348=FILL_AREA_STYLE('',(#369));
#349=FILL_AREA_STYLE('',(#370));
#350=FILL_AREA_STYLE('',(#371));
#351=FILL_AREA_STYLE('',(#372));
#352=FILL_AREA_STYLE('',(#373));
#353=FILL_AREA_STYLE('',(#374));
#354=FILL_AREA_STYLE('',(#375));
#355=FILL_AREA_STYLE('',(#376));
#356=FILL_AREA_STYLE_COLOUR('',#377);
#357=FILL_AREA_STYLE_COLOUR('',#377);
#358=FILL_AREA_STYLE_COLOUR('',#377);
#359=FILL_AREA_STYLE_COLOUR('',#377);
#360=FILL_AREA_STYLE_COLOUR('',#377);
#361=FILL_AREA_STYLE_COLOUR('',#377);
#362=FILL_AREA_STYLE_COLOUR('',#377);
#363=FILL_AREA_STYLE_COLOUR('',#377);
#364=FILL_AREA_STYLE_COLOUR('',#377);
#365=FILL_AREA_STYLE_COLOUR('',#377);
#366=FILL_AREA_STYLE_COLOUR('',#377);
#367=FILL_AREA_STYLE_COLOUR('',#377);
#368=FILL_AREA_STYLE_COLOUR('',#377);
#369=FILL_AREA_STYLE_COLOUR('',#377);
#370=FILL_AREA_STYLE_COLOUR('',#377);
#371=FILL_AREA_STYLE_COLOUR('',#377);
#372=FILL_AREA_STYLE_COLOUR('',#378);
#373=FILL_AREA_STYLE_COLOUR('',#377);
#374=FILL_AREA_STYLE_COLOUR('',#377);
#375=FILL_AREA_STYLE_COLOUR('',#377);
#376=FILL_AREA_STYLE_COLOUR('',#377);
#377=COLOUR_RGB( ' ', 0.5, 0.5, 0.5 );
#378=COLOUR_RGB( ' ', 0.5, 0.5, 0.5 );
#379=ADVANCED_FACE('',(#183,#184),#225,.F.);
#380=ADVANCED_FACE('',(#185,#186),#226,.F.);
#381=ADVANCED_FACE('',(#187,#188),#227,.T.);
#382=ADVANCED_FACE('',(#189,#190),#29,.T.);
#383=ADVANCED_FACE('',(#191,#192),#25,.T.);
#384=ADVANCED_FACE('',(#193,#194),#228,.T.);
#385=ADVANCED_FACE('',(#195,#196),#30,.F.);
#386=ADVANCED_FACE('',(#197,#198),#229,.F.);
#387=ADVANCED_FACE('',(#199,#200),#26,.F.);
#388=ADVANCED_FACE('',(#201,#202),#31,.F.);
#389=ADVANCED_FACE('',(#203,#204),#20,.T.);
#390=ADVANCED_FACE('',(#205,#206),#32,.F.);
#391=ADVANCED_FACE('',(#207,#208),#27,.F.);
#392=ADVANCED_FACE('',(#209,#210),#28,.F.);
#393=ADVANCED_FACE('',(#211,#212),#33,.F.);
#394=ADVANCED_FACE('',(#213,#214),#21,.F.);
#395=ADVANCED_FACE('',(#215,#216),#34,.F.);
#396=ADVANCED_FACE('',(#217,#218),#22,.T.);
#397=ADVANCED_FACE('',(#219,#220),#23,.T.);
#398=ADVANCED_FACE('',(#221,#222),#24,.T.);
#399=ADVANCED_FACE('',(#223,#224),#35,.F.);
#400=CLOSED_SHELL('',(#379,#380,#381,#382,#383,#384,#385,#386,#387,#388,
#389,#390,#391,#392,#393,#394,#395,#396,#397,#398,#399));
#401=MANIFOLD_SOLID_BREP('NOCUT',#400);
#402=SHAPE_DEFINITION_REPRESENTATION(#603,#403);
#403=SHAPE_REPRESENTATION('361100000',(#404),#598);
#404=AXIS2_PLACEMENT_3D('',#533,#447,#448);
#405=AXIS2_PLACEMENT_3D('',#534,#449,#450);
#406=AXIS2_PLACEMENT_3D('',#535,#451,#452);
#407=AXIS2_PLACEMENT_3D('',#537,#453,#454);
#408=AXIS2_PLACEMENT_3D('',#539,#455,#456);
#409=AXIS2_PLACEMENT_3D('',#540,#457,#458);
#410=AXIS2_PLACEMENT_3D('',#542,#459,#460);
#411=AXIS2_PLACEMENT_3D('',#544,#461,#462);
#412=AXIS2_PLACEMENT_3D('',#545,#463,#464);
#413=AXIS2_PLACEMENT_3D('',#547,#465,#466);
#414=AXIS2_PLACEMENT_3D('',#549,#467,#468);
#415=AXIS2_PLACEMENT_3D('',#550,#469,#470);
#416=AXIS2_PLACEMENT_3D('',#552,#471,#472);
#417=AXIS2_PLACEMENT_3D('',#554,#473,#474);
#418=AXIS2_PLACEMENT_3D('',#555,#475,#476);
#419=AXIS2_PLACEMENT_3D('',#557,#477,#478);
#420=AXIS2_PLACEMENT_3D('',#559,#479,#480);
#421=AXIS2_PLACEMENT_3D('',#560,#481,#482);
#422=AXIS2_PLACEMENT_3D('',#562,#483,#484);
#423=AXIS2_PLACEMENT_3D('',#564,#485,#486);
#424=AXIS2_PLACEMENT_3D('',#565,#487,#488);
#425=AXIS2_PLACEMENT_3D('',#567,#489,#490);
#426=AXIS2_PLACEMENT_3D('',#568,#491,#492);
#427=AXIS2_PLACEMENT_3D('',#570,#493,#494);
#428=AXIS2_PLACEMENT_3D('',#571,#495,#496);
#429=AXIS2_PLACEMENT_3D('',#573,#497,#498);
#430=AXIS2_PLACEMENT_3D('',#574,#499,#500);
#431=AXIS2_PLACEMENT_3D('',#575,#501,#502);
#432=AXIS2_PLACEMENT_3D('',#577,#503,#504);
#433=AXIS2_PLACEMENT_3D('',#578,#505,#506);
#434=AXIS2_PLACEMENT_3D('',#580,#507,#508);
#435=AXIS2_PLACEMENT_3D('',#581,#509,#510);
#436=AXIS2_PLACEMENT_3D('',#583,#511,#512);
#437=AXIS2_PLACEMENT_3D('',#584,#513,#514);
#438=AXIS2_PLACEMENT_3D('',#586,#515,#516);
#439=AXIS2_PLACEMENT_3D('',#588,#517,#518);
#440=AXIS2_PLACEMENT_3D('',#589,#519,#520);
#441=AXIS2_PLACEMENT_3D('',#591,#521,#522);
#442=AXIS2_PLACEMENT_3D('',#592,#523,#524);
#443=AXIS2_PLACEMENT_3D('',#593,#525,#526);
#444=AXIS2_PLACEMENT_3D('',#594,#527,#528);
#445=AXIS2_PLACEMENT_3D('',#595,#529,#530);
#446=AXIS2_PLACEMENT_3D('',#596,#531,#532);
#447=DIRECTION('',(0.,0.,1.));
#448=DIRECTION('',(1.,0.,0.));
#449=DIRECTION('',(0.,0.,1.));
#450=DIRECTION('',(1.,0.,0.));
#451=DIRECTION('',(0.,0.,1.));
#452=DIRECTION('',(1.,0.,0.));
#453=DIRECTION('',(0.,0.,1.));
#454=DIRECTION('',(0.,1.,0.));
#455=DIRECTION('',(0.,0.,-1.));
#456=DIRECTION('',(-1.,0.,0.));
#457=DIRECTION('',(0.,0.,1.));
#458=DIRECTION('',(1.,0.,0.));
#459=DIRECTION('',(0.,0.,-1.));
#460=DIRECTION('',(-1.,0.,0.));
#461=DIRECTION('',(0.,0.,1.));
#462=DIRECTION('',(1.,0.,0.));
#463=DIRECTION('',(0.,0.,1.));
#464=DIRECTION('',(1.,0.,0.));
#465=DIRECTION('',(0.,0.,-1.));
#466=DIRECTION('',(-1.,0.,0.));
#467=DIRECTION('',(0.,0.,1.));
#468=DIRECTION('',(1.,0.,0.));
#469=DIRECTION('',(0.,0.,1.));
#470=DIRECTION('',(1.,0.,0.));
#471=DIRECTION('',(0.,0.,-1.));
#472=DIRECTION('',(-1.,0.,0.));
#473=DIRECTION('',(0.,0.,1.));
#474=DIRECTION('',(1.,0.,0.));
#475=DIRECTION('',(0.,0.,-1.));
#476=DIRECTION('',(-1.,0.,0.));
#477=DIRECTION('',(0.,0.,-1.));
#478=DIRECTION('',(-1.,0.,0.));
#479=DIRECTION('',(0.,0.,-1.));
#480=DIRECTION('',(-1.,0.,0.));
#481=DIRECTION('',(0.,0.,-1.));
#482=DIRECTION('',(-1.,0.,0.));
#483=DIRECTION('',(0.,0.,-1.));
#484=DIRECTION('',(-1.,0.,0.));
#485=DIRECTION('',(0.,0.,1.));
#486=DIRECTION('',(1.,0.,0.));
#487=DIRECTION('',(0.,0.,1.));
#488=DIRECTION('',(1.,0.,0.));
#489=DIRECTION('',(0.,0.,-1.));
#490=DIRECTION('',(-1.,0.,0.));
#491=DIRECTION('',(0.,0.,1.));
#492=DIRECTION('',(1.,0.,0.));
#493=DIRECTION('',(0.,0.,1.));
#494=DIRECTION('',(1.,0.,0.));
#495=DIRECTION('',(0.,0.,1.));
#496=DIRECTION('',(1.,0.,0.));
#497=DIRECTION('',(0.,0.,1.));
#498=DIRECTION('',(1.,0.,0.));
#499=DIRECTION('',(0.,0.,1.));
#500=DIRECTION('',(1.,0.,0.));
#501=DIRECTION('',(0.,0.,1.));
#502=DIRECTION('',(1.,0.,0.));
#503=DIRECTION('',(0.,0.,1.));
#504=DIRECTION('',(1.,0.,0.));
#505=DIRECTION('',(0.,0.,1.));
#506=DIRECTION('',(1.,0.,0.));
#507=DIRECTION('',(0.,0.,1.));
#508=DIRECTION('',(1.,0.,0.));
#509=DIRECTION('',(0.,0.,1.));
#510=DIRECTION('',(1.,0.,0.));
#511=DIRECTION('',(0.,0.,-1.));
#512=DIRECTION('',(-1.,0.,0.));
#513=DIRECTION('',(0.,0.,-1.));
#514=DIRECTION('',(-1.,0.,0.));
#515=DIRECTION('',(0.,0.,1.));
#516=DIRECTION('',(1.,0.,0.));
#517=DIRECTION('',(0.,0.,1.));
#518=DIRECTION('',(1.,0.,0.));
#519=DIRECTION('',(0.,0.,1.));
#520=DIRECTION('',(1.,0.,0.));
#521=DIRECTION('',(0.,0.,1.));
#522=DIRECTION('',(1.,0.,0.));
#523=DIRECTION('',(0.,0.,1.));
#524=DIRECTION('',(1.,0.,0.));
#525=DIRECTION('',(0.,0.,-1.));
#526=DIRECTION('',(-1.,0.,0.));
#527=DIRECTION('',(0.,0.,-1.));
#528=DIRECTION('',(-1.,0.,0.));
#529=DIRECTION('',(0.,0.,1.));
#530=DIRECTION('',(1.,0.,0.));
#531=DIRECTION('',(0.,0.,-1.));
#532=DIRECTION('',(-1.,0.,0.));
#533=CARTESIAN_POINT('',(0.,0.,0.));
#534=CARTESIAN_POINT('',(6.,0.,2.79999999999999));
#535=CARTESIAN_POINT('',(5.20417042793042E-15,0.,2.79999999999999));
#536=CARTESIAN_POINT('',(6.,0.,2.79999999999999));
#537=CARTESIAN_POINT('',(3.46944695195361E-15,-4.33680868994202E-16,2.79999999999999));
#538=CARTESIAN_POINT('',(3.46944695195361E-15,5.89574033474405,2.79999999999999));
#539=CARTESIAN_POINT('',(6.275,0.,3.54999999999999));
#540=CARTESIAN_POINT('',(5.20417042793042E-15,0.,3.54999999999999));
#541=CARTESIAN_POINT('',(6.275,0.,3.54999999999999));
#542=CARTESIAN_POINT('',(3.46944695195361E-15,-4.33680868994202E-16,3.54999999999999));
#543=CARTESIAN_POINT('',(-5.89574033474405,-4.33680868994202E-16,3.54999999999999));
#544=CARTESIAN_POINT('',(0.,0.,16.2));
#545=CARTESIAN_POINT('',(0.,0.,16.2));
#546=CARTESIAN_POINT('',(7.7,0.,16.2));
#547=CARTESIAN_POINT('',(5.20417042793042E-15,0.,16.2));
#548=CARTESIAN_POINT('',(-7.27499999999999,0.,16.2));
#549=CARTESIAN_POINT('',(0.,0.,16.2));
#550=CARTESIAN_POINT('',(0.,0.,15.9));
#551=CARTESIAN_POINT('',(8.,0.,15.9));
#552=CARTESIAN_POINT('',(0.,0.,3.59807621135332));
#553=CARTESIAN_POINT('',(-8.,0.,3.59807621135332));
#554=CARTESIAN_POINT('',(0.,0.,3.46410161513775));
#555=CARTESIAN_POINT('',(0.,0.,0.125));
#556=CARTESIAN_POINT('',(-6.0721687836487,0.,0.125));
#557=CARTESIAN_POINT('',(0.,0.,3.34807621135332));
#558=CARTESIAN_POINT('',(-7.93301270189222,0.,3.34807621135332));
#559=CARTESIAN_POINT('',(6.,0.,0.));
#560=CARTESIAN_POINT('',(0.,0.,0.));
#561=CARTESIAN_POINT('',(-5.85566243270259,0.,0.));
#562=CARTESIAN_POINT('',(5.20417042793042E-15,0.,0.));
#563=CARTESIAN_POINT('',(-4.54999999999999,0.,0.));
#564=CARTESIAN_POINT('',(5.20417042793042E-15,0.,16.3));
#565=CARTESIAN_POINT('',(5.20417042793042E-15,0.,2.09999999999999));
#566=CARTESIAN_POINT('',(6.,0.,2.09999999999999));
#567=CARTESIAN_POINT('',(6.,0.,2.09999999999999));
#568=CARTESIAN_POINT('',(5.20417042793042E-15,0.,2.09999999999999));
#569=CARTESIAN_POINT('',(5.64726497308104,0.,2.09999999999999));
#570=CARTESIAN_POINT('',(5.20417042793042E-15,0.,2.09999999999999));
#571=CARTESIAN_POINT('',(5.20417042793042E-15,0.,0.199481317257909));
#572=CARTESIAN_POINT('',(4.55,0.,0.199481317257909));
#573=CARTESIAN_POINT('',(5.20417042793042E-15,0.,16.3));
#574=CARTESIAN_POINT('',(5.20417042793042E-15,0.,15.8));
#575=CARTESIAN_POINT('',(5.20417042793042E-15,0.,15.8));
#576=CARTESIAN_POINT('',(7.075,0.,15.8));
#577=CARTESIAN_POINT('',(5.20417042793042E-15,0.,16.3));
#578=CARTESIAN_POINT('',(5.20417042793042E-15,0.,14.2));
#579=CARTESIAN_POINT('',(7.075,0.,14.2));
#580=CARTESIAN_POINT('',(5.20417042793042E-15,0.,14.2));
#581=CARTESIAN_POINT('',(5.20417042793042E-15,0.,13.8440635590446));
#582=CARTESIAN_POINT('',(6.45850000000001,0.,13.8440635590446));
#583=CARTESIAN_POINT('',(5.20417042793042E-15,0.,6.80573683548743));
#584=CARTESIAN_POINT('',(5.20417042793042E-15,0.,6.6178093228662));
#585=CARTESIAN_POINT('',(-6.45849999999999,0.,6.6178093228662));
#586=CARTESIAN_POINT('',(5.20417042793042E-15,0.,5.54999999999999));
#587=CARTESIAN_POINT('',(7.075,0.,5.54999999999999));
#588=CARTESIAN_POINT('',(5.20417042793042E-15,0.,16.3));
#589=CARTESIAN_POINT('',(5.20417042793042E-15,0.,4.34999999999999));
#590=CARTESIAN_POINT('',(7.075,0.,4.34999999999999));
#591=CARTESIAN_POINT('',(5.20417042793042E-15,0.,4.34999999999999));
#592=CARTESIAN_POINT('',(4.33680868994202E-16,0.,-11.6287620996695));
#593=CARTESIAN_POINT('',(0.,0.,3.59807621135332));
#594=CARTESIAN_POINT('',(0.,0.,0.25));
#595=CARTESIAN_POINT('',(0.,0.,15.9));
#596=CARTESIAN_POINT('',(3.46944695195361E-15,-4.33680868994202E-16,30.6287620996695));
#597=MECHANICAL_DESIGN_GEOMETRIC_PRESENTATION_REPRESENTATION('',(#230,#231,
#232,#233,#234,#235,#236,#237,#238,#239,#240,#241,#242,#243,#244,#245,#246,
#247,#248,#249,#250),#598);
#598=(
GEOMETRIC_REPRESENTATION_CONTEXT(3)
GLOBAL_UNCERTAINTY_ASSIGNED_CONTEXT((#599))
GLOBAL_UNIT_ASSIGNED_CONTEXT((#602,#601,#600))
REPRESENTATION_CONTEXT('361100000','TOP_LEVEL_ASSEMBLY_PART')
);
#599=UNCERTAINTY_MEASURE_WITH_UNIT(LENGTH_MEASURE(0.005),#602,
'DISTANCE_ACCURACY_VALUE','Maximum Tolerance applied to model');
#600=(
NAMED_UNIT(*)
SI_UNIT($,.STERADIAN.)
SOLID_ANGLE_UNIT()
);
#601=(
NAMED_UNIT(*)
PLANE_ANGLE_UNIT()
SI_UNIT($,.RADIAN.)
);
#602=(
LENGTH_UNIT()
NAMED_UNIT(*)
SI_UNIT(.MILLI.,.METRE.)
);
#603=PRODUCT_DEFINITION_SHAPE('','',#604);
#604=PRODUCT_DEFINITION('','',#606,#605);
#605=PRODUCT_DEFINITION_CONTEXT('',#612,'design');
#606=PRODUCT_DEFINITION_FORMATION_WITH_SPECIFIED_SOURCE('','',#608,
 .NOT_KNOWN.);
#607=PRODUCT_RELATED_PRODUCT_CATEGORY('','',(#608));
#608=PRODUCT('NOCUT','NOCUT','NOCUT',(#610));
#609=PRODUCT_CATEGORY('','');
#610=PRODUCT_CONTEXT('',#612,'mechanical');
#611=APPLICATION_PROTOCOL_DEFINITION('international standard',
'automotive_design',2010,#612);
#612=APPLICATION_CONTEXT(
'core data for automotive mechanical design processes');
#613=AXIS2_PLACEMENT_3D('PCS',#614,#615,#616);
#614=CARTESIAN_POINT('',(0.,0.,16.2));
#615=DIRECTION('',(0.,0.,1.));
#616=DIRECTION('',(1.,0.,0.));
#617=AXIS2_PLACEMENT_3D('MCS',#618,#619,#620);
#618=CARTESIAN_POINT('',(0.,0.,16.2));
#619=DIRECTION('',(0.,0.,1.));
#620=DIRECTION('',(1.,0.,0.));
#621=AXIS2_PLACEMENT_3D('CSW',#622,#623,#624);
#622=CARTESIAN_POINT('',(0.,0.,0.));
#623=DIRECTION('',(0.,0.,1.));
#624=DIRECTION('',(1.,0.,0.));
#625=CONSTRUCTIVE_GEOMETRY_REPRESENTATION_RELATIONSHIP('coordinate systems',$,#19,#626);
#626=CONSTRUCTIVE_GEOMETRY_REPRESENTATION('coordinate systems',(#613, #617, #621),#598);
ENDSEC;
END-ISO-10303-21;

