ISO-10303-21;
HEADER;
FILE_DESCRIPTION(
/* description */ (''),
/* implementation_level */ '2;1');
FILE_NAME(
/* name */ '361680000.stp',
/* time_stamp */ '2021-09-24T14:16:57',
/* author */ ('LRA'),
/* organization */ ('REGO-FIX'),
/* preprocessor_version */ ' Unknown',
/* originating_system */ 'SIEMENS PLM Software Solid Edge ST10',
/* authorization */ 'Unknown');
FILE_SCHEMA (('AUTOMOTIVE_DESIGN { 1 0 10303 214 2 1 1}'));
ENDSEC;
DATA;
#10=PROPERTY_DEFINITION_REPRESENTATION(#14,#12);
#11=PROPERTY_DEFINITION_REPRESENTATION(#15,#13);
#12=REPRESENTATION('',(#16),#544);
#13=REPRESENTATION('',(#17),#544);
#14=PROPERTY_DEFINITION('pmi validation property','',#549);
#15=PROPERTY_DEFINITION('pmi validation property','',#549);
#16=VALUE_REPRESENTATION_ITEM('number of annotations',COUNT_MEASURE(0.));
#17=VALUE_REPRESENTATION_ITEM('number of views',COUNT_MEASURE(0.));
#18=SHAPE_REPRESENTATION_RELATIONSHIP('','',#367,#19);
#19=ADVANCED_BREP_SHAPE_REPRESENTATION('',(#365),#544);
#20=CONICAL_SURFACE('',#382,10.15,1.0471975511966);
#21=CONICAL_SURFACE('',#390,9.4,0.523598775598299);
#22=CONICAL_SURFACE('',#399,11.7320508075689,0.523598775598299);
#23=CONICAL_SURFACE('',#404,6.50038543774666,0.5235987755983);
#24=TOROIDAL_SURFACE('',#375,11.15,1.);
#25=TOROIDAL_SURFACE('',#386,8.65,1.5);
#26=TOROIDAL_SURFACE('',#393,11.5,0.5);
#27=TOROIDAL_SURFACE('',#397,10.,2.);
#28=TOROIDAL_SURFACE('',#401,7.99019237886467,0.25);
#29=TOROIDAL_SURFACE('',#406,8.51000000000001,0.2);
#30=PLANE('',#372);
#31=PLANE('',#378);
#32=PLANE('',#391);
#33=ORIENTED_EDGE('',*,*,#71,.T.);
#34=ORIENTED_EDGE('',*,*,#72,.T.);
#35=ORIENTED_EDGE('',*,*,#73,.F.);
#36=ORIENTED_EDGE('',*,*,#74,.T.);
#37=ORIENTED_EDGE('',*,*,#75,.F.);
#38=ORIENTED_EDGE('',*,*,#76,.F.);
#39=ORIENTED_EDGE('',*,*,#77,.T.);
#40=ORIENTED_EDGE('',*,*,#71,.F.);
#41=ORIENTED_EDGE('',*,*,#78,.F.);
#42=ORIENTED_EDGE('',*,*,#75,.T.);
#43=ORIENTED_EDGE('',*,*,#79,.T.);
#44=ORIENTED_EDGE('',*,*,#78,.T.);
#45=ORIENTED_EDGE('',*,*,#79,.F.);
#46=ORIENTED_EDGE('',*,*,#80,.F.);
#47=ORIENTED_EDGE('',*,*,#81,.T.);
#48=ORIENTED_EDGE('',*,*,#77,.F.);
#49=ORIENTED_EDGE('',*,*,#81,.F.);
#50=ORIENTED_EDGE('',*,*,#82,.T.);
#51=ORIENTED_EDGE('',*,*,#80,.T.);
#52=ORIENTED_EDGE('',*,*,#82,.F.);
#53=ORIENTED_EDGE('',*,*,#83,.T.);
#54=ORIENTED_EDGE('',*,*,#76,.T.);
#55=ORIENTED_EDGE('',*,*,#84,.T.);
#56=ORIENTED_EDGE('',*,*,#83,.F.);
#57=ORIENTED_EDGE('',*,*,#85,.T.);
#58=ORIENTED_EDGE('',*,*,#84,.F.);
#59=ORIENTED_EDGE('',*,*,#86,.T.);
#60=ORIENTED_EDGE('',*,*,#85,.F.);
#61=ORIENTED_EDGE('',*,*,#87,.T.);
#62=ORIENTED_EDGE('',*,*,#86,.F.);
#63=ORIENTED_EDGE('',*,*,#73,.T.);
#64=ORIENTED_EDGE('',*,*,#87,.F.);
#65=ORIENTED_EDGE('',*,*,#88,.T.);
#66=ORIENTED_EDGE('',*,*,#74,.F.);
#67=ORIENTED_EDGE('',*,*,#89,.T.);
#68=ORIENTED_EDGE('',*,*,#88,.F.);
#69=ORIENTED_EDGE('',*,*,#72,.F.);
#70=ORIENTED_EDGE('',*,*,#89,.F.);
#71=EDGE_CURVE('',#90,#90,#109,.F.);
#72=EDGE_CURVE('',#91,#91,#110,.T.);
#73=EDGE_CURVE('',#92,#92,#111,.T.);
#74=EDGE_CURVE('',#93,#93,#112,.T.);
#75=EDGE_CURVE('',#94,#94,#113,.T.);
#76=EDGE_CURVE('',#95,#95,#114,.T.);
#77=EDGE_CURVE('',#96,#96,#115,.T.);
#78=EDGE_CURVE('',#97,#97,#116,.T.);
#79=EDGE_CURVE('',#98,#98,#117,.F.);
#80=EDGE_CURVE('',#99,#99,#118,.F.);
#81=EDGE_CURVE('',#100,#100,#119,.T.);
#82=EDGE_CURVE('',#101,#101,#120,.T.);
#83=EDGE_CURVE('',#102,#102,#121,.T.);
#84=EDGE_CURVE('',#103,#103,#122,.T.);
#85=EDGE_CURVE('',#104,#104,#123,.T.);
#86=EDGE_CURVE('',#105,#105,#124,.T.);
#87=EDGE_CURVE('',#106,#106,#125,.T.);
#88=EDGE_CURVE('',#107,#107,#126,.T.);
#89=EDGE_CURVE('',#108,#108,#127,.T.);
#90=VERTEX_POINT('',#488);
#91=VERTEX_POINT('',#490);
#92=VERTEX_POINT('',#493);
#93=VERTEX_POINT('',#495);
#94=VERTEX_POINT('',#498);
#95=VERTEX_POINT('',#500);
#96=VERTEX_POINT('',#503);
#97=VERTEX_POINT('',#506);
#98=VERTEX_POINT('',#509);
#99=VERTEX_POINT('',#512);
#100=VERTEX_POINT('',#515);
#101=VERTEX_POINT('',#518);
#102=VERTEX_POINT('',#522);
#103=VERTEX_POINT('',#525);
#104=VERTEX_POINT('',#528);
#105=VERTEX_POINT('',#531);
#106=VERTEX_POINT('',#534);
#107=VERTEX_POINT('',#538);
#108=VERTEX_POINT('',#541);
#109=CIRCLE('',#370,8.54594621578444);
#110=CIRCLE('',#371,8.54594621578444);
#111=CIRCLE('',#373,7.99019237886467);
#112=CIRCLE('',#374,6.50038543774666);
#113=CIRCLE('',#376,10.15);
#114=CIRCLE('',#377,10.7141101056459);
#115=CIRCLE('',#379,8.65);
#116=CIRCLE('',#381,10.15);
#117=CIRCLE('',#383,9.4585);
#118=CIRCLE('',#385,9.4585);
#119=CIRCLE('',#387,10.15);
#120=CIRCLE('',#389,10.15);
#121=CIRCLE('',#392,11.5);
#122=CIRCLE('',#394,12.);
#123=CIRCLE('',#396,12.);
#124=CIRCLE('',#398,11.7320508075689);
#125=CIRCLE('',#400,8.20669872981078);
#126=CIRCLE('',#403,6.50038543774666);
#127=CIRCLE('',#405,8.6832050807569);
#128=EDGE_LOOP('',(#33));
#129=EDGE_LOOP('',(#34));
#130=EDGE_LOOP('',(#35));
#131=EDGE_LOOP('',(#36));
#132=EDGE_LOOP('',(#37));
#133=EDGE_LOOP('',(#38));
#134=EDGE_LOOP('',(#39));
#135=EDGE_LOOP('',(#40));
#136=EDGE_LOOP('',(#41));
#137=EDGE_LOOP('',(#42));
#138=EDGE_LOOP('',(#43));
#139=EDGE_LOOP('',(#44));
#140=EDGE_LOOP('',(#45));
#141=EDGE_LOOP('',(#46));
#142=EDGE_LOOP('',(#47));
#143=EDGE_LOOP('',(#48));
#144=EDGE_LOOP('',(#49));
#145=EDGE_LOOP('',(#50));
#146=EDGE_LOOP('',(#51));
#147=EDGE_LOOP('',(#52));
#148=EDGE_LOOP('',(#53));
#149=EDGE_LOOP('',(#54));
#150=EDGE_LOOP('',(#55));
#151=EDGE_LOOP('',(#56));
#152=EDGE_LOOP('',(#57));
#153=EDGE_LOOP('',(#58));
#154=EDGE_LOOP('',(#59));
#155=EDGE_LOOP('',(#60));
#156=EDGE_LOOP('',(#61));
#157=EDGE_LOOP('',(#62));
#158=EDGE_LOOP('',(#63));
#159=EDGE_LOOP('',(#64));
#160=EDGE_LOOP('',(#65));
#161=EDGE_LOOP('',(#66));
#162=EDGE_LOOP('',(#67));
#163=EDGE_LOOP('',(#68));
#164=EDGE_LOOP('',(#69));
#165=EDGE_LOOP('',(#70));
#166=FACE_BOUND('',#128,.T.);
#167=FACE_BOUND('',#129,.T.);
#168=FACE_BOUND('',#130,.T.);
#169=FACE_BOUND('',#131,.T.);
#170=FACE_BOUND('',#132,.T.);
#171=FACE_BOUND('',#133,.T.);
#172=FACE_BOUND('',#134,.T.);
#173=FACE_BOUND('',#135,.T.);
#174=FACE_BOUND('',#136,.T.);
#175=FACE_BOUND('',#137,.T.);
#176=FACE_BOUND('',#138,.T.);
#177=FACE_BOUND('',#139,.T.);
#178=FACE_BOUND('',#140,.T.);
#179=FACE_BOUND('',#141,.T.);
#180=FACE_BOUND('',#142,.T.);
#181=FACE_BOUND('',#143,.T.);
#182=FACE_BOUND('',#144,.T.);
#183=FACE_BOUND('',#145,.T.);
#184=FACE_BOUND('',#146,.T.);
#185=FACE_BOUND('',#147,.T.);
#186=FACE_BOUND('',#148,.T.);
#187=FACE_BOUND('',#149,.T.);
#188=FACE_BOUND('',#150,.T.);
#189=FACE_BOUND('',#151,.T.);
#190=FACE_BOUND('',#152,.T.);
#191=FACE_BOUND('',#153,.T.);
#192=FACE_BOUND('',#154,.T.);
#193=FACE_BOUND('',#155,.T.);
#194=FACE_BOUND('',#156,.T.);
#195=FACE_BOUND('',#157,.T.);
#196=FACE_BOUND('',#158,.T.);
#197=FACE_BOUND('',#159,.T.);
#198=FACE_BOUND('',#160,.T.);
#199=FACE_BOUND('',#161,.T.);
#200=FACE_BOUND('',#162,.T.);
#201=FACE_BOUND('',#163,.T.);
#202=FACE_BOUND('',#164,.T.);
#203=FACE_BOUND('',#165,.T.);
#204=CYLINDRICAL_SURFACE('',#369,8.54594621578444);
#205=CYLINDRICAL_SURFACE('',#380,10.15);
#206=CYLINDRICAL_SURFACE('',#384,9.4585);
#207=CYLINDRICAL_SURFACE('',#388,10.15);
#208=CYLINDRICAL_SURFACE('',#395,12.);
#209=CYLINDRICAL_SURFACE('',#402,6.50038543774666);
#210=STYLED_ITEM('',(#229),#345);
#211=STYLED_ITEM('',(#230),#346);
#212=STYLED_ITEM('',(#231),#347);
#213=STYLED_ITEM('',(#232),#348);
#214=STYLED_ITEM('',(#233),#349);
#215=STYLED_ITEM('',(#234),#350);
#216=STYLED_ITEM('',(#235),#351);
#217=STYLED_ITEM('',(#236),#352);
#218=STYLED_ITEM('',(#237),#353);
#219=STYLED_ITEM('',(#238),#354);
#220=STYLED_ITEM('',(#239),#355);
#221=STYLED_ITEM('',(#240),#356);
#222=STYLED_ITEM('',(#241),#357);
#223=STYLED_ITEM('',(#242),#358);
#224=STYLED_ITEM('',(#243),#359);
#225=STYLED_ITEM('',(#244),#360);
#226=STYLED_ITEM('',(#245),#361);
#227=STYLED_ITEM('',(#246),#362);
#228=STYLED_ITEM('',(#247),#363);
#229=PRESENTATION_STYLE_ASSIGNMENT((#248));
#230=PRESENTATION_STYLE_ASSIGNMENT((#249));
#231=PRESENTATION_STYLE_ASSIGNMENT((#250));
#232=PRESENTATION_STYLE_ASSIGNMENT((#251));
#233=PRESENTATION_STYLE_ASSIGNMENT((#252));
#234=PRESENTATION_STYLE_ASSIGNMENT((#253));
#235=PRESENTATION_STYLE_ASSIGNMENT((#254));
#236=PRESENTATION_STYLE_ASSIGNMENT((#255));
#237=PRESENTATION_STYLE_ASSIGNMENT((#256));
#238=PRESENTATION_STYLE_ASSIGNMENT((#257));
#239=PRESENTATION_STYLE_ASSIGNMENT((#258));
#240=PRESENTATION_STYLE_ASSIGNMENT((#259));
#241=PRESENTATION_STYLE_ASSIGNMENT((#260));
#242=PRESENTATION_STYLE_ASSIGNMENT((#261));
#243=PRESENTATION_STYLE_ASSIGNMENT((#262));
#244=PRESENTATION_STYLE_ASSIGNMENT((#263));
#245=PRESENTATION_STYLE_ASSIGNMENT((#264));
#246=PRESENTATION_STYLE_ASSIGNMENT((#265));
#247=PRESENTATION_STYLE_ASSIGNMENT((#266));
#248=SURFACE_STYLE_USAGE(.BOTH.,#267);
#249=SURFACE_STYLE_USAGE(.BOTH.,#268);
#250=SURFACE_STYLE_USAGE(.BOTH.,#269);
#251=SURFACE_STYLE_USAGE(.BOTH.,#270);
#252=SURFACE_STYLE_USAGE(.BOTH.,#271);
#253=SURFACE_STYLE_USAGE(.BOTH.,#272);
#254=SURFACE_STYLE_USAGE(.BOTH.,#273);
#255=SURFACE_STYLE_USAGE(.BOTH.,#274);
#256=SURFACE_STYLE_USAGE(.BOTH.,#275);
#257=SURFACE_STYLE_USAGE(.BOTH.,#276);
#258=SURFACE_STYLE_USAGE(.BOTH.,#277);
#259=SURFACE_STYLE_USAGE(.BOTH.,#278);
#260=SURFACE_STYLE_USAGE(.BOTH.,#279);
#261=SURFACE_STYLE_USAGE(.BOTH.,#280);
#262=SURFACE_STYLE_USAGE(.BOTH.,#281);
#263=SURFACE_STYLE_USAGE(.BOTH.,#282);
#264=SURFACE_STYLE_USAGE(.BOTH.,#283);
#265=SURFACE_STYLE_USAGE(.BOTH.,#284);
#266=SURFACE_STYLE_USAGE(.BOTH.,#285);
#267=SURFACE_SIDE_STYLE('',(#286));
#268=SURFACE_SIDE_STYLE('',(#287));
#269=SURFACE_SIDE_STYLE('',(#288));
#270=SURFACE_SIDE_STYLE('',(#289));
#271=SURFACE_SIDE_STYLE('',(#290));
#272=SURFACE_SIDE_STYLE('',(#291));
#273=SURFACE_SIDE_STYLE('',(#292));
#274=SURFACE_SIDE_STYLE('',(#293));
#275=SURFACE_SIDE_STYLE('',(#294));
#276=SURFACE_SIDE_STYLE('',(#295));
#277=SURFACE_SIDE_STYLE('',(#296));
#278=SURFACE_SIDE_STYLE('',(#297));
#279=SURFACE_SIDE_STYLE('',(#298));
#280=SURFACE_SIDE_STYLE('',(#299));
#281=SURFACE_SIDE_STYLE('',(#300));
#282=SURFACE_SIDE_STYLE('',(#301));
#283=SURFACE_SIDE_STYLE('',(#302));
#284=SURFACE_SIDE_STYLE('',(#303));
#285=SURFACE_SIDE_STYLE('',(#304));
#286=SURFACE_STYLE_FILL_AREA(#305);
#287=SURFACE_STYLE_FILL_AREA(#306);
#288=SURFACE_STYLE_FILL_AREA(#307);
#289=SURFACE_STYLE_FILL_AREA(#308);
#290=SURFACE_STYLE_FILL_AREA(#309);
#291=SURFACE_STYLE_FILL_AREA(#310);
#292=SURFACE_STYLE_FILL_AREA(#311);
#293=SURFACE_STYLE_FILL_AREA(#312);
#294=SURFACE_STYLE_FILL_AREA(#313);
#295=SURFACE_STYLE_FILL_AREA(#314);
#296=SURFACE_STYLE_FILL_AREA(#315);
#297=SURFACE_STYLE_FILL_AREA(#316);
#298=SURFACE_STYLE_FILL_AREA(#317);
#299=SURFACE_STYLE_FILL_AREA(#318);
#300=SURFACE_STYLE_FILL_AREA(#319);
#301=SURFACE_STYLE_FILL_AREA(#320);
#302=SURFACE_STYLE_FILL_AREA(#321);
#303=SURFACE_STYLE_FILL_AREA(#322);
#304=SURFACE_STYLE_FILL_AREA(#323);
#305=FILL_AREA_STYLE('',(#324));
#306=FILL_AREA_STYLE('',(#325));
#307=FILL_AREA_STYLE('',(#326));
#308=FILL_AREA_STYLE('',(#327));
#309=FILL_AREA_STYLE('',(#328));
#310=FILL_AREA_STYLE('',(#329));
#311=FILL_AREA_STYLE('',(#330));
#312=FILL_AREA_STYLE('',(#331));
#313=FILL_AREA_STYLE('',(#332));
#314=FILL_AREA_STYLE('',(#333));
#315=FILL_AREA_STYLE('',(#334));
#316=FILL_AREA_STYLE('',(#335));
#317=FILL_AREA_STYLE('',(#336));
#318=FILL_AREA_STYLE('',(#337));
#319=FILL_AREA_STYLE('',(#338));
#320=FILL_AREA_STYLE('',(#339));
#321=FILL_AREA_STYLE('',(#340));
#322=FILL_AREA_STYLE('',(#341));
#323=FILL_AREA_STYLE('',(#342));
#324=FILL_AREA_STYLE_COLOUR('',#343);
#325=FILL_AREA_STYLE_COLOUR('',#343);
#326=FILL_AREA_STYLE_COLOUR('',#343);
#327=FILL_AREA_STYLE_COLOUR('',#343);
#328=FILL_AREA_STYLE_COLOUR('',#343);
#329=FILL_AREA_STYLE_COLOUR('',#343);
#330=FILL_AREA_STYLE_COLOUR('',#344);
#331=FILL_AREA_STYLE_COLOUR('',#343);
#332=FILL_AREA_STYLE_COLOUR('',#343);
#333=FILL_AREA_STYLE_COLOUR('',#343);
#334=FILL_AREA_STYLE_COLOUR('',#343);
#335=FILL_AREA_STYLE_COLOUR('',#343);
#336=FILL_AREA_STYLE_COLOUR('',#343);
#337=FILL_AREA_STYLE_COLOUR('',#343);
#338=FILL_AREA_STYLE_COLOUR('',#343);
#339=FILL_AREA_STYLE_COLOUR('',#343);
#340=FILL_AREA_STYLE_COLOUR('',#343);
#341=FILL_AREA_STYLE_COLOUR('',#343);
#342=FILL_AREA_STYLE_COLOUR('',#343);
#343=COLOUR_RGB( ' ', 0.5, 0.5, 0.5 );
#344=COLOUR_RGB( ' ', 0.5, 0.5, 0.5 );
#345=ADVANCED_FACE('',(#166,#167),#204,.F.);
#346=ADVANCED_FACE('',(#168,#169),#30,.T.);
#347=ADVANCED_FACE('',(#170,#171),#24,.T.);
#348=ADVANCED_FACE('',(#172,#173),#31,.F.);
#349=ADVANCED_FACE('',(#174,#175),#205,.F.);
#350=ADVANCED_FACE('',(#176,#177),#20,.F.);
#351=ADVANCED_FACE('',(#178,#179),#206,.F.);
#352=ADVANCED_FACE('',(#180,#181),#25,.F.);
#353=ADVANCED_FACE('',(#182,#183),#207,.F.);
#354=ADVANCED_FACE('',(#184,#185),#21,.F.);
#355=ADVANCED_FACE('',(#186,#187),#32,.T.);
#356=ADVANCED_FACE('',(#188,#189),#26,.T.);
#357=ADVANCED_FACE('',(#190,#191),#208,.T.);
#358=ADVANCED_FACE('',(#192,#193),#27,.T.);
#359=ADVANCED_FACE('',(#194,#195),#22,.T.);
#360=ADVANCED_FACE('',(#196,#197),#28,.T.);
#361=ADVANCED_FACE('',(#198,#199),#209,.F.);
#362=ADVANCED_FACE('',(#200,#201),#23,.F.);
#363=ADVANCED_FACE('',(#202,#203),#29,.F.);
#364=CLOSED_SHELL('',(#345,#346,#347,#348,#349,#350,#351,#352,#353,#354,
#355,#356,#357,#358,#359,#360,#361,#362,#363));
#365=MANIFOLD_SOLID_BREP('NOCUT',#364);
#366=SHAPE_DEFINITION_REPRESENTATION(#549,#367);
#367=SHAPE_REPRESENTATION('361680000',(#368),#544);
#368=AXIS2_PLACEMENT_3D('',#485,#407,#408);
#369=AXIS2_PLACEMENT_3D('',#486,#409,#410);
#370=AXIS2_PLACEMENT_3D('',#487,#411,#412);
#371=AXIS2_PLACEMENT_3D('',#489,#413,#414);
#372=AXIS2_PLACEMENT_3D('',#491,#415,#416);
#373=AXIS2_PLACEMENT_3D('',#492,#417,#418);
#374=AXIS2_PLACEMENT_3D('',#494,#419,#420);
#375=AXIS2_PLACEMENT_3D('',#496,#421,#422);
#376=AXIS2_PLACEMENT_3D('',#497,#423,#424);
#377=AXIS2_PLACEMENT_3D('',#499,#425,#426);
#378=AXIS2_PLACEMENT_3D('',#501,#427,#428);
#379=AXIS2_PLACEMENT_3D('',#502,#429,#430);
#380=AXIS2_PLACEMENT_3D('',#504,#431,#432);
#381=AXIS2_PLACEMENT_3D('',#505,#433,#434);
#382=AXIS2_PLACEMENT_3D('',#507,#435,#436);
#383=AXIS2_PLACEMENT_3D('',#508,#437,#438);
#384=AXIS2_PLACEMENT_3D('',#510,#439,#440);
#385=AXIS2_PLACEMENT_3D('',#511,#441,#442);
#386=AXIS2_PLACEMENT_3D('',#513,#443,#444);
#387=AXIS2_PLACEMENT_3D('',#514,#445,#446);
#388=AXIS2_PLACEMENT_3D('',#516,#447,#448);
#389=AXIS2_PLACEMENT_3D('',#517,#449,#450);
#390=AXIS2_PLACEMENT_3D('',#519,#451,#452);
#391=AXIS2_PLACEMENT_3D('',#520,#453,#454);
#392=AXIS2_PLACEMENT_3D('',#521,#455,#456);
#393=AXIS2_PLACEMENT_3D('',#523,#457,#458);
#394=AXIS2_PLACEMENT_3D('',#524,#459,#460);
#395=AXIS2_PLACEMENT_3D('',#526,#461,#462);
#396=AXIS2_PLACEMENT_3D('',#527,#463,#464);
#397=AXIS2_PLACEMENT_3D('',#529,#465,#466);
#398=AXIS2_PLACEMENT_3D('',#530,#467,#468);
#399=AXIS2_PLACEMENT_3D('',#532,#469,#470);
#400=AXIS2_PLACEMENT_3D('',#533,#471,#472);
#401=AXIS2_PLACEMENT_3D('',#535,#473,#474);
#402=AXIS2_PLACEMENT_3D('',#536,#475,#476);
#403=AXIS2_PLACEMENT_3D('',#537,#477,#478);
#404=AXIS2_PLACEMENT_3D('',#539,#479,#480);
#405=AXIS2_PLACEMENT_3D('',#540,#481,#482);
#406=AXIS2_PLACEMENT_3D('',#542,#483,#484);
#407=DIRECTION('',(0.,0.,1.));
#408=DIRECTION('',(1.,0.,0.));
#409=DIRECTION('',(0.,0.,1.));
#410=DIRECTION('',(1.,0.,0.));
#411=DIRECTION('',(0.,0.,-1.));
#412=DIRECTION('',(-1.,0.,0.));
#413=DIRECTION('',(0.,0.,-1.));
#414=DIRECTION('',(-1.,0.,0.));
#415=DIRECTION('',(0.,0.,-1.));
#416=DIRECTION('',(-1.,0.,0.));
#417=DIRECTION('',(0.,0.,1.));
#418=DIRECTION('',(1.,0.,0.));
#419=DIRECTION('',(0.,0.,1.));
#420=DIRECTION('',(1.,0.,0.));
#421=DIRECTION('',(0.,0.,1.));
#422=DIRECTION('',(1.,0.,0.));
#423=DIRECTION('',(0.,0.,1.));
#424=DIRECTION('',(1.,0.,0.));
#425=DIRECTION('',(0.,0.,-1.));
#426=DIRECTION('',(-1.,0.,0.));
#427=DIRECTION('',(0.,0.,-1.));
#428=DIRECTION('',(-1.,0.,0.));
#429=DIRECTION('',(0.,0.,1.));
#430=DIRECTION('',(1.,0.,0.));
#431=DIRECTION('',(0.,0.,1.));
#432=DIRECTION('',(1.,0.,0.));
#433=DIRECTION('',(0.,0.,1.));
#434=DIRECTION('',(1.,0.,0.));
#435=DIRECTION('',(0.,0.,1.));
#436=DIRECTION('',(1.,0.,0.));
#437=DIRECTION('',(0.,0.,1.));
#438=DIRECTION('',(1.,0.,0.));
#439=DIRECTION('',(0.,0.,1.));
#440=DIRECTION('',(1.,0.,0.));
#441=DIRECTION('',(0.,0.,-1.));
#442=DIRECTION('',(-1.,0.,0.));
#443=DIRECTION('',(0.,0.,1.));
#444=DIRECTION('',(1.,0.,0.));
#445=DIRECTION('',(0.,0.,1.));
#446=DIRECTION('',(1.,0.,0.));
#447=DIRECTION('',(0.,0.,1.));
#448=DIRECTION('',(1.,0.,0.));
#449=DIRECTION('',(0.,0.,1.));
#450=DIRECTION('',(1.,0.,0.));
#451=DIRECTION('',(0.,0.,-1.));
#452=DIRECTION('',(-1.,0.,0.));
#453=DIRECTION('',(0.,0.,1.));
#454=DIRECTION('',(1.,0.,0.));
#455=DIRECTION('',(0.,0.,1.));
#456=DIRECTION('',(1.,0.,0.));
#457=DIRECTION('',(0.,0.,1.));
#458=DIRECTION('',(1.,0.,0.));
#459=DIRECTION('',(0.,0.,1.));
#460=DIRECTION('',(1.,0.,0.));
#461=DIRECTION('',(0.,0.,1.));
#462=DIRECTION('',(1.,0.,0.));
#463=DIRECTION('',(0.,0.,1.));
#464=DIRECTION('',(1.,0.,0.));
#465=DIRECTION('',(0.,0.,1.));
#466=DIRECTION('',(1.,0.,0.));
#467=DIRECTION('',(0.,0.,1.));
#468=DIRECTION('',(1.,0.,0.));
#469=DIRECTION('',(0.,0.,1.));
#470=DIRECTION('',(1.,0.,0.));
#471=DIRECTION('',(0.,0.,1.));
#472=DIRECTION('',(1.,0.,0.));
#473=DIRECTION('',(0.,0.,1.));
#474=DIRECTION('',(1.,0.,0.));
#475=DIRECTION('',(0.,0.,1.));
#476=DIRECTION('',(1.,0.,0.));
#477=DIRECTION('',(0.,0.,1.));
#478=DIRECTION('',(1.,0.,0.));
#479=DIRECTION('',(0.,0.,1.));
#480=DIRECTION('',(1.,0.,0.));
#481=DIRECTION('',(0.,0.,1.));
#482=DIRECTION('',(1.,0.,0.));
#483=DIRECTION('',(0.,0.,1.));
#484=DIRECTION('',(1.,0.,0.));
#485=CARTESIAN_POINT('',(0.,0.,0.));
#486=CARTESIAN_POINT('',(0.,0.,4.2));
#487=CARTESIAN_POINT('',(0.,0.,5.3));
#488=CARTESIAN_POINT('',(-8.54594621578444,0.,5.3));
#489=CARTESIAN_POINT('',(0.,0.,4.44674315635053));
#490=CARTESIAN_POINT('',(-8.54594621578444,0.,4.44674315635053));
#491=CARTESIAN_POINT('',(7.99019237886467,0.,4.60785923306339E-16));
#492=CARTESIAN_POINT('',(0.,0.,0.));
#493=CARTESIAN_POINT('',(7.99019237886467,0.,0.));
#494=CARTESIAN_POINT('',(0.,0.,0.));
#495=CARTESIAN_POINT('',(6.50038543774666,0.,0.));
#496=CARTESIAN_POINT('',(0.,0.,22.2));
#497=CARTESIAN_POINT('',(0.,0.,22.2));
#498=CARTESIAN_POINT('',(10.15,0.,22.2));
#499=CARTESIAN_POINT('',(0.,0.,23.1));
#500=CARTESIAN_POINT('',(-10.7141101056459,0.,23.1));
#501=CARTESIAN_POINT('',(8.65,0.,5.3));
#502=CARTESIAN_POINT('',(0.,0.,5.3));
#503=CARTESIAN_POINT('',(8.65,0.,5.3));
#504=CARTESIAN_POINT('',(0.,0.,23.2));
#505=CARTESIAN_POINT('',(0.,0.,20.1));
#506=CARTESIAN_POINT('',(10.15,0.,20.1));
#507=CARTESIAN_POINT('',(0.,0.,20.1));
#508=CARTESIAN_POINT('',(0.,0.,19.7007622888554));
#509=CARTESIAN_POINT('',(9.4585,0.,19.7007622888554));
#510=CARTESIAN_POINT('',(4.33680868994202E-16,0.,-18.3195134846255));
#511=CARTESIAN_POINT('',(0.,0.,9.4513029719201));
#512=CARTESIAN_POINT('',(-9.4585,0.,9.4513029719201));
#513=CARTESIAN_POINT('',(0.,0.,6.8));
#514=CARTESIAN_POINT('',(0.,0.,6.8));
#515=CARTESIAN_POINT('',(10.15,0.,6.8));
#516=CARTESIAN_POINT('',(0.,0.,23.2));
#517=CARTESIAN_POINT('',(0.,0.,8.25358983848622));
#518=CARTESIAN_POINT('',(10.15,0.,8.25358983848622));
#519=CARTESIAN_POINT('',(0.,0.,9.55262794416288));
#520=CARTESIAN_POINT('',(0.,0.,23.1));
#521=CARTESIAN_POINT('',(0.,0.,23.1));
#522=CARTESIAN_POINT('',(11.5,0.,23.1));
#523=CARTESIAN_POINT('',(0.,0.,22.6));
#524=CARTESIAN_POINT('',(0.,0.,22.6));
#525=CARTESIAN_POINT('',(12.,0.,22.6));
#526=CARTESIAN_POINT('',(0.,0.,60.));
#527=CARTESIAN_POINT('',(0.,0.,7.23108891324553));
#528=CARTESIAN_POINT('',(12.,0.,7.23108891324553));
#529=CARTESIAN_POINT('',(0.,0.,7.23108891324553));
#530=CARTESIAN_POINT('',(0.,0.,6.23108891324553));
#531=CARTESIAN_POINT('',(11.7320508075689,0.,6.23108891324553));
#532=CARTESIAN_POINT('',(0.,0.,6.23108891324553));
#533=CARTESIAN_POINT('',(0.,0.,0.125));
#534=CARTESIAN_POINT('',(8.20669872981078,0.,0.125));
#535=CARTESIAN_POINT('',(0.,0.,0.250000000000001));
#536=CARTESIAN_POINT('',(0.,0.,60.));
#537=CARTESIAN_POINT('',(0.,0.,0.369245474546899));
#538=CARTESIAN_POINT('',(6.50038543774666,0.,0.369245474546899));
#539=CARTESIAN_POINT('',(0.,0.,0.369245474546899));
#540=CARTESIAN_POINT('',(0.,0.,4.14999999999998));
#541=CARTESIAN_POINT('',(8.6832050807569,0.,4.14999999999998));
#542=CARTESIAN_POINT('',(0.,0.,4.24999999999998));
#543=MECHANICAL_DESIGN_GEOMETRIC_PRESENTATION_REPRESENTATION('',(#210,#211,
#212,#213,#214,#215,#216,#217,#218,#219,#220,#221,#222,#223,#224,#225,#226,
#227,#228),#544);
#544=(
GEOMETRIC_REPRESENTATION_CONTEXT(3)
GLOBAL_UNCERTAINTY_ASSIGNED_CONTEXT((#545))
GLOBAL_UNIT_ASSIGNED_CONTEXT((#548,#547,#546))
REPRESENTATION_CONTEXT('361680000','TOP_LEVEL_ASSEMBLY_PART')
);
#545=UNCERTAINTY_MEASURE_WITH_UNIT(LENGTH_MEASURE(0.005),#548,
'DISTANCE_ACCURACY_VALUE','Maximum Tolerance applied to model');
#546=(
NAMED_UNIT(*)
SI_UNIT($,.STERADIAN.)
SOLID_ANGLE_UNIT()
);
#547=(
NAMED_UNIT(*)
PLANE_ANGLE_UNIT()
SI_UNIT($,.RADIAN.)
);
#548=(
LENGTH_UNIT()
NAMED_UNIT(*)
SI_UNIT(.MILLI.,.METRE.)
);
#549=PRODUCT_DEFINITION_SHAPE('','',#550);
#550=PRODUCT_DEFINITION('','',#552,#551);
#551=PRODUCT_DEFINITION_CONTEXT('',#558,'design');
#552=PRODUCT_DEFINITION_FORMATION_WITH_SPECIFIED_SOURCE('','',#554,
 .NOT_KNOWN.);
#553=PRODUCT_RELATED_PRODUCT_CATEGORY('','',(#554));
#554=PRODUCT('NOCUT','NOCUT','NOCUT',(#556));
#555=PRODUCT_CATEGORY('','');
#556=PRODUCT_CONTEXT('',#558,'mechanical');
#557=APPLICATION_PROTOCOL_DEFINITION('international standard',
'automotive_design',2010,#558);
#558=APPLICATION_CONTEXT(
'core data for automotive mechanical design processes');
#559=AXIS2_PLACEMENT_3D('PCS',#560,#561,#562);
#560=CARTESIAN_POINT('',(0.,0.,23.1));
#561=DIRECTION('',(0.,0.,1.));
#562=DIRECTION('',(1.,0.,0.));
#563=AXIS2_PLACEMENT_3D('MCS',#564,#565,#566);
#564=CARTESIAN_POINT('',(0.,0.,23.1));
#565=DIRECTION('',(0.,0.,1.));
#566=DIRECTION('',(1.,0.,0.));
#567=AXIS2_PLACEMENT_3D('CSW',#568,#569,#570);
#568=CARTESIAN_POINT('',(0.,0.,0.));
#569=DIRECTION('',(0.,0.,1.));
#570=DIRECTION('',(1.,0.,0.));
#571=CONSTRUCTIVE_GEOMETRY_REPRESENTATION_RELATIONSHIP('coordinate systems',$,#19,#572);
#572=CONSTRUCTIVE_GEOMETRY_REPRESENTATION('coordinate systems',(#559, #563, #567),#544);
ENDSEC;
END-ISO-10303-21;

