ISO-10303-21;
HEADER;
FILE_DESCRIPTION(
/* description */ (''),
/* implementation_level */ '2;1');
FILE_NAME(
/* name */ '363200000.stp',
/* time_stamp */ '2021-09-24T14:17:34',
/* author */ ('LRA'),
/* organization */ ('REGO-FIX'),
/* preprocessor_version */ ' Unknown',
/* originating_system */ 'SIEMENS PLM Software Solid Edge ST10',
/* authorization */ 'Unknown');
FILE_SCHEMA (('AUTOMOTIVE_DESIGN { 1 0 10303 214 2 1 1}'));
ENDSEC;
DATA;
#10=PROPERTY_DEFINITION_REPRESENTATION(#14,#12);
#11=PROPERTY_DEFINITION_REPRESENTATION(#15,#13);
#12=REPRESENTATION('',(#16),#625);
#13=REPRESENTATION('',(#17),#625);
#14=PROPERTY_DEFINITION('pmi validation property','',#630);
#15=PROPERTY_DEFINITION('pmi validation property','',#630);
#16=VALUE_REPRESENTATION_ITEM('number of annotations',COUNT_MEASURE(0.));
#17=VALUE_REPRESENTATION_ITEM('number of views',COUNT_MEASURE(0.));
#18=SHAPE_REPRESENTATION_RELATIONSHIP('','',#421,#19);
#19=ADVANCED_BREP_SHAPE_REPRESENTATION('',(#419),#625);
#20=CYLINDRICAL_SURFACE('',#437,25.2);
#21=CYLINDRICAL_SURFACE('',#443,25.);
#22=CYLINDRICAL_SURFACE('',#453,21.075);
#23=CYLINDRICAL_SURFACE('',#454,20.188);
#24=CYLINDRICAL_SURFACE('',#458,21.25);
#25=CYLINDRICAL_SURFACE('',#461,13.5);
#26=CYLINDRICAL_SURFACE('',#466,16.603024758084);
#27=CONICAL_SURFACE('',#435,25.,0.785398163397414);
#28=CONICAL_SURFACE('',#439,25.2,0.785398163397448);
#29=CONICAL_SURFACE('',#445,25.,0.523598775598299);
#30=CONICAL_SURFACE('',#450,21.075,1.04719755119659);
#31=CONICAL_SURFACE('',#460,20.,1.0471975511966);
#32=CONICAL_SURFACE('',#463,13.5,0.523598775598298);
#33=TOROIDAL_SURFACE('',#426,16.56,0.2);
#34=TOROIDAL_SURFACE('',#441,25.4,0.400000000000001);
#35=TOROIDAL_SURFACE('',#448,22.575,1.5);
#36=TOROIDAL_SURFACE('',#456,19.75,1.5);
#37=TOROIDAL_SURFACE('',#464,23.,2.);
#38=TOROIDAL_SURFACE('',#465,22.2287187078898,0.5);
#39=ORIENTED_EDGE('',*,*,#83,.T.);
#40=ORIENTED_EDGE('',*,*,#84,.T.);
#41=ORIENTED_EDGE('',*,*,#85,.F.);
#42=ORIENTED_EDGE('',*,*,#86,.T.);
#43=ORIENTED_EDGE('',*,*,#87,.T.);
#44=ORIENTED_EDGE('',*,*,#88,.T.);
#45=ORIENTED_EDGE('',*,*,#89,.F.);
#46=ORIENTED_EDGE('',*,*,#90,.T.);
#47=ORIENTED_EDGE('',*,*,#91,.T.);
#48=ORIENTED_EDGE('',*,*,#90,.F.);
#49=ORIENTED_EDGE('',*,*,#92,.T.);
#50=ORIENTED_EDGE('',*,*,#91,.F.);
#51=ORIENTED_EDGE('',*,*,#93,.T.);
#52=ORIENTED_EDGE('',*,*,#92,.F.);
#53=ORIENTED_EDGE('',*,*,#94,.T.);
#54=ORIENTED_EDGE('',*,*,#93,.F.);
#55=ORIENTED_EDGE('',*,*,#95,.T.);
#56=ORIENTED_EDGE('',*,*,#94,.F.);
#57=ORIENTED_EDGE('',*,*,#96,.T.);
#58=ORIENTED_EDGE('',*,*,#97,.T.);
#59=ORIENTED_EDGE('',*,*,#98,.F.);
#60=ORIENTED_EDGE('',*,*,#89,.T.);
#61=ORIENTED_EDGE('',*,*,#99,.T.);
#62=ORIENTED_EDGE('',*,*,#100,.T.);
#63=ORIENTED_EDGE('',*,*,#100,.F.);
#64=ORIENTED_EDGE('',*,*,#98,.T.);
#65=ORIENTED_EDGE('',*,*,#101,.F.);
#66=ORIENTED_EDGE('',*,*,#99,.F.);
#67=ORIENTED_EDGE('',*,*,#102,.T.);
#68=ORIENTED_EDGE('',*,*,#83,.F.);
#69=ORIENTED_EDGE('',*,*,#102,.F.);
#70=ORIENTED_EDGE('',*,*,#103,.T.);
#71=ORIENTED_EDGE('',*,*,#101,.T.);
#72=ORIENTED_EDGE('',*,*,#103,.F.);
#73=ORIENTED_EDGE('',*,*,#104,.T.);
#74=ORIENTED_EDGE('',*,*,#87,.F.);
#75=ORIENTED_EDGE('',*,*,#104,.F.);
#76=ORIENTED_EDGE('',*,*,#85,.T.);
#77=ORIENTED_EDGE('',*,*,#97,.F.);
#78=ORIENTED_EDGE('',*,*,#95,.F.);
#79=ORIENTED_EDGE('',*,*,#88,.F.);
#80=ORIENTED_EDGE('',*,*,#96,.F.);
#81=ORIENTED_EDGE('',*,*,#84,.F.);
#82=ORIENTED_EDGE('',*,*,#86,.F.);
#83=EDGE_CURVE('',#105,#105,#127,.T.);
#84=EDGE_CURVE('',#106,#106,#128,.T.);
#85=EDGE_CURVE('',#107,#107,#129,.T.);
#86=EDGE_CURVE('',#108,#108,#130,.F.);
#87=EDGE_CURVE('',#109,#109,#131,.T.);
#88=EDGE_CURVE('',#110,#110,#132,.T.);
#89=EDGE_CURVE('',#111,#111,#133,.F.);
#90=EDGE_CURVE('',#112,#112,#134,.T.);
#91=EDGE_CURVE('',#113,#113,#135,.T.);
#92=EDGE_CURVE('',#114,#114,#136,.T.);
#93=EDGE_CURVE('',#115,#115,#137,.T.);
#94=EDGE_CURVE('',#116,#116,#138,.T.);
#95=EDGE_CURVE('',#117,#117,#139,.F.);
#96=EDGE_CURVE('',#118,#118,#140,.F.);
#97=EDGE_CURVE('',#119,#119,#141,.T.);
#98=EDGE_CURVE('',#120,#120,#142,.T.);
#99=EDGE_CURVE('',#121,#121,#143,.F.);
#100=EDGE_CURVE('',#122,#122,#144,.T.);
#101=EDGE_CURVE('',#123,#123,#145,.F.);
#102=EDGE_CURVE('',#124,#124,#146,.T.);
#103=EDGE_CURVE('',#125,#125,#147,.T.);
#104=EDGE_CURVE('',#126,#126,#148,.T.);
#105=VERTEX_POINT('',#560);
#106=VERTEX_POINT('',#562);
#107=VERTEX_POINT('',#565);
#108=VERTEX_POINT('',#567);
#109=VERTEX_POINT('',#570);
#110=VERTEX_POINT('',#572);
#111=VERTEX_POINT('',#575);
#112=VERTEX_POINT('',#577);
#113=VERTEX_POINT('',#580);
#114=VERTEX_POINT('',#583);
#115=VERTEX_POINT('',#586);
#116=VERTEX_POINT('',#589);
#117=VERTEX_POINT('',#592);
#118=VERTEX_POINT('',#595);
#119=VERTEX_POINT('',#597);
#120=VERTEX_POINT('',#600);
#121=VERTEX_POINT('',#603);
#122=VERTEX_POINT('',#605);
#123=VERTEX_POINT('',#609);
#124=VERTEX_POINT('',#612);
#125=VERTEX_POINT('',#615);
#126=VERTEX_POINT('',#619);
#127=CIRCLE('',#424,19.75);
#128=CIRCLE('',#425,16.603024758084);
#129=CIRCLE('',#427,16.7332050807569);
#130=CIRCLE('',#428,16.603024758084);
#131=CIRCLE('',#430,13.5);
#132=CIRCLE('',#431,22.2287187078898);
#133=CIRCLE('',#433,22.0364835192866);
#134=CIRCLE('',#434,25.);
#135=CIRCLE('',#436,25.2);
#136=CIRCLE('',#438,25.2);
#137=CIRCLE('',#440,25.1171572875254);
#138=CIRCLE('',#442,25.);
#139=CIRCLE('',#444,25.);
#140=CIRCLE('',#446,22.661731409782);
#141=CIRCLE('',#447,24.7320508075689);
#142=CIRCLE('',#449,21.075);
#143=CIRCLE('',#451,20.188);
#144=CIRCLE('',#452,21.075);
#145=CIRCLE('',#455,20.188);
#146=CIRCLE('',#457,21.25);
#147=CIRCLE('',#459,21.25);
#148=CIRCLE('',#462,13.5);
#149=EDGE_LOOP('',(#39));
#150=EDGE_LOOP('',(#40));
#151=EDGE_LOOP('',(#41));
#152=EDGE_LOOP('',(#42));
#153=EDGE_LOOP('',(#43));
#154=EDGE_LOOP('',(#44));
#155=EDGE_LOOP('',(#45));
#156=EDGE_LOOP('',(#46));
#157=EDGE_LOOP('',(#47));
#158=EDGE_LOOP('',(#48));
#159=EDGE_LOOP('',(#49));
#160=EDGE_LOOP('',(#50));
#161=EDGE_LOOP('',(#51));
#162=EDGE_LOOP('',(#52));
#163=EDGE_LOOP('',(#53));
#164=EDGE_LOOP('',(#54));
#165=EDGE_LOOP('',(#55));
#166=EDGE_LOOP('',(#56));
#167=EDGE_LOOP('',(#57));
#168=EDGE_LOOP('',(#58));
#169=EDGE_LOOP('',(#59));
#170=EDGE_LOOP('',(#60));
#171=EDGE_LOOP('',(#61));
#172=EDGE_LOOP('',(#62));
#173=EDGE_LOOP('',(#63));
#174=EDGE_LOOP('',(#64));
#175=EDGE_LOOP('',(#65));
#176=EDGE_LOOP('',(#66));
#177=EDGE_LOOP('',(#67));
#178=EDGE_LOOP('',(#68));
#179=EDGE_LOOP('',(#69));
#180=EDGE_LOOP('',(#70));
#181=EDGE_LOOP('',(#71));
#182=EDGE_LOOP('',(#72));
#183=EDGE_LOOP('',(#73));
#184=EDGE_LOOP('',(#74));
#185=EDGE_LOOP('',(#75));
#186=EDGE_LOOP('',(#76));
#187=EDGE_LOOP('',(#77));
#188=EDGE_LOOP('',(#78));
#189=EDGE_LOOP('',(#79));
#190=EDGE_LOOP('',(#80));
#191=EDGE_LOOP('',(#81));
#192=EDGE_LOOP('',(#82));
#193=FACE_BOUND('',#149,.T.);
#194=FACE_BOUND('',#150,.T.);
#195=FACE_BOUND('',#151,.T.);
#196=FACE_BOUND('',#152,.T.);
#197=FACE_BOUND('',#153,.T.);
#198=FACE_BOUND('',#154,.T.);
#199=FACE_BOUND('',#155,.T.);
#200=FACE_BOUND('',#156,.T.);
#201=FACE_BOUND('',#157,.T.);
#202=FACE_BOUND('',#158,.T.);
#203=FACE_BOUND('',#159,.T.);
#204=FACE_BOUND('',#160,.T.);
#205=FACE_BOUND('',#161,.T.);
#206=FACE_BOUND('',#162,.T.);
#207=FACE_BOUND('',#163,.T.);
#208=FACE_BOUND('',#164,.T.);
#209=FACE_BOUND('',#165,.T.);
#210=FACE_BOUND('',#166,.T.);
#211=FACE_BOUND('',#167,.T.);
#212=FACE_BOUND('',#168,.T.);
#213=FACE_BOUND('',#169,.T.);
#214=FACE_BOUND('',#170,.T.);
#215=FACE_BOUND('',#171,.T.);
#216=FACE_BOUND('',#172,.T.);
#217=FACE_BOUND('',#173,.T.);
#218=FACE_BOUND('',#174,.T.);
#219=FACE_BOUND('',#175,.T.);
#220=FACE_BOUND('',#176,.T.);
#221=FACE_BOUND('',#177,.T.);
#222=FACE_BOUND('',#178,.T.);
#223=FACE_BOUND('',#179,.T.);
#224=FACE_BOUND('',#180,.T.);
#225=FACE_BOUND('',#181,.T.);
#226=FACE_BOUND('',#182,.T.);
#227=FACE_BOUND('',#183,.T.);
#228=FACE_BOUND('',#184,.T.);
#229=FACE_BOUND('',#185,.T.);
#230=FACE_BOUND('',#186,.T.);
#231=FACE_BOUND('',#187,.T.);
#232=FACE_BOUND('',#188,.T.);
#233=FACE_BOUND('',#189,.T.);
#234=FACE_BOUND('',#190,.T.);
#235=FACE_BOUND('',#191,.T.);
#236=FACE_BOUND('',#192,.T.);
#237=PLANE('',#423);
#238=PLANE('',#429);
#239=PLANE('',#432);
#240=STYLED_ITEM('',(#262),#396);
#241=STYLED_ITEM('',(#263),#397);
#242=STYLED_ITEM('',(#264),#398);
#243=STYLED_ITEM('',(#265),#399);
#244=STYLED_ITEM('',(#266),#400);
#245=STYLED_ITEM('',(#267),#401);
#246=STYLED_ITEM('',(#268),#402);
#247=STYLED_ITEM('',(#269),#403);
#248=STYLED_ITEM('',(#270),#404);
#249=STYLED_ITEM('',(#271),#405);
#250=STYLED_ITEM('',(#272),#406);
#251=STYLED_ITEM('',(#273),#407);
#252=STYLED_ITEM('',(#274),#408);
#253=STYLED_ITEM('',(#275),#409);
#254=STYLED_ITEM('',(#276),#410);
#255=STYLED_ITEM('',(#277),#411);
#256=STYLED_ITEM('',(#278),#412);
#257=STYLED_ITEM('',(#279),#413);
#258=STYLED_ITEM('',(#280),#414);
#259=STYLED_ITEM('',(#281),#415);
#260=STYLED_ITEM('',(#282),#416);
#261=STYLED_ITEM('',(#283),#417);
#262=PRESENTATION_STYLE_ASSIGNMENT((#284));
#263=PRESENTATION_STYLE_ASSIGNMENT((#285));
#264=PRESENTATION_STYLE_ASSIGNMENT((#286));
#265=PRESENTATION_STYLE_ASSIGNMENT((#287));
#266=PRESENTATION_STYLE_ASSIGNMENT((#288));
#267=PRESENTATION_STYLE_ASSIGNMENT((#289));
#268=PRESENTATION_STYLE_ASSIGNMENT((#290));
#269=PRESENTATION_STYLE_ASSIGNMENT((#291));
#270=PRESENTATION_STYLE_ASSIGNMENT((#292));
#271=PRESENTATION_STYLE_ASSIGNMENT((#293));
#272=PRESENTATION_STYLE_ASSIGNMENT((#294));
#273=PRESENTATION_STYLE_ASSIGNMENT((#295));
#274=PRESENTATION_STYLE_ASSIGNMENT((#296));
#275=PRESENTATION_STYLE_ASSIGNMENT((#297));
#276=PRESENTATION_STYLE_ASSIGNMENT((#298));
#277=PRESENTATION_STYLE_ASSIGNMENT((#299));
#278=PRESENTATION_STYLE_ASSIGNMENT((#300));
#279=PRESENTATION_STYLE_ASSIGNMENT((#301));
#280=PRESENTATION_STYLE_ASSIGNMENT((#302));
#281=PRESENTATION_STYLE_ASSIGNMENT((#303));
#282=PRESENTATION_STYLE_ASSIGNMENT((#304));
#283=PRESENTATION_STYLE_ASSIGNMENT((#305));
#284=SURFACE_STYLE_USAGE(.BOTH.,#306);
#285=SURFACE_STYLE_USAGE(.BOTH.,#307);
#286=SURFACE_STYLE_USAGE(.BOTH.,#308);
#287=SURFACE_STYLE_USAGE(.BOTH.,#309);
#288=SURFACE_STYLE_USAGE(.BOTH.,#310);
#289=SURFACE_STYLE_USAGE(.BOTH.,#311);
#290=SURFACE_STYLE_USAGE(.BOTH.,#312);
#291=SURFACE_STYLE_USAGE(.BOTH.,#313);
#292=SURFACE_STYLE_USAGE(.BOTH.,#314);
#293=SURFACE_STYLE_USAGE(.BOTH.,#315);
#294=SURFACE_STYLE_USAGE(.BOTH.,#316);
#295=SURFACE_STYLE_USAGE(.BOTH.,#317);
#296=SURFACE_STYLE_USAGE(.BOTH.,#318);
#297=SURFACE_STYLE_USAGE(.BOTH.,#319);
#298=SURFACE_STYLE_USAGE(.BOTH.,#320);
#299=SURFACE_STYLE_USAGE(.BOTH.,#321);
#300=SURFACE_STYLE_USAGE(.BOTH.,#322);
#301=SURFACE_STYLE_USAGE(.BOTH.,#323);
#302=SURFACE_STYLE_USAGE(.BOTH.,#324);
#303=SURFACE_STYLE_USAGE(.BOTH.,#325);
#304=SURFACE_STYLE_USAGE(.BOTH.,#326);
#305=SURFACE_STYLE_USAGE(.BOTH.,#327);
#306=SURFACE_SIDE_STYLE('',(#328));
#307=SURFACE_SIDE_STYLE('',(#329));
#308=SURFACE_SIDE_STYLE('',(#330));
#309=SURFACE_SIDE_STYLE('',(#331));
#310=SURFACE_SIDE_STYLE('',(#332));
#311=SURFACE_SIDE_STYLE('',(#333));
#312=SURFACE_SIDE_STYLE('',(#334));
#313=SURFACE_SIDE_STYLE('',(#335));
#314=SURFACE_SIDE_STYLE('',(#336));
#315=SURFACE_SIDE_STYLE('',(#337));
#316=SURFACE_SIDE_STYLE('',(#338));
#317=SURFACE_SIDE_STYLE('',(#339));
#318=SURFACE_SIDE_STYLE('',(#340));
#319=SURFACE_SIDE_STYLE('',(#341));
#320=SURFACE_SIDE_STYLE('',(#342));
#321=SURFACE_SIDE_STYLE('',(#343));
#322=SURFACE_SIDE_STYLE('',(#344));
#323=SURFACE_SIDE_STYLE('',(#345));
#324=SURFACE_SIDE_STYLE('',(#346));
#325=SURFACE_SIDE_STYLE('',(#347));
#326=SURFACE_SIDE_STYLE('',(#348));
#327=SURFACE_SIDE_STYLE('',(#349));
#328=SURFACE_STYLE_FILL_AREA(#350);
#329=SURFACE_STYLE_FILL_AREA(#351);
#330=SURFACE_STYLE_FILL_AREA(#352);
#331=SURFACE_STYLE_FILL_AREA(#353);
#332=SURFACE_STYLE_FILL_AREA(#354);
#333=SURFACE_STYLE_FILL_AREA(#355);
#334=SURFACE_STYLE_FILL_AREA(#356);
#335=SURFACE_STYLE_FILL_AREA(#357);
#336=SURFACE_STYLE_FILL_AREA(#358);
#337=SURFACE_STYLE_FILL_AREA(#359);
#338=SURFACE_STYLE_FILL_AREA(#360);
#339=SURFACE_STYLE_FILL_AREA(#361);
#340=SURFACE_STYLE_FILL_AREA(#362);
#341=SURFACE_STYLE_FILL_AREA(#363);
#342=SURFACE_STYLE_FILL_AREA(#364);
#343=SURFACE_STYLE_FILL_AREA(#365);
#344=SURFACE_STYLE_FILL_AREA(#366);
#345=SURFACE_STYLE_FILL_AREA(#367);
#346=SURFACE_STYLE_FILL_AREA(#368);
#347=SURFACE_STYLE_FILL_AREA(#369);
#348=SURFACE_STYLE_FILL_AREA(#370);
#349=SURFACE_STYLE_FILL_AREA(#371);
#350=FILL_AREA_STYLE('',(#372));
#351=FILL_AREA_STYLE('',(#373));
#352=FILL_AREA_STYLE('',(#374));
#353=FILL_AREA_STYLE('',(#375));
#354=FILL_AREA_STYLE('',(#376));
#355=FILL_AREA_STYLE('',(#377));
#356=FILL_AREA_STYLE('',(#378));
#357=FILL_AREA_STYLE('',(#379));
#358=FILL_AREA_STYLE('',(#380));
#359=FILL_AREA_STYLE('',(#381));
#360=FILL_AREA_STYLE('',(#382));
#361=FILL_AREA_STYLE('',(#383));
#362=FILL_AREA_STYLE('',(#384));
#363=FILL_AREA_STYLE('',(#385));
#364=FILL_AREA_STYLE('',(#386));
#365=FILL_AREA_STYLE('',(#387));
#366=FILL_AREA_STYLE('',(#388));
#367=FILL_AREA_STYLE('',(#389));
#368=FILL_AREA_STYLE('',(#390));
#369=FILL_AREA_STYLE('',(#391));
#370=FILL_AREA_STYLE('',(#392));
#371=FILL_AREA_STYLE('',(#393));
#372=FILL_AREA_STYLE_COLOUR('',#394);
#373=FILL_AREA_STYLE_COLOUR('',#394);
#374=FILL_AREA_STYLE_COLOUR('',#394);
#375=FILL_AREA_STYLE_COLOUR('',#394);
#376=FILL_AREA_STYLE_COLOUR('',#394);
#377=FILL_AREA_STYLE_COLOUR('',#394);
#378=FILL_AREA_STYLE_COLOUR('',#394);
#379=FILL_AREA_STYLE_COLOUR('',#394);
#380=FILL_AREA_STYLE_COLOUR('',#394);
#381=FILL_AREA_STYLE_COLOUR('',#394);
#382=FILL_AREA_STYLE_COLOUR('',#394);
#383=FILL_AREA_STYLE_COLOUR('',#394);
#384=FILL_AREA_STYLE_COLOUR('',#394);
#385=FILL_AREA_STYLE_COLOUR('',#395);
#386=FILL_AREA_STYLE_COLOUR('',#394);
#387=FILL_AREA_STYLE_COLOUR('',#394);
#388=FILL_AREA_STYLE_COLOUR('',#394);
#389=FILL_AREA_STYLE_COLOUR('',#394);
#390=FILL_AREA_STYLE_COLOUR('',#394);
#391=FILL_AREA_STYLE_COLOUR('',#394);
#392=FILL_AREA_STYLE_COLOUR('',#394);
#393=FILL_AREA_STYLE_COLOUR('',#394);
#394=COLOUR_RGB( ' ', 0.5, 0.5, 0.5 );
#395=COLOUR_RGB( ' ', 0.5, 0.5, 0.5 );
#396=ADVANCED_FACE('',(#193,#194),#237,.F.);
#397=ADVANCED_FACE('',(#195,#196),#33,.F.);
#398=ADVANCED_FACE('',(#197,#198),#238,.T.);
#399=ADVANCED_FACE('',(#199,#200),#239,.T.);
#400=ADVANCED_FACE('',(#201,#202),#27,.T.);
#401=ADVANCED_FACE('',(#203,#204),#20,.T.);
#402=ADVANCED_FACE('',(#205,#206),#28,.T.);
#403=ADVANCED_FACE('',(#207,#208),#34,.F.);
#404=ADVANCED_FACE('',(#209,#210),#21,.T.);
#405=ADVANCED_FACE('',(#211,#212),#29,.T.);
#406=ADVANCED_FACE('',(#213,#214),#35,.T.);
#407=ADVANCED_FACE('',(#215,#216),#30,.F.);
#408=ADVANCED_FACE('',(#217,#218),#22,.F.);
#409=ADVANCED_FACE('',(#219,#220),#23,.F.);
#410=ADVANCED_FACE('',(#221,#222),#36,.F.);
#411=ADVANCED_FACE('',(#223,#224),#24,.F.);
#412=ADVANCED_FACE('',(#225,#226),#31,.F.);
#413=ADVANCED_FACE('',(#227,#228),#25,.F.);
#414=ADVANCED_FACE('',(#229,#230),#32,.F.);
#415=ADVANCED_FACE('',(#231,#232),#37,.T.);
#416=ADVANCED_FACE('',(#233,#234),#38,.T.);
#417=ADVANCED_FACE('',(#235,#236),#26,.F.);
#418=CLOSED_SHELL('',(#396,#397,#398,#399,#400,#401,#402,#403,#404,#405,
#406,#407,#408,#409,#410,#411,#412,#413,#414,#415,#416,#417));
#419=MANIFOLD_SOLID_BREP('NOCUT',#418);
#420=SHAPE_DEFINITION_REPRESENTATION(#630,#421);
#421=SHAPE_REPRESENTATION('363200000',(#422),#625);
#422=AXIS2_PLACEMENT_3D('',#557,#467,#468);
#423=AXIS2_PLACEMENT_3D('',#558,#469,#470);
#424=AXIS2_PLACEMENT_3D('',#559,#471,#472);
#425=AXIS2_PLACEMENT_3D('',#561,#473,#474);
#426=AXIS2_PLACEMENT_3D('',#563,#475,#476);
#427=AXIS2_PLACEMENT_3D('',#564,#477,#478);
#428=AXIS2_PLACEMENT_3D('',#566,#479,#480);
#429=AXIS2_PLACEMENT_3D('',#568,#481,#482);
#430=AXIS2_PLACEMENT_3D('',#569,#483,#484);
#431=AXIS2_PLACEMENT_3D('',#571,#485,#486);
#432=AXIS2_PLACEMENT_3D('',#573,#487,#488);
#433=AXIS2_PLACEMENT_3D('',#574,#489,#490);
#434=AXIS2_PLACEMENT_3D('',#576,#491,#492);
#435=AXIS2_PLACEMENT_3D('',#578,#493,#494);
#436=AXIS2_PLACEMENT_3D('',#579,#495,#496);
#437=AXIS2_PLACEMENT_3D('',#581,#497,#498);
#438=AXIS2_PLACEMENT_3D('',#582,#499,#500);
#439=AXIS2_PLACEMENT_3D('',#584,#501,#502);
#440=AXIS2_PLACEMENT_3D('',#585,#503,#504);
#441=AXIS2_PLACEMENT_3D('',#587,#505,#506);
#442=AXIS2_PLACEMENT_3D('',#588,#507,#508);
#443=AXIS2_PLACEMENT_3D('',#590,#509,#510);
#444=AXIS2_PLACEMENT_3D('',#591,#511,#512);
#445=AXIS2_PLACEMENT_3D('',#593,#513,#514);
#446=AXIS2_PLACEMENT_3D('',#594,#515,#516);
#447=AXIS2_PLACEMENT_3D('',#596,#517,#518);
#448=AXIS2_PLACEMENT_3D('',#598,#519,#520);
#449=AXIS2_PLACEMENT_3D('',#599,#521,#522);
#450=AXIS2_PLACEMENT_3D('',#601,#523,#524);
#451=AXIS2_PLACEMENT_3D('',#602,#525,#526);
#452=AXIS2_PLACEMENT_3D('',#604,#527,#528);
#453=AXIS2_PLACEMENT_3D('',#606,#529,#530);
#454=AXIS2_PLACEMENT_3D('',#607,#531,#532);
#455=AXIS2_PLACEMENT_3D('',#608,#533,#534);
#456=AXIS2_PLACEMENT_3D('',#610,#535,#536);
#457=AXIS2_PLACEMENT_3D('',#611,#537,#538);
#458=AXIS2_PLACEMENT_3D('',#613,#539,#540);
#459=AXIS2_PLACEMENT_3D('',#614,#541,#542);
#460=AXIS2_PLACEMENT_3D('',#616,#543,#544);
#461=AXIS2_PLACEMENT_3D('',#617,#545,#546);
#462=AXIS2_PLACEMENT_3D('',#618,#547,#548);
#463=AXIS2_PLACEMENT_3D('',#620,#549,#550);
#464=AXIS2_PLACEMENT_3D('',#621,#551,#552);
#465=AXIS2_PLACEMENT_3D('',#622,#553,#554);
#466=AXIS2_PLACEMENT_3D('',#623,#555,#556);
#467=DIRECTION('',(0.,0.,1.));
#468=DIRECTION('',(1.,0.,0.));
#469=DIRECTION('',(0.,0.,-1.));
#470=DIRECTION('',(-1.,0.,0.));
#471=DIRECTION('',(0.,0.,1.));
#472=DIRECTION('',(1.,0.,0.));
#473=DIRECTION('',(0.,0.,-1.));
#474=DIRECTION('',(0.,-1.,0.));
#475=DIRECTION('',(0.,0.,1.));
#476=DIRECTION('',(1.,0.,0.));
#477=DIRECTION('',(0.,0.,1.));
#478=DIRECTION('',(1.,0.,0.));
#479=DIRECTION('',(0.,0.,-1.));
#480=DIRECTION('',(-1.,0.,0.));
#481=DIRECTION('',(0.,0.,-1.));
#482=DIRECTION('',(-1.,0.,0.));
#483=DIRECTION('',(0.,0.,1.));
#484=DIRECTION('',(1.,0.,0.));
#485=DIRECTION('',(0.,0.,-1.));
#486=DIRECTION('',(-1.,0.,0.));
#487=DIRECTION('',(0.,0.,1.));
#488=DIRECTION('',(1.,0.,0.));
#489=DIRECTION('',(0.,0.,-1.));
#490=DIRECTION('',(-1.,0.,0.));
#491=DIRECTION('',(0.,0.,1.));
#492=DIRECTION('',(1.,0.,0.));
#493=DIRECTION('',(0.,0.,-1.));
#494=DIRECTION('',(-1.,0.,0.));
#495=DIRECTION('',(0.,0.,1.));
#496=DIRECTION('',(1.,0.,0.));
#497=DIRECTION('',(0.,0.,1.));
#498=DIRECTION('',(1.,0.,0.));
#499=DIRECTION('',(0.,0.,1.));
#500=DIRECTION('',(1.,0.,0.));
#501=DIRECTION('',(0.,0.,1.));
#502=DIRECTION('',(1.,0.,0.));
#503=DIRECTION('',(0.,0.,1.));
#504=DIRECTION('',(1.,0.,0.));
#505=DIRECTION('',(0.,0.,1.));
#506=DIRECTION('',(1.,0.,0.));
#507=DIRECTION('',(0.,0.,1.));
#508=DIRECTION('',(1.,0.,0.));
#509=DIRECTION('',(0.,0.,1.));
#510=DIRECTION('',(1.,0.,0.));
#511=DIRECTION('',(0.,0.,-1.));
#512=DIRECTION('',(-1.,0.,0.));
#513=DIRECTION('',(0.,0.,1.));
#514=DIRECTION('',(1.,0.,0.));
#515=DIRECTION('',(0.,0.,-1.));
#516=DIRECTION('',(-1.,0.,0.));
#517=DIRECTION('',(0.,0.,-1.));
#518=DIRECTION('',(-1.,0.,0.));
#519=DIRECTION('',(0.,0.,1.));
#520=DIRECTION('',(1.,0.,0.));
#521=DIRECTION('',(0.,0.,1.));
#522=DIRECTION('',(1.,0.,0.));
#523=DIRECTION('',(0.,0.,1.));
#524=DIRECTION('',(1.,0.,0.));
#525=DIRECTION('',(0.,0.,1.));
#526=DIRECTION('',(1.,0.,0.));
#527=DIRECTION('',(0.,0.,1.));
#528=DIRECTION('',(1.,0.,0.));
#529=DIRECTION('',(0.,0.,1.));
#530=DIRECTION('',(1.,0.,0.));
#531=DIRECTION('',(0.,0.,1.));
#532=DIRECTION('',(1.,0.,0.));
#533=DIRECTION('',(0.,0.,-1.));
#534=DIRECTION('',(-1.,0.,0.));
#535=DIRECTION('',(0.,0.,1.));
#536=DIRECTION('',(1.,0.,0.));
#537=DIRECTION('',(0.,0.,1.));
#538=DIRECTION('',(1.,0.,0.));
#539=DIRECTION('',(0.,0.,1.));
#540=DIRECTION('',(1.,0.,0.));
#541=DIRECTION('',(0.,0.,1.));
#542=DIRECTION('',(1.,0.,0.));
#543=DIRECTION('',(0.,0.,-1.));
#544=DIRECTION('',(-1.,0.,0.));
#545=DIRECTION('',(0.,0.,1.));
#546=DIRECTION('',(1.,0.,0.));
#547=DIRECTION('',(0.,0.,1.));
#548=DIRECTION('',(1.,0.,0.));
#549=DIRECTION('',(0.,0.,1.));
#550=DIRECTION('',(1.,0.,0.));
#551=DIRECTION('',(0.,0.,-1.));
#552=DIRECTION('',(-1.,0.,0.));
#553=DIRECTION('',(0.,0.,-1.));
#554=DIRECTION('',(-1.,0.,0.));
#555=DIRECTION('',(0.,0.,1.));
#556=DIRECTION('',(1.,0.,0.));
#557=CARTESIAN_POINT('',(0.,0.,0.));
#558=CARTESIAN_POINT('',(19.75,0.,7.95));
#559=CARTESIAN_POINT('',(0.,0.,7.95));
#560=CARTESIAN_POINT('',(19.75,0.,7.95));
#561=CARTESIAN_POINT('',(3.67381906146713E-15,0.,7.95));
#562=CARTESIAN_POINT('',(3.67381906146713E-15,-16.603024758084,7.95));
#563=CARTESIAN_POINT('',(0.,0.,6.29999999999999));
#564=CARTESIAN_POINT('',(0.,0.,6.19999999999999));
#565=CARTESIAN_POINT('',(16.7332050807569,0.,6.19999999999999));
#566=CARTESIAN_POINT('',(0.,0.,6.49531735763063));
#567=CARTESIAN_POINT('',(-16.603024758084,0.,6.49531735763063));
#568=CARTESIAN_POINT('',(22.5173938424846,0.,-4.33680868994202E-16));
#569=CARTESIAN_POINT('',(0.,0.,0.));
#570=CARTESIAN_POINT('',(13.5,0.,0.));
#571=CARTESIAN_POINT('',(0.,0.,-4.33680868994202E-16));
#572=CARTESIAN_POINT('',(-22.2287187078898,0.,-4.33680868994202E-16));
#573=CARTESIAN_POINT('',(0.,0.,31.8));
#574=CARTESIAN_POINT('',(0.,0.,31.8));
#575=CARTESIAN_POINT('',(-22.0364835192866,0.,31.8));
#576=CARTESIAN_POINT('',(0.,0.,31.8));
#577=CARTESIAN_POINT('',(25.,0.,31.8));
#578=CARTESIAN_POINT('',(0.,0.,31.8));
#579=CARTESIAN_POINT('',(0.,0.,31.6));
#580=CARTESIAN_POINT('',(25.2,0.,31.6));
#581=CARTESIAN_POINT('',(0.,0.,31.8));
#582=CARTESIAN_POINT('',(0.,0.,30.1656854249492));
#583=CARTESIAN_POINT('',(25.2,0.,30.1656854249492));
#584=CARTESIAN_POINT('',(0.,0.,30.1656854249492));
#585=CARTESIAN_POINT('',(0.,0.,30.0828427124746));
#586=CARTESIAN_POINT('',(25.1171572875254,0.,30.0828427124746));
#587=CARTESIAN_POINT('',(0.,0.,29.8));
#588=CARTESIAN_POINT('',(0.,0.,29.8));
#589=CARTESIAN_POINT('',(25.,0.,29.8));
#590=CARTESIAN_POINT('',(0.,0.,31.8));
#591=CARTESIAN_POINT('',(0.,0.,4.83589838486224));
#592=CARTESIAN_POINT('',(-25.,0.,4.83589838486224));
#593=CARTESIAN_POINT('',(0.,0.,4.29999999999999));
#594=CARTESIAN_POINT('',(0.,0.,0.25));
#595=CARTESIAN_POINT('',(-22.661731409782,0.,0.25));
#596=CARTESIAN_POINT('',(0.,0.,3.83589838486224));
#597=CARTESIAN_POINT('',(-24.7320508075689,0.,3.83589838486224));
#598=CARTESIAN_POINT('',(0.,0.,30.4));
#599=CARTESIAN_POINT('',(0.,0.,30.4));
#600=CARTESIAN_POINT('',(21.075,0.,30.4));
#601=CARTESIAN_POINT('',(0.,0.,28.3));
#602=CARTESIAN_POINT('',(0.,0.,27.7878903112288));
#603=CARTESIAN_POINT('',(20.188,0.,27.7878903112288));
#604=CARTESIAN_POINT('',(0.,0.,28.3));
#605=CARTESIAN_POINT('',(21.075,0.,28.3));
#606=CARTESIAN_POINT('',(0.,0.,60.));
#607=CARTESIAN_POINT('',(4.33680868994202E-16,0.,-46.2484464931878));
#608=CARTESIAN_POINT('',(0.,0.,14.7255071483928));
#609=CARTESIAN_POINT('',(-20.188,0.,14.7255071483928));
#610=CARTESIAN_POINT('',(0.,0.,9.45));
#611=CARTESIAN_POINT('',(0.,0.,9.45));
#612=CARTESIAN_POINT('',(21.25,0.,9.45));
#613=CARTESIAN_POINT('',(0.,0.,60.));
#614=CARTESIAN_POINT('',(0.,0.,14.1123611625134));
#615=CARTESIAN_POINT('',(21.25,0.,14.1123611625134));
#616=CARTESIAN_POINT('',(0.,0.,14.8340489990004));
#617=CARTESIAN_POINT('',(0.,0.,6.49999999999999));
#618=CARTESIAN_POINT('',(0.,0.,0.599924528839213));
#619=CARTESIAN_POINT('',(13.5,0.,0.599924528839213));
#620=CARTESIAN_POINT('',(0.,0.,0.599924528839213));
#621=CARTESIAN_POINT('',(0.,0.,4.83589838486224));
#622=CARTESIAN_POINT('',(0.,0.,0.5));
#623=CARTESIAN_POINT('',(3.67381906146713E-15,0.,-70.0984464931878));
#624=MECHANICAL_DESIGN_GEOMETRIC_PRESENTATION_REPRESENTATION('',(#240,#241,
#242,#243,#244,#245,#246,#247,#248,#249,#250,#251,#252,#253,#254,#255,#256,
#257,#258,#259,#260,#261),#625);
#625=(
GEOMETRIC_REPRESENTATION_CONTEXT(3)
GLOBAL_UNCERTAINTY_ASSIGNED_CONTEXT((#626))
GLOBAL_UNIT_ASSIGNED_CONTEXT((#629,#628,#627))
REPRESENTATION_CONTEXT('363200000','TOP_LEVEL_ASSEMBLY_PART')
);
#626=UNCERTAINTY_MEASURE_WITH_UNIT(LENGTH_MEASURE(0.005),#629,
'DISTANCE_ACCURACY_VALUE','Maximum Tolerance applied to model');
#627=(
NAMED_UNIT(*)
SI_UNIT($,.STERADIAN.)
SOLID_ANGLE_UNIT()
);
#628=(
NAMED_UNIT(*)
PLANE_ANGLE_UNIT()
SI_UNIT($,.RADIAN.)
);
#629=(
LENGTH_UNIT()
NAMED_UNIT(*)
SI_UNIT(.MILLI.,.METRE.)
);
#630=PRODUCT_DEFINITION_SHAPE('','',#631);
#631=PRODUCT_DEFINITION('','',#633,#632);
#632=PRODUCT_DEFINITION_CONTEXT('',#639,'design');
#633=PRODUCT_DEFINITION_FORMATION_WITH_SPECIFIED_SOURCE('','',#635,
 .NOT_KNOWN.);
#634=PRODUCT_RELATED_PRODUCT_CATEGORY('','',(#635));
#635=PRODUCT('NOCUT','NOCUT','NOCUT',(#637));
#636=PRODUCT_CATEGORY('','');
#637=PRODUCT_CONTEXT('',#639,'mechanical');
#638=APPLICATION_PROTOCOL_DEFINITION('international standard',
'automotive_design',2010,#639);
#639=APPLICATION_CONTEXT(
'core data for automotive mechanical design processes');
#640=AXIS2_PLACEMENT_3D('PCS',#641,#642,#643);
#641=CARTESIAN_POINT('',(0.,0.,31.8));
#642=DIRECTION('',(0.,0.,1.));
#643=DIRECTION('',(1.,0.,0.));
#644=AXIS2_PLACEMENT_3D('MCS',#645,#646,#647);
#645=CARTESIAN_POINT('',(0.,0.,31.8));
#646=DIRECTION('',(0.,0.,1.));
#647=DIRECTION('',(1.,0.,0.));
#648=AXIS2_PLACEMENT_3D('CSW',#649,#650,#651);
#649=CARTESIAN_POINT('',(0.,0.,0.));
#650=DIRECTION('',(0.,0.,1.));
#651=DIRECTION('',(1.,0.,0.));
#652=CONSTRUCTIVE_GEOMETRY_REPRESENTATION_RELATIONSHIP('coordinate systems',$,#19,#653);
#653=CONSTRUCTIVE_GEOMETRY_REPRESENTATION('coordinate systems',(#640, #644, #648),#625);
ENDSEC;
END-ISO-10303-21;

