ISO-10303-21;
HEADER;
FILE_DESCRIPTION(
/* description */ (''),
/* implementation_level */ '2;1');
FILE_NAME(
/* name */ '363220000.stp',
/* time_stamp */ '2021-09-24T14:17:43',
/* author */ ('LRA'),
/* organization */ ('REGO-FIX'),
/* preprocessor_version */ ' Unknown',
/* originating_system */ 'SIEMENS PLM Software Solid Edge ST10',
/* authorization */ 'Unknown');
FILE_SCHEMA (('AUTOMOTIVE_DESIGN { 1 0 10303 214 2 1 1}'));
ENDSEC;
DATA;
#10=PROPERTY_DEFINITION_REPRESENTATION(#14,#12);
#11=PROPERTY_DEFINITION_REPRESENTATION(#15,#13);
#12=REPRESENTATION('',(#16),#696);
#13=REPRESENTATION('',(#17),#696);
#14=PROPERTY_DEFINITION('pmi validation property','',#701);
#15=PROPERTY_DEFINITION('pmi validation property','',#701);
#16=VALUE_REPRESENTATION_ITEM('number of annotations',COUNT_MEASURE(0.));
#17=VALUE_REPRESENTATION_ITEM('number of views',COUNT_MEASURE(0.));
#18=SHAPE_REPRESENTATION_RELATIONSHIP('','',#438,#19);
#19=ADVANCED_BREP_SHAPE_REPRESENTATION('',(#436),#696);
#20=TOROIDAL_SURFACE('',#449,13.1,0.4);
#21=TOROIDAL_SURFACE('',#477,25.4,0.400000000000001);
#22=TOROIDAL_SURFACE('',#478,22.575,1.5);
#23=TOROIDAL_SURFACE('',#481,19.75,1.5);
#24=TOROIDAL_SURFACE('',#487,16.56,0.2);
#25=TOROIDAL_SURFACE('',#492,23.,2.);
#26=TOROIDAL_SURFACE('',#493,22.2288248654052,0.5);
#27=CYLINDRICAL_SURFACE('',#446,13.5);
#28=CYLINDRICAL_SURFACE('',#453,12.);
#29=CYLINDRICAL_SURFACE('',#462,25.);
#30=CYLINDRICAL_SURFACE('',#473,25.2);
#31=CYLINDRICAL_SURFACE('',#480,21.075);
#32=CYLINDRICAL_SURFACE('',#483,21.25);
#33=CYLINDRICAL_SURFACE('',#494,16.603024758084);
#34=CYLINDRICAL_SURFACE('',#495,20.188);
#35=PLANE('',#443);
#36=PLANE('',#451);
#37=PLANE('',#456);
#38=PLANE('',#468);
#39=ORIENTED_EDGE('',*,*,#95,.T.);
#40=ORIENTED_EDGE('',*,*,#96,.F.);
#41=ORIENTED_EDGE('',*,*,#97,.T.);
#42=ORIENTED_EDGE('',*,*,#98,.F.);
#43=ORIENTED_EDGE('',*,*,#99,.T.);
#44=ORIENTED_EDGE('',*,*,#100,.F.);
#45=ORIENTED_EDGE('',*,*,#101,.F.);
#46=ORIENTED_EDGE('',*,*,#100,.T.);
#47=ORIENTED_EDGE('',*,*,#102,.T.);
#48=ORIENTED_EDGE('',*,*,#101,.T.);
#49=ORIENTED_EDGE('',*,*,#103,.T.);
#50=ORIENTED_EDGE('',*,*,#104,.T.);
#51=ORIENTED_EDGE('',*,*,#105,.T.);
#52=ORIENTED_EDGE('',*,*,#106,.T.);
#53=ORIENTED_EDGE('',*,*,#107,.T.);
#54=ORIENTED_EDGE('',*,*,#108,.T.);
#55=ORIENTED_EDGE('',*,*,#109,.T.);
#56=ORIENTED_EDGE('',*,*,#110,.F.);
#57=ORIENTED_EDGE('',*,*,#111,.T.);
#58=ORIENTED_EDGE('',*,*,#112,.T.);
#59=ORIENTED_EDGE('',*,*,#113,.F.);
#60=ORIENTED_EDGE('',*,*,#114,.T.);
#61=ORIENTED_EDGE('',*,*,#115,.T.);
#62=ORIENTED_EDGE('',*,*,#114,.F.);
#63=ORIENTED_EDGE('',*,*,#116,.T.);
#64=ORIENTED_EDGE('',*,*,#115,.F.);
#65=ORIENTED_EDGE('',*,*,#117,.T.);
#66=ORIENTED_EDGE('',*,*,#116,.F.);
#67=ORIENTED_EDGE('',*,*,#110,.T.);
#68=ORIENTED_EDGE('',*,*,#117,.F.);
#69=ORIENTED_EDGE('',*,*,#118,.F.);
#70=ORIENTED_EDGE('',*,*,#113,.T.);
#71=ORIENTED_EDGE('',*,*,#112,.F.);
#72=ORIENTED_EDGE('',*,*,#118,.T.);
#73=ORIENTED_EDGE('',*,*,#119,.T.);
#74=ORIENTED_EDGE('',*,*,#97,.F.);
#75=ORIENTED_EDGE('',*,*,#119,.F.);
#76=ORIENTED_EDGE('',*,*,#96,.T.);
#77=ORIENTED_EDGE('',*,*,#120,.T.);
#78=ORIENTED_EDGE('',*,*,#121,.T.);
#79=ORIENTED_EDGE('',*,*,#122,.F.);
#80=ORIENTED_EDGE('',*,*,#120,.F.);
#81=ORIENTED_EDGE('',*,*,#121,.F.);
#82=ORIENTED_EDGE('',*,*,#99,.F.);
#83=ORIENTED_EDGE('',*,*,#102,.F.);
#84=ORIENTED_EDGE('',*,*,#103,.F.);
#85=ORIENTED_EDGE('',*,*,#104,.F.);
#86=ORIENTED_EDGE('',*,*,#106,.F.);
#87=ORIENTED_EDGE('',*,*,#108,.F.);
#88=ORIENTED_EDGE('',*,*,#109,.F.);
#89=ORIENTED_EDGE('',*,*,#105,.F.);
#90=ORIENTED_EDGE('',*,*,#107,.F.);
#91=ORIENTED_EDGE('',*,*,#122,.T.);
#92=ORIENTED_EDGE('',*,*,#98,.T.);
#93=ORIENTED_EDGE('',*,*,#95,.F.);
#94=ORIENTED_EDGE('',*,*,#111,.F.);
#95=EDGE_CURVE('',#123,#123,#151,.F.);
#96=EDGE_CURVE('',#124,#124,#152,.T.);
#97=EDGE_CURVE('',#125,#125,#153,.T.);
#98=EDGE_CURVE('',#126,#126,#154,.F.);
#99=EDGE_CURVE('',#127,#127,#155,.T.);
#100=EDGE_CURVE('',#128,#128,#156,.T.);
#101=EDGE_CURVE('',#129,#129,#157,.T.);
#102=EDGE_CURVE('',#130,#130,#158,.T.);
#103=EDGE_CURVE('',#131,#131,#159,.F.);
#104=EDGE_CURVE('',#132,#132,#160,.F.);
#105=EDGE_CURVE('',#133,#133,#161,.F.);
#106=EDGE_CURVE('',#134,#134,#162,.T.);
#107=EDGE_CURVE('',#135,#135,#163,.F.);
#108=EDGE_CURVE('',#136,#136,#164,.T.);
#109=EDGE_CURVE('',#137,#137,#165,.F.);
#110=EDGE_CURVE('',#138,#138,#166,.T.);
#111=EDGE_CURVE('',#139,#139,#167,.F.);
#112=EDGE_CURVE('',#140,#140,#168,.T.);
#113=EDGE_CURVE('',#141,#141,#169,.F.);
#114=EDGE_CURVE('',#142,#142,#170,.T.);
#115=EDGE_CURVE('',#143,#143,#171,.T.);
#116=EDGE_CURVE('',#144,#144,#172,.T.);
#117=EDGE_CURVE('',#145,#145,#173,.T.);
#118=EDGE_CURVE('',#146,#146,#174,.T.);
#119=EDGE_CURVE('',#147,#147,#175,.T.);
#120=EDGE_CURVE('',#148,#148,#176,.T.);
#121=EDGE_CURVE('',#149,#149,#177,.F.);
#122=EDGE_CURVE('',#150,#150,#178,.T.);
#123=VERTEX_POINT('',#613);
#124=VERTEX_POINT('',#615);
#125=VERTEX_POINT('',#618);
#126=VERTEX_POINT('',#620);
#127=VERTEX_POINT('',#623);
#128=VERTEX_POINT('',#625);
#129=VERTEX_POINT('',#628);
#130=VERTEX_POINT('',#631);
#131=VERTEX_POINT('',#634);
#132=VERTEX_POINT('',#636);
#133=VERTEX_POINT('',#639);
#134=VERTEX_POINT('',#641);
#135=VERTEX_POINT('',#644);
#136=VERTEX_POINT('',#646);
#137=VERTEX_POINT('',#649);
#138=VERTEX_POINT('',#651);
#139=VERTEX_POINT('',#654);
#140=VERTEX_POINT('',#656);
#141=VERTEX_POINT('',#659);
#142=VERTEX_POINT('',#661);
#143=VERTEX_POINT('',#664);
#144=VERTEX_POINT('',#667);
#145=VERTEX_POINT('',#670);
#146=VERTEX_POINT('',#674);
#147=VERTEX_POINT('',#678);
#148=VERTEX_POINT('',#682);
#149=VERTEX_POINT('',#684);
#150=VERTEX_POINT('',#687);
#151=CIRCLE('',#441,20.188);
#152=CIRCLE('',#442,21.25);
#153=CIRCLE('',#444,19.75);
#154=CIRCLE('',#445,16.603024758084);
#155=CIRCLE('',#447,13.5);
#156=CIRCLE('',#448,13.5);
#157=CIRCLE('',#450,13.1);
#158=CIRCLE('',#452,12.15);
#159=CIRCLE('',#454,12.);
#160=CIRCLE('',#455,12.);
#161=CIRCLE('',#457,22.2288248654052);
#162=CIRCLE('',#458,12.15);
#163=CIRCLE('',#460,22.6618375672974);
#164=CIRCLE('',#461,24.7320508075689);
#165=CIRCLE('',#463,25.);
#166=CIRCLE('',#464,25.);
#167=CIRCLE('',#466,20.188);
#168=CIRCLE('',#467,21.075);
#169=CIRCLE('',#469,22.0364835192866);
#170=CIRCLE('',#470,25.);
#171=CIRCLE('',#472,25.2);
#172=CIRCLE('',#474,25.2);
#173=CIRCLE('',#476,25.1171572875254);
#174=CIRCLE('',#479,21.075);
#175=CIRCLE('',#482,21.25);
#176=CIRCLE('',#485,16.7332050807569);
#177=CIRCLE('',#486,13.575);
#178=CIRCLE('',#488,16.603024758084);
#179=EDGE_LOOP('',(#39));
#180=EDGE_LOOP('',(#40));
#181=EDGE_LOOP('',(#41));
#182=EDGE_LOOP('',(#42));
#183=EDGE_LOOP('',(#43));
#184=EDGE_LOOP('',(#44));
#185=EDGE_LOOP('',(#45));
#186=EDGE_LOOP('',(#46));
#187=EDGE_LOOP('',(#47));
#188=EDGE_LOOP('',(#48));
#189=EDGE_LOOP('',(#49));
#190=EDGE_LOOP('',(#50));
#191=EDGE_LOOP('',(#51));
#192=EDGE_LOOP('',(#52));
#193=EDGE_LOOP('',(#53));
#194=EDGE_LOOP('',(#54));
#195=EDGE_LOOP('',(#55));
#196=EDGE_LOOP('',(#56));
#197=EDGE_LOOP('',(#57));
#198=EDGE_LOOP('',(#58));
#199=EDGE_LOOP('',(#59));
#200=EDGE_LOOP('',(#60));
#201=EDGE_LOOP('',(#61));
#202=EDGE_LOOP('',(#62));
#203=EDGE_LOOP('',(#63));
#204=EDGE_LOOP('',(#64));
#205=EDGE_LOOP('',(#65));
#206=EDGE_LOOP('',(#66));
#207=EDGE_LOOP('',(#67));
#208=EDGE_LOOP('',(#68));
#209=EDGE_LOOP('',(#69));
#210=EDGE_LOOP('',(#70));
#211=EDGE_LOOP('',(#71));
#212=EDGE_LOOP('',(#72));
#213=EDGE_LOOP('',(#73));
#214=EDGE_LOOP('',(#74));
#215=EDGE_LOOP('',(#75));
#216=EDGE_LOOP('',(#76));
#217=EDGE_LOOP('',(#77));
#218=EDGE_LOOP('',(#78));
#219=EDGE_LOOP('',(#79));
#220=EDGE_LOOP('',(#80));
#221=EDGE_LOOP('',(#81));
#222=EDGE_LOOP('',(#82));
#223=EDGE_LOOP('',(#83));
#224=EDGE_LOOP('',(#84));
#225=EDGE_LOOP('',(#85));
#226=EDGE_LOOP('',(#86));
#227=EDGE_LOOP('',(#87));
#228=EDGE_LOOP('',(#88));
#229=EDGE_LOOP('',(#89));
#230=EDGE_LOOP('',(#90));
#231=EDGE_LOOP('',(#91));
#232=EDGE_LOOP('',(#92));
#233=EDGE_LOOP('',(#93));
#234=EDGE_LOOP('',(#94));
#235=FACE_BOUND('',#179,.T.);
#236=FACE_BOUND('',#180,.T.);
#237=FACE_BOUND('',#181,.T.);
#238=FACE_BOUND('',#182,.T.);
#239=FACE_BOUND('',#183,.T.);
#240=FACE_BOUND('',#184,.T.);
#241=FACE_BOUND('',#185,.T.);
#242=FACE_BOUND('',#186,.T.);
#243=FACE_BOUND('',#187,.T.);
#244=FACE_BOUND('',#188,.T.);
#245=FACE_BOUND('',#189,.T.);
#246=FACE_BOUND('',#190,.T.);
#247=FACE_BOUND('',#191,.T.);
#248=FACE_BOUND('',#192,.T.);
#249=FACE_BOUND('',#193,.T.);
#250=FACE_BOUND('',#194,.T.);
#251=FACE_BOUND('',#195,.T.);
#252=FACE_BOUND('',#196,.T.);
#253=FACE_BOUND('',#197,.T.);
#254=FACE_BOUND('',#198,.T.);
#255=FACE_BOUND('',#199,.T.);
#256=FACE_BOUND('',#200,.T.);
#257=FACE_BOUND('',#201,.T.);
#258=FACE_BOUND('',#202,.T.);
#259=FACE_BOUND('',#203,.T.);
#260=FACE_BOUND('',#204,.T.);
#261=FACE_BOUND('',#205,.T.);
#262=FACE_BOUND('',#206,.T.);
#263=FACE_BOUND('',#207,.T.);
#264=FACE_BOUND('',#208,.T.);
#265=FACE_BOUND('',#209,.T.);
#266=FACE_BOUND('',#210,.T.);
#267=FACE_BOUND('',#211,.T.);
#268=FACE_BOUND('',#212,.T.);
#269=FACE_BOUND('',#213,.T.);
#270=FACE_BOUND('',#214,.T.);
#271=FACE_BOUND('',#215,.T.);
#272=FACE_BOUND('',#216,.T.);
#273=FACE_BOUND('',#217,.T.);
#274=FACE_BOUND('',#218,.T.);
#275=FACE_BOUND('',#219,.T.);
#276=FACE_BOUND('',#220,.T.);
#277=FACE_BOUND('',#221,.T.);
#278=FACE_BOUND('',#222,.T.);
#279=FACE_BOUND('',#223,.T.);
#280=FACE_BOUND('',#224,.T.);
#281=FACE_BOUND('',#225,.T.);
#282=FACE_BOUND('',#226,.T.);
#283=FACE_BOUND('',#227,.T.);
#284=FACE_BOUND('',#228,.T.);
#285=FACE_BOUND('',#229,.T.);
#286=FACE_BOUND('',#230,.T.);
#287=FACE_BOUND('',#231,.T.);
#288=FACE_BOUND('',#232,.T.);
#289=FACE_BOUND('',#233,.T.);
#290=FACE_BOUND('',#234,.T.);
#291=CONICAL_SURFACE('',#440,20.,1.0471975511966);
#292=CONICAL_SURFACE('',#459,22.5175,0.523598775598298);
#293=CONICAL_SURFACE('',#465,21.075,1.04719755119659);
#294=CONICAL_SURFACE('',#471,25.,0.785398163397414);
#295=CONICAL_SURFACE('',#475,25.2,0.785398163397448);
#296=CONICAL_SURFACE('',#484,13.5,0.523598775598298);
#297=CONICAL_SURFACE('',#489,13.5,0.26179938779915);
#298=CONICAL_SURFACE('',#490,12.,0.78539816339746);
#299=CONICAL_SURFACE('',#491,12.15,0.78539816339746);
#300=STYLED_ITEM('',(#315),#407);
#301=STYLED_ITEM('',(#316),#408);
#302=STYLED_ITEM('',(#317),#416);
#303=STYLED_ITEM('',(#318),#417);
#304=STYLED_ITEM('',(#319),#418);
#305=STYLED_ITEM('',(#320),#419);
#306=STYLED_ITEM('',(#321),#420);
#307=STYLED_ITEM('',(#322),#421);
#308=STYLED_ITEM('',(#323),#422);
#309=STYLED_ITEM('',(#324),#423);
#310=STYLED_ITEM('',(#325),#424);
#311=STYLED_ITEM('',(#326),#425);
#312=STYLED_ITEM('',(#327),#426);
#313=STYLED_ITEM('',(#328),#427);
#314=STYLED_ITEM('',(#329),#434);
#315=PRESENTATION_STYLE_ASSIGNMENT((#330));
#316=PRESENTATION_STYLE_ASSIGNMENT((#331));
#317=PRESENTATION_STYLE_ASSIGNMENT((#332));
#318=PRESENTATION_STYLE_ASSIGNMENT((#333));
#319=PRESENTATION_STYLE_ASSIGNMENT((#334));
#320=PRESENTATION_STYLE_ASSIGNMENT((#335));
#321=PRESENTATION_STYLE_ASSIGNMENT((#336));
#322=PRESENTATION_STYLE_ASSIGNMENT((#337));
#323=PRESENTATION_STYLE_ASSIGNMENT((#338));
#324=PRESENTATION_STYLE_ASSIGNMENT((#339));
#325=PRESENTATION_STYLE_ASSIGNMENT((#340));
#326=PRESENTATION_STYLE_ASSIGNMENT((#341));
#327=PRESENTATION_STYLE_ASSIGNMENT((#342));
#328=PRESENTATION_STYLE_ASSIGNMENT((#343));
#329=PRESENTATION_STYLE_ASSIGNMENT((#344));
#330=SURFACE_STYLE_USAGE(.BOTH.,#345);
#331=SURFACE_STYLE_USAGE(.BOTH.,#346);
#332=SURFACE_STYLE_USAGE(.BOTH.,#347);
#333=SURFACE_STYLE_USAGE(.BOTH.,#348);
#334=SURFACE_STYLE_USAGE(.BOTH.,#349);
#335=SURFACE_STYLE_USAGE(.BOTH.,#350);
#336=SURFACE_STYLE_USAGE(.BOTH.,#351);
#337=SURFACE_STYLE_USAGE(.BOTH.,#352);
#338=SURFACE_STYLE_USAGE(.BOTH.,#353);
#339=SURFACE_STYLE_USAGE(.BOTH.,#354);
#340=SURFACE_STYLE_USAGE(.BOTH.,#355);
#341=SURFACE_STYLE_USAGE(.BOTH.,#356);
#342=SURFACE_STYLE_USAGE(.BOTH.,#357);
#343=SURFACE_STYLE_USAGE(.BOTH.,#358);
#344=SURFACE_STYLE_USAGE(.BOTH.,#359);
#345=SURFACE_SIDE_STYLE('',(#360));
#346=SURFACE_SIDE_STYLE('',(#361));
#347=SURFACE_SIDE_STYLE('',(#362));
#348=SURFACE_SIDE_STYLE('',(#363));
#349=SURFACE_SIDE_STYLE('',(#364));
#350=SURFACE_SIDE_STYLE('',(#365));
#351=SURFACE_SIDE_STYLE('',(#366));
#352=SURFACE_SIDE_STYLE('',(#367));
#353=SURFACE_SIDE_STYLE('',(#368));
#354=SURFACE_SIDE_STYLE('',(#369));
#355=SURFACE_SIDE_STYLE('',(#370));
#356=SURFACE_SIDE_STYLE('',(#371));
#357=SURFACE_SIDE_STYLE('',(#372));
#358=SURFACE_SIDE_STYLE('',(#373));
#359=SURFACE_SIDE_STYLE('',(#374));
#360=SURFACE_STYLE_FILL_AREA(#375);
#361=SURFACE_STYLE_FILL_AREA(#376);
#362=SURFACE_STYLE_FILL_AREA(#377);
#363=SURFACE_STYLE_FILL_AREA(#378);
#364=SURFACE_STYLE_FILL_AREA(#379);
#365=SURFACE_STYLE_FILL_AREA(#380);
#366=SURFACE_STYLE_FILL_AREA(#381);
#367=SURFACE_STYLE_FILL_AREA(#382);
#368=SURFACE_STYLE_FILL_AREA(#383);
#369=SURFACE_STYLE_FILL_AREA(#384);
#370=SURFACE_STYLE_FILL_AREA(#385);
#371=SURFACE_STYLE_FILL_AREA(#386);
#372=SURFACE_STYLE_FILL_AREA(#387);
#373=SURFACE_STYLE_FILL_AREA(#388);
#374=SURFACE_STYLE_FILL_AREA(#389);
#375=FILL_AREA_STYLE('',(#390));
#376=FILL_AREA_STYLE('',(#391));
#377=FILL_AREA_STYLE('',(#392));
#378=FILL_AREA_STYLE('',(#393));
#379=FILL_AREA_STYLE('',(#394));
#380=FILL_AREA_STYLE('',(#395));
#381=FILL_AREA_STYLE('',(#396));
#382=FILL_AREA_STYLE('',(#397));
#383=FILL_AREA_STYLE('',(#398));
#384=FILL_AREA_STYLE('',(#399));
#385=FILL_AREA_STYLE('',(#400));
#386=FILL_AREA_STYLE('',(#401));
#387=FILL_AREA_STYLE('',(#402));
#388=FILL_AREA_STYLE('',(#403));
#389=FILL_AREA_STYLE('',(#404));
#390=FILL_AREA_STYLE_COLOUR('',#405);
#391=FILL_AREA_STYLE_COLOUR('',#405);
#392=FILL_AREA_STYLE_COLOUR('',#405);
#393=FILL_AREA_STYLE_COLOUR('',#405);
#394=FILL_AREA_STYLE_COLOUR('',#405);
#395=FILL_AREA_STYLE_COLOUR('',#405);
#396=FILL_AREA_STYLE_COLOUR('',#405);
#397=FILL_AREA_STYLE_COLOUR('',#405);
#398=FILL_AREA_STYLE_COLOUR('',#405);
#399=FILL_AREA_STYLE_COLOUR('',#405);
#400=FILL_AREA_STYLE_COLOUR('',#405);
#401=FILL_AREA_STYLE_COLOUR('',#405);
#402=FILL_AREA_STYLE_COLOUR('',#405);
#403=FILL_AREA_STYLE_COLOUR('',#405);
#404=FILL_AREA_STYLE_COLOUR('',#406);
#405=COLOUR_RGB( ' ', 0.5, 0.5, 0.5 );
#406=COLOUR_RGB( ' ', 0.5, 0.5, 0.5 );
#407=ADVANCED_FACE('',(#235,#236),#291,.F.);
#408=ADVANCED_FACE('',(#237,#238),#35,.F.);
#409=ADVANCED_FACE('',(#239,#240),#27,.F.);
#410=ADVANCED_FACE('',(#241,#242),#20,.F.);
#411=ADVANCED_FACE('',(#243,#244),#36,.F.);
#412=ADVANCED_FACE('',(#245,#246),#28,.F.);
#413=ADVANCED_FACE('',(#247,#248),#37,.F.);
#414=ADVANCED_FACE('',(#249,#250),#292,.T.);
#415=ADVANCED_FACE('',(#251,#252),#29,.T.);
#416=ADVANCED_FACE('',(#253,#254),#293,.F.);
#417=ADVANCED_FACE('',(#255,#256),#38,.T.);
#418=ADVANCED_FACE('',(#257,#258),#294,.T.);
#419=ADVANCED_FACE('',(#259,#260),#30,.T.);
#420=ADVANCED_FACE('',(#261,#262),#295,.T.);
#421=ADVANCED_FACE('',(#263,#264),#21,.F.);
#422=ADVANCED_FACE('',(#265,#266),#22,.T.);
#423=ADVANCED_FACE('',(#267,#268),#31,.F.);
#424=ADVANCED_FACE('',(#269,#270),#23,.F.);
#425=ADVANCED_FACE('',(#271,#272),#32,.F.);
#426=ADVANCED_FACE('',(#273,#274),#296,.F.);
#427=ADVANCED_FACE('',(#275,#276),#24,.F.);
#428=ADVANCED_FACE('',(#277,#278),#297,.F.);
#429=ADVANCED_FACE('',(#279,#280),#298,.F.);
#430=ADVANCED_FACE('',(#281,#282),#299,.F.);
#431=ADVANCED_FACE('',(#283,#284),#25,.T.);
#432=ADVANCED_FACE('',(#285,#286),#26,.T.);
#433=ADVANCED_FACE('',(#287,#288),#33,.F.);
#434=ADVANCED_FACE('',(#289,#290),#34,.F.);
#435=CLOSED_SHELL('',(#407,#408,#409,#410,#411,#412,#413,#414,#415,#416,
#417,#418,#419,#420,#421,#422,#423,#424,#425,#426,#427,#428,#429,#430,#431,
#432,#433,#434));
#436=MANIFOLD_SOLID_BREP('NOCUT',#435);
#437=SHAPE_DEFINITION_REPRESENTATION(#701,#438);
#438=SHAPE_REPRESENTATION('363220000',(#439),#696);
#439=AXIS2_PLACEMENT_3D('',#610,#496,#497);
#440=AXIS2_PLACEMENT_3D('',#611,#498,#499);
#441=AXIS2_PLACEMENT_3D('',#612,#500,#501);
#442=AXIS2_PLACEMENT_3D('',#614,#502,#503);
#443=AXIS2_PLACEMENT_3D('',#616,#504,#505);
#444=AXIS2_PLACEMENT_3D('',#617,#506,#507);
#445=AXIS2_PLACEMENT_3D('',#619,#508,#509);
#446=AXIS2_PLACEMENT_3D('',#621,#510,#511);
#447=AXIS2_PLACEMENT_3D('',#622,#512,#513);
#448=AXIS2_PLACEMENT_3D('',#624,#514,#515);
#449=AXIS2_PLACEMENT_3D('',#626,#516,#517);
#450=AXIS2_PLACEMENT_3D('',#627,#518,#519);
#451=AXIS2_PLACEMENT_3D('',#629,#520,#521);
#452=AXIS2_PLACEMENT_3D('',#630,#522,#523);
#453=AXIS2_PLACEMENT_3D('',#632,#524,#525);
#454=AXIS2_PLACEMENT_3D('',#633,#526,#527);
#455=AXIS2_PLACEMENT_3D('',#635,#528,#529);
#456=AXIS2_PLACEMENT_3D('',#637,#530,#531);
#457=AXIS2_PLACEMENT_3D('',#638,#532,#533);
#458=AXIS2_PLACEMENT_3D('',#640,#534,#535);
#459=AXIS2_PLACEMENT_3D('',#642,#536,#537);
#460=AXIS2_PLACEMENT_3D('',#643,#538,#539);
#461=AXIS2_PLACEMENT_3D('',#645,#540,#541);
#462=AXIS2_PLACEMENT_3D('',#647,#542,#543);
#463=AXIS2_PLACEMENT_3D('',#648,#544,#545);
#464=AXIS2_PLACEMENT_3D('',#650,#546,#547);
#465=AXIS2_PLACEMENT_3D('',#652,#548,#549);
#466=AXIS2_PLACEMENT_3D('',#653,#550,#551);
#467=AXIS2_PLACEMENT_3D('',#655,#552,#553);
#468=AXIS2_PLACEMENT_3D('',#657,#554,#555);
#469=AXIS2_PLACEMENT_3D('',#658,#556,#557);
#470=AXIS2_PLACEMENT_3D('',#660,#558,#559);
#471=AXIS2_PLACEMENT_3D('',#662,#560,#561);
#472=AXIS2_PLACEMENT_3D('',#663,#562,#563);
#473=AXIS2_PLACEMENT_3D('',#665,#564,#565);
#474=AXIS2_PLACEMENT_3D('',#666,#566,#567);
#475=AXIS2_PLACEMENT_3D('',#668,#568,#569);
#476=AXIS2_PLACEMENT_3D('',#669,#570,#571);
#477=AXIS2_PLACEMENT_3D('',#671,#572,#573);
#478=AXIS2_PLACEMENT_3D('',#672,#574,#575);
#479=AXIS2_PLACEMENT_3D('',#673,#576,#577);
#480=AXIS2_PLACEMENT_3D('',#675,#578,#579);
#481=AXIS2_PLACEMENT_3D('',#676,#580,#581);
#482=AXIS2_PLACEMENT_3D('',#677,#582,#583);
#483=AXIS2_PLACEMENT_3D('',#679,#584,#585);
#484=AXIS2_PLACEMENT_3D('',#680,#586,#587);
#485=AXIS2_PLACEMENT_3D('',#681,#588,#589);
#486=AXIS2_PLACEMENT_3D('',#683,#590,#591);
#487=AXIS2_PLACEMENT_3D('',#685,#592,#593);
#488=AXIS2_PLACEMENT_3D('',#686,#594,#595);
#489=AXIS2_PLACEMENT_3D('',#688,#596,#597);
#490=AXIS2_PLACEMENT_3D('',#689,#598,#599);
#491=AXIS2_PLACEMENT_3D('',#690,#600,#601);
#492=AXIS2_PLACEMENT_3D('',#691,#602,#603);
#493=AXIS2_PLACEMENT_3D('',#692,#604,#605);
#494=AXIS2_PLACEMENT_3D('',#693,#606,#607);
#495=AXIS2_PLACEMENT_3D('',#694,#608,#609);
#496=DIRECTION('',(0.,0.,1.));
#497=DIRECTION('',(1.,0.,0.));
#498=DIRECTION('',(0.,0.,-1.));
#499=DIRECTION('',(-1.,0.,0.));
#500=DIRECTION('',(0.,0.,-1.));
#501=DIRECTION('',(-1.,0.,0.));
#502=DIRECTION('',(0.,0.,1.));
#503=DIRECTION('',(1.,0.,0.));
#504=DIRECTION('',(0.,0.,-1.));
#505=DIRECTION('',(-1.,0.,0.));
#506=DIRECTION('',(0.,0.,1.));
#507=DIRECTION('',(1.,0.,0.));
#508=DIRECTION('',(0.,0.,-1.));
#509=DIRECTION('',(-1.,0.,0.));
#510=DIRECTION('',(0.,0.,1.));
#511=DIRECTION('',(1.,0.,0.));
#512=DIRECTION('',(0.,0.,1.));
#513=DIRECTION('',(1.,0.,0.));
#514=DIRECTION('',(0.,0.,1.));
#515=DIRECTION('',(1.,0.,0.));
#516=DIRECTION('',(0.,0.,1.));
#517=DIRECTION('',(1.,0.,0.));
#518=DIRECTION('',(0.,0.,1.));
#519=DIRECTION('',(1.,0.,0.));
#520=DIRECTION('',(0.,0.,-1.));
#521=DIRECTION('',(-1.,0.,0.));
#522=DIRECTION('',(0.,0.,-1.));
#523=DIRECTION('',(-1.,0.,0.));
#524=DIRECTION('',(0.,0.,1.));
#525=DIRECTION('',(1.,0.,0.));
#526=DIRECTION('',(0.,0.,-1.));
#527=DIRECTION('',(-1.,0.,0.));
#528=DIRECTION('',(0.,0.,1.));
#529=DIRECTION('',(1.,0.,0.));
#530=DIRECTION('',(0.,0.,1.));
#531=DIRECTION('',(1.,0.,0.));
#532=DIRECTION('',(0.,0.,1.));
#533=DIRECTION('',(1.,0.,0.));
#534=DIRECTION('',(0.,0.,1.));
#535=DIRECTION('',(1.,0.,0.));
#536=DIRECTION('',(0.,0.,1.));
#537=DIRECTION('',(1.,0.,0.));
#538=DIRECTION('',(0.,0.,-1.));
#539=DIRECTION('',(-1.,0.,0.));
#540=DIRECTION('',(0.,0.,-1.));
#541=DIRECTION('',(-1.,0.,0.));
#542=DIRECTION('',(0.,0.,1.));
#543=DIRECTION('',(1.,0.,0.));
#544=DIRECTION('',(0.,0.,-1.));
#545=DIRECTION('',(-1.,0.,0.));
#546=DIRECTION('',(0.,0.,1.));
#547=DIRECTION('',(1.,0.,0.));
#548=DIRECTION('',(0.,0.,1.));
#549=DIRECTION('',(1.,0.,0.));
#550=DIRECTION('',(0.,0.,1.));
#551=DIRECTION('',(1.,0.,0.));
#552=DIRECTION('',(0.,0.,1.));
#553=DIRECTION('',(1.,0.,0.));
#554=DIRECTION('',(0.,0.,1.));
#555=DIRECTION('',(1.,0.,0.));
#556=DIRECTION('',(0.,0.,-1.));
#557=DIRECTION('',(-1.,0.,0.));
#558=DIRECTION('',(0.,0.,1.));
#559=DIRECTION('',(1.,0.,0.));
#560=DIRECTION('',(0.,0.,-1.));
#561=DIRECTION('',(-1.,0.,0.));
#562=DIRECTION('',(0.,0.,1.));
#563=DIRECTION('',(1.,0.,0.));
#564=DIRECTION('',(0.,0.,1.));
#565=DIRECTION('',(1.,0.,0.));
#566=DIRECTION('',(0.,0.,1.));
#567=DIRECTION('',(1.,0.,0.));
#568=DIRECTION('',(0.,0.,1.));
#569=DIRECTION('',(1.,0.,0.));
#570=DIRECTION('',(0.,0.,1.));
#571=DIRECTION('',(1.,0.,0.));
#572=DIRECTION('',(0.,0.,1.));
#573=DIRECTION('',(1.,0.,0.));
#574=DIRECTION('',(0.,0.,1.));
#575=DIRECTION('',(1.,0.,0.));
#576=DIRECTION('',(0.,0.,1.));
#577=DIRECTION('',(1.,0.,0.));
#578=DIRECTION('',(0.,0.,1.));
#579=DIRECTION('',(1.,0.,0.));
#580=DIRECTION('',(0.,0.,1.));
#581=DIRECTION('',(1.,0.,0.));
#582=DIRECTION('',(0.,0.,1.));
#583=DIRECTION('',(1.,0.,0.));
#584=DIRECTION('',(0.,0.,1.));
#585=DIRECTION('',(1.,0.,0.));
#586=DIRECTION('',(0.,0.,1.));
#587=DIRECTION('',(1.,0.,0.));
#588=DIRECTION('',(0.,0.,1.));
#589=DIRECTION('',(1.,0.,0.));
#590=DIRECTION('',(0.,0.,1.));
#591=DIRECTION('',(1.,0.,0.));
#592=DIRECTION('',(0.,0.,1.));
#593=DIRECTION('',(1.,0.,0.));
#594=DIRECTION('',(0.,0.,-1.));
#595=DIRECTION('',(-1.,0.,0.));
#596=DIRECTION('',(0.,0.,1.));
#597=DIRECTION('',(1.,0.,0.));
#598=DIRECTION('',(0.,0.,1.));
#599=DIRECTION('',(1.,0.,0.));
#600=DIRECTION('',(0.,0.,-1.));
#601=DIRECTION('',(-1.,0.,0.));
#602=DIRECTION('',(0.,0.,-1.));
#603=DIRECTION('',(-1.,0.,0.));
#604=DIRECTION('',(0.,0.,1.));
#605=DIRECTION('',(1.,0.,0.));
#606=DIRECTION('',(0.,0.,1.));
#607=DIRECTION('',(1.,0.,0.));
#608=DIRECTION('',(0.,0.,1.));
#609=DIRECTION('',(1.,0.,0.));
#610=CARTESIAN_POINT('',(0.,0.,0.));
#611=CARTESIAN_POINT('',(0.,0.,19.8340489990004));
#612=CARTESIAN_POINT('',(0.,0.,19.7255071483928));
#613=CARTESIAN_POINT('',(-20.188,0.,19.7255071483928));
#614=CARTESIAN_POINT('',(0.,0.,19.1123611625134));
#615=CARTESIAN_POINT('',(21.25,0.,19.1123611625134));
#616=CARTESIAN_POINT('',(19.75,0.,12.95));
#617=CARTESIAN_POINT('',(0.,0.,12.95));
#618=CARTESIAN_POINT('',(19.75,0.,12.95));
#619=CARTESIAN_POINT('',(3.46944695195361E-15,0.,12.95));
#620=CARTESIAN_POINT('',(-16.603024758084,0.,12.95));
#621=CARTESIAN_POINT('',(0.,0.,60.));
#622=CARTESIAN_POINT('',(0.,0.,5.44992452883921));
#623=CARTESIAN_POINT('',(13.5,0.,5.44992452883921));
#624=CARTESIAN_POINT('',(0.,0.,1.4));
#625=CARTESIAN_POINT('',(13.5,0.,1.4));
#626=CARTESIAN_POINT('',(0.,0.,1.4));
#627=CARTESIAN_POINT('',(0.,0.,1.));
#628=CARTESIAN_POINT('',(13.1,0.,1.));
#629=CARTESIAN_POINT('',(13.1,0.,1.));
#630=CARTESIAN_POINT('',(0.,0.,1.));
#631=CARTESIAN_POINT('',(-12.15,0.,1.));
#632=CARTESIAN_POINT('',(0.,0.,60.));
#633=CARTESIAN_POINT('',(0.,0.,0.850000000000004));
#634=CARTESIAN_POINT('',(-12.,0.,0.850000000000004));
#635=CARTESIAN_POINT('',(0.,0.,0.149999999999997));
#636=CARTESIAN_POINT('',(12.,0.,0.149999999999997));
#637=CARTESIAN_POINT('',(12.,0.,0.));
#638=CARTESIAN_POINT('',(0.,0.,0.));
#639=CARTESIAN_POINT('',(22.2288248654052,0.,0.));
#640=CARTESIAN_POINT('',(0.,0.,0.));
#641=CARTESIAN_POINT('',(12.15,0.,0.));
#642=CARTESIAN_POINT('',(0.,0.,0.));
#643=CARTESIAN_POINT('',(0.,0.,0.25));
#644=CARTESIAN_POINT('',(-22.6618375672974,0.,0.25));
#645=CARTESIAN_POINT('',(0.,0.,3.83571451465198));
#646=CARTESIAN_POINT('',(-24.7320508075689,0.,3.83571451465198));
#647=CARTESIAN_POINT('',(0.,0.,60.));
#648=CARTESIAN_POINT('',(0.,0.,4.83571451465199));
#649=CARTESIAN_POINT('',(-25.,0.,4.83571451465199));
#650=CARTESIAN_POINT('',(0.,0.,34.8));
#651=CARTESIAN_POINT('',(25.,0.,34.8));
#652=CARTESIAN_POINT('',(0.,0.,33.3));
#653=CARTESIAN_POINT('',(0.,0.,32.7878903112288));
#654=CARTESIAN_POINT('',(20.188,0.,32.7878903112288));
#655=CARTESIAN_POINT('',(0.,0.,33.3));
#656=CARTESIAN_POINT('',(21.075,0.,33.3));
#657=CARTESIAN_POINT('',(0.,0.,36.8));
#658=CARTESIAN_POINT('',(0.,0.,36.8));
#659=CARTESIAN_POINT('',(-22.0364835192866,0.,36.8));
#660=CARTESIAN_POINT('',(0.,0.,36.8));
#661=CARTESIAN_POINT('',(25.,0.,36.8));
#662=CARTESIAN_POINT('',(0.,0.,36.8));
#663=CARTESIAN_POINT('',(0.,0.,36.6));
#664=CARTESIAN_POINT('',(25.2,0.,36.6));
#665=CARTESIAN_POINT('',(0.,0.,36.8));
#666=CARTESIAN_POINT('',(0.,0.,35.1656854249492));
#667=CARTESIAN_POINT('',(25.2,0.,35.1656854249492));
#668=CARTESIAN_POINT('',(0.,0.,35.1656854249492));
#669=CARTESIAN_POINT('',(0.,0.,35.0828427124746));
#670=CARTESIAN_POINT('',(25.1171572875254,0.,35.0828427124746));
#671=CARTESIAN_POINT('',(0.,0.,34.8));
#672=CARTESIAN_POINT('',(0.,0.,35.4));
#673=CARTESIAN_POINT('',(0.,0.,35.4));
#674=CARTESIAN_POINT('',(21.075,0.,35.4));
#675=CARTESIAN_POINT('',(0.,0.,65.));
#676=CARTESIAN_POINT('',(0.,0.,14.45));
#677=CARTESIAN_POINT('',(0.,0.,14.45));
#678=CARTESIAN_POINT('',(21.25,0.,14.45));
#679=CARTESIAN_POINT('',(0.,0.,65.));
#680=CARTESIAN_POINT('',(0.,0.,5.59992452883921));
#681=CARTESIAN_POINT('',(0.,0.,11.2));
#682=CARTESIAN_POINT('',(16.7332050807569,0.,11.2));
#683=CARTESIAN_POINT('',(0.,0.,5.72982833940688));
#684=CARTESIAN_POINT('',(13.575,0.,5.72982833940688));
#685=CARTESIAN_POINT('',(0.,0.,11.3));
#686=CARTESIAN_POINT('',(0.,0.,11.4953173576306));
#687=CARTESIAN_POINT('',(-16.603024758084,0.,11.4953173576306));
#688=CARTESIAN_POINT('',(0.,0.,5.44992452883921));
#689=CARTESIAN_POINT('',(0.,0.,0.850000000000004));
#690=CARTESIAN_POINT('',(0.,0.,0.));
#691=CARTESIAN_POINT('',(0.,0.,4.83571451465199));
#692=CARTESIAN_POINT('',(0.,0.,0.5));
#693=CARTESIAN_POINT('',(3.46944695195361E-15,0.,-68.7157091846728));
#694=CARTESIAN_POINT('',(-8.67361737988404E-16,0.,-43.4157091846728));
#695=MECHANICAL_DESIGN_GEOMETRIC_PRESENTATION_REPRESENTATION('',(#300,#301,
#302,#303,#304,#305,#306,#307,#308,#309,#310,#311,#312,#313,#314),#696);
#696=(
GEOMETRIC_REPRESENTATION_CONTEXT(3)
GLOBAL_UNCERTAINTY_ASSIGNED_CONTEXT((#697))
GLOBAL_UNIT_ASSIGNED_CONTEXT((#700,#699,#698))
REPRESENTATION_CONTEXT('363220000','TOP_LEVEL_ASSEMBLY_PART')
);
#697=UNCERTAINTY_MEASURE_WITH_UNIT(LENGTH_MEASURE(0.005),#700,
'DISTANCE_ACCURACY_VALUE','Maximum Tolerance applied to model');
#698=(
NAMED_UNIT(*)
SI_UNIT($,.STERADIAN.)
SOLID_ANGLE_UNIT()
);
#699=(
NAMED_UNIT(*)
PLANE_ANGLE_UNIT()
SI_UNIT($,.RADIAN.)
);
#700=(
LENGTH_UNIT()
NAMED_UNIT(*)
SI_UNIT(.MILLI.,.METRE.)
);
#701=PRODUCT_DEFINITION_SHAPE('','',#702);
#702=PRODUCT_DEFINITION('','',#704,#703);
#703=PRODUCT_DEFINITION_CONTEXT('',#710,'design');
#704=PRODUCT_DEFINITION_FORMATION_WITH_SPECIFIED_SOURCE('','',#706,
 .NOT_KNOWN.);
#705=PRODUCT_RELATED_PRODUCT_CATEGORY('','',(#706));
#706=PRODUCT('NOCUT','NOCUT','NOCUT',(#708));
#707=PRODUCT_CATEGORY('','');
#708=PRODUCT_CONTEXT('',#710,'mechanical');
#709=APPLICATION_PROTOCOL_DEFINITION('international standard',
'automotive_design',2010,#710);
#710=APPLICATION_CONTEXT(
'core data for automotive mechanical design processes');
#711=AXIS2_PLACEMENT_3D('PCS',#712,#713,#714);
#712=CARTESIAN_POINT('',(0.,0.,36.8));
#713=DIRECTION('',(0.,0.,1.));
#714=DIRECTION('',(1.,0.,0.));
#715=AXIS2_PLACEMENT_3D('MCS',#716,#717,#718);
#716=CARTESIAN_POINT('',(0.,0.,36.8));
#717=DIRECTION('',(0.,0.,1.));
#718=DIRECTION('',(1.,0.,0.));
#719=AXIS2_PLACEMENT_3D('CSW',#720,#721,#722);
#720=CARTESIAN_POINT('',(0.,0.,0.));
#721=DIRECTION('',(0.,0.,1.));
#722=DIRECTION('',(1.,0.,0.));
#723=CONSTRUCTIVE_GEOMETRY_REPRESENTATION_RELATIONSHIP('coordinate systems',$,#19,#724);
#724=CONSTRUCTIVE_GEOMETRY_REPRESENTATION('coordinate systems',(#711, #715, #719),#696);
ENDSEC;
END-ISO-10303-21;

